  0
SECTION
  2
HEADER
  9
$ACADVER
  1
AC1015
  9
$ACADMAINTVER
 70
    20
  9
$DWGCODEPAGE
  3
ANSI_1252
  9
$INSBASE
 10
0.0
 20
0.0
 30
0.0
  9
$EXTMIN
 10
-0.0000008078504834
 20
0.0000001108869583
 30
-0.0000000000052481
  9
$EXTMAX
 10
353.9999991921495
 20
482.0000001108869
 30
0.0
  9
$LIMMIN
 10
0.0
 20
0.0000001108869583
  9
$LIMMAX
 10
353.9999991921495
 20
482.0000001108869
  9
$ORTHOMODE
 70
     0
  9
$REGENMODE
 70
     1
  9
$FILLMODE
 70
     1
  9
$QTEXTMODE
 70
     0
  9
$MIRRTEXT
 70
     0
  9
$LTSCALE
 40
1.0
  9
$ATTMODE
 70
     1
  9
$TEXTSIZE
 40
5.0
  9
$TRACEWID
 40
1.0
  9
$TEXTSTYLE
  7
Arial-Bold
  9
$CLAYER
  8
APL Joinery
  9
$CELTYPE
  6
ByLayer
  9
$CECOLOR
 62
   256
  9
$CELTSCALE
 40
1.0
  9
$DISPSILH
 70
     0
  9
$DIMSCALE
 40
1.0
  9
$DIMASZ
 40
4.0
  9
$DIMEXO
 40
0.625
  9
$DIMDLI
 40
3.75
  9
$DIMRND
 40
0.0
  9
$DIMDLE
 40
0.0
  9
$DIMEXE
 40
1.25
  9
$DIMTP
 40
0.0
  9
$DIMTM
 40
0.0
  9
$DIMTXT
 40
2.5
  9
$DIMCEN
 40
2.5
  9
$DIMTSZ
 40
0.0
  9
$DIMTOL
 70
     0
  9
$DIMLIM
 70
     0
  9
$DIMTIH
 70
     0
  9
$DIMTOH
 70
     0
  9
$DIMSE1
 70
     0
  9
$DIMSE2
 70
     0
  9
$DIMTAD
 70
     1
  9
$DIMZIN
 70
     8
  9
$DIMBLK
  1

  9
$DIMASO
 70
     1
  9
$DIMSHO
 70
     1
  9
$DIMPOST
  1

  9
$DIMAPOST
  1

  9
$DIMALT
 70
     0
  9
$DIMALTD
 70
     3
  9
$DIMALTF
 40
0.03937007874016
  9
$DIMLFAC
 40
1.0
  9
$DIMTOFL
 70
     1
  9
$DIMTVP
 40
0.0
  9
$DIMTIX
 70
     0
  9
$DIMSOXD
 70
     0
  9
$DIMSAH
 70
     0
  9
$DIMBLK1
  1

  9
$DIMBLK2
  1

  9
$DIMSTYLE
  2
ISO-25
  9
$DIMCLRD
 70
     0
  9
$DIMCLRE
 70
     0
  9
$DIMCLRT
 70
     0
  9
$DIMTFAC
 40
1.0
  9
$DIMGAP
 40
0.625
  9
$DIMJUST
 70
     0
  9
$DIMSD1
 70
     0
  9
$DIMSD2
 70
     0
  9
$DIMTOLJ
 70
     0
  9
$DIMTZIN
 70
     8
  9
$DIMALTZ
 70
     0
  9
$DIMALTTZ
 70
     0
  9
$DIMUPT
 70
     0
  9
$DIMDEC
 70
     2
  9
$DIMTDEC
 70
     2
  9
$DIMALTU
 70
     2
  9
$DIMALTTD
 70
     3
  9
$DIMTXSTY
  7
Standard
  9
$DIMAUNIT
 70
     0
  9
$DIMADEC
 70
     0
  9
$DIMALTRND
 40
0.0
  9
$DIMAZIN
 70
     0
  9
$DIMDSEP
 70
    44
  9
$DIMATFIT
 70
     3
  9
$DIMFRAC
 70
     0
  9
$DIMLDRBLK
  1

  9
$DIMLUNIT
 70
     2
  9
$DIMLWD
 70
    -2
  9
$DIMLWE
 70
    -2
  9
$DIMTMOVE
 70
     0
  9
$LUNITS
 70
     2
  9
$LUPREC
 70
     4
  9
$SKETCHINC
 40
1.0
  9
$FILLETRAD
 40
0.0
  9
$AUNITS
 70
     0
  9
$AUPREC
 70
     0
  9
$MENU
  1
.
  9
$ELEVATION
 40
0.0
  9
$PELEVATION
 40
0.0
  9
$THICKNESS
 40
0.0
  9
$LIMCHECK
 70
     0
  9
$CHAMFERA
 40
10.0
  9
$CHAMFERB
 40
10.0
  9
$CHAMFERC
 40
20.0
  9
$CHAMFERD
 40
0.0
  9
$SKPOLY
 70
     0
  9
$TDCREATE
 40
2452417.391545024
  9
$TDUCREATE
 40
2452416.891545023
  9
$TDUPDATE
 40
2455707.526819271
  9
$TDUUPDATE
 40
2455707.026819271
  9
$TDINDWG
 40
2.0349522222
  9
$TDUSRTIMER
 40
2.0349522222
  9
$USRTIMER
 70
     1
  9
$ANGBASE
 50
0.0
  9
$ANGDIR
 70
     0
  9
$PDMODE
 70
     3
  9
$PDSIZE
 40
2.0
  9
$PLINEWID
 40
0.0
  9
$SPLFRAME
 70
     0
  9
$SPLINETYPE
 70
     6
  9
$SPLINESEGS
 70
     8
  9
$HANDSEED
  5
426E
  9
$SURFTAB1
 70
     6
  9
$SURFTAB2
 70
     6
  9
$SURFTYPE
 70
     6
  9
$SURFU
 70
     6
  9
$SURFV
 70
     6
  9
$UCSBASE
  2

  9
$UCSNAME
  2

  9
$UCSORG
 10
0.0
 20
0.0
 30
0.0
  9
$UCSXDIR
 10
1.0
 20
0.0
 30
0.0
  9
$UCSYDIR
 10
0.0
 20
1.0
 30
0.0
  9
$UCSORTHOREF
  2

  9
$UCSORTHOVIEW
 70
     0
  9
$UCSORGTOP
 10
0.0
 20
0.0
 30
0.0
  9
$UCSORGBOTTOM
 10
0.0
 20
0.0
 30
0.0
  9
$UCSORGLEFT
 10
0.0
 20
0.0
 30
0.0
  9
$UCSORGRIGHT
 10
0.0
 20
0.0
 30
0.0
  9
$UCSORGFRONT
 10
0.0
 20
0.0
 30
0.0
  9
$UCSORGBACK
 10
0.0
 20
0.0
 30
0.0
  9
$PUCSBASE
  2

  9
$PUCSNAME
  2

  9
$PUCSORG
 10
0.0
 20
0.0
 30
0.0
  9
$PUCSXDIR
 10
1.0
 20
0.0
 30
0.0
  9
$PUCSYDIR
 10
0.0
 20
1.0
 30
0.0
  9
$PUCSORTHOREF
  2

  9
$PUCSORTHOVIEW
 70
     0
  9
$PUCSORGTOP
 10
0.0
 20
0.0
 30
0.0
  9
$PUCSORGBOTTOM
 10
0.0
 20
0.0
 30
0.0
  9
$PUCSORGLEFT
 10
0.0
 20
0.0
 30
0.0
  9
$PUCSORGRIGHT
 10
0.0
 20
0.0
 30
0.0
  9
$PUCSORGFRONT
 10
0.0
 20
0.0
 30
0.0
  9
$PUCSORGBACK
 10
0.0
 20
0.0
 30
0.0
  9
$USERI1
 70
     0
  9
$USERI2
 70
     0
  9
$USERI3
 70
     0
  9
$USERI4
 70
     0
  9
$USERI5
 70
     0
  9
$USERR1
 40
0.0
  9
$USERR2
 40
0.0
  9
$USERR3
 40
0.0
  9
$USERR4
 40
0.0
  9
$USERR5
 40
0.0
  9
$WORLDVIEW
 70
     1
  9
$SHADEDGE
 70
     3
  9
$SHADEDIF
 70
    70
  9
$TILEMODE
 70
     0
  9
$MAXACTVP
 70
    64
  9
$PINSBASE
 10
0.0
 20
0.0
 30
0.0
  9
$PLIMCHECK
 70
     0
  9
$PEXTMIN
 10
11.58824886427339
 20
1.177884661932466
 30
-0.0015258207003583
  9
$PEXTMAX
 10
189.6073677543587
 20
282.2033753668244
 30
0.0000000349246037
  9
$PLIMMIN
 10
-5.027082920074462
 20
-5.408084392547607
  9
$PLIMMAX
 10
204.8615736961365
 20
291.6449246406555
  9
$UNITMODE
 70
     0
  9
$VISRETAIN
 70
     1
  9
$PLINEGEN
 70
     0
  9
$PSLTSCALE
 70
     1
  9
$TREEDEPTH
 70
  3020
  9
$CMLSTYLE
  2
Standard
  9
$CMLJUST
 70
     0
  9
$CMLSCALE
 40
20.0
  9
$PROXYGRAPHICS
 70
     1
  9
$MEASUREMENT
 70
     1
  9
$CELWEIGHT
370
    -1
  9
$ENDCAPS
280
     0
  9
$JOINSTYLE
280
     0
  9
$LWDISPLAY
290
     0
  9
$INSUNITS
 70
     4
  9
$HYPERLINKBASE
  1

  9
$STYLESHEET
  1

  9
$XEDIT
290
     1
  9
$CEPSNTYPE
380
     0
  9
$PSTYLEMODE
290
     1
  9
$FINGERPRINTGUID
  2
{D079D194-C9C2-11D5-B123-005004D48FB5}
  9
$VERSIONGUID
  2
{E610DB6A-895B-46D1-8E3B-12DA53C18416}
  9
$EXTNAMES
290
     1
  9
$PSVPSCALE
 40
0.0
  9
$OLESTARTUP
290
     0
  0
ENDSEC
  0
SECTION
  2
CLASSES
  0
CLASS
  1
ACDBDICTIONARYWDFLT
  2
AcDbDictionaryWithDefault
  3
ObjectDBX Classes
 90
        0
280
     0
281
     0
  0
CLASS
  1
ACDBPLACEHOLDER
  2
AcDbPlaceHolder
  3
ObjectDBX Classes
 90
        0
280
     0
281
     0
  0
CLASS
  1
LAYOUT
  2
AcDbLayout
  3
ObjectDBX Classes
 90
        0
280
     0
281
     0
  0
CLASS
  1
DICTIONARYVAR
  2
AcDbDictionaryVar
  3
ObjectDBX Classes
 90
        0
280
     0
281
     0
  0
CLASS
  1
PLOTSETTINGS
  2
AcDbPlotSettings
  3
ObjectDBX Classes
 90
    32768
280
     0
281
     0
  0
CLASS
  1
MATERIAL
  2
AcDbMaterial
  3
ObjectDBX Classes
 90
        0
280
     0
281
     0
  0
CLASS
  1
VISUALSTYLE
  2
AcDbVisualStyle
  3
ObjectDBX Classes
 90
     4095
280
     0
281
     0
  0
CLASS
  1
TABLESTYLE
  2
AcDbTableStyle
  3
ObjectDBX Classes
 90
     2047
280
     0
281
     0
  0
CLASS
  1
SCALE
  2
AcDbScale
  3
ObjectDBX Classes
 90
     1153
280
     0
281
     0
  0
CLASS
  1
MLEADERSTYLE
  2
AcDbMLeaderStyle
  3
ACDB_MLEADERSTYLE_CLASS
 90
     4095
280
     0
281
     0
  0
CLASS
  1
EXACTERMXREFMAP
  2
ExAcTermXrefMap
  3
EXAC_SERVICE
 90
    33793
280
     0
281
     0
  0
CLASS
  1
NPOCOLLECTION
  2
AcDbImpNonPersistentObjectsCollection
  3
ObjectDBX Classes
 90
    33921
280
     0
281
     0
  0
CLASS
  1
EXACXREFPANELOBJECT
  2
ExAcXREFPanelObject
  3
EXAC_ESW
 90
    33793
280
     0
281
     0
  0
CLASS
  1
CELLSTYLEMAP
  2
AcDbCellStyleMap
  3
ObjectDBX Classes
 90
     1152
280
     0
281
     0
  0
CLASS
  1
SORTENTSTABLE
  2
AcDbSortentsTable
  3
ObjectDBX Classes
 90
        0
280
     0
281
     0
  0
CLASS
  1
ACAD_EVALUATION_GRAPH
  2
AcDbEvalGraph
  3
ObjectDBX Classes
 90
    33921
280
     0
281
     0
  0
CLASS
  1
ACAECUSTOBJ
  2
AcAeEditorObj
  3
AcAeEditorObj
 90
    33792
280
     0
281
     0
  0
CLASS
  1
ACDB_DYNAMICBLOCKPURGEPREVENTER_VERSION
  2
AcDbDynamicBlockPurgePreventer
  3
ObjectDBX Classes
 90
    33921
280
     0
281
     0
  0
ENDSEC
  0
SECTION
  2
TABLES
  0
TABLE
  2
VPORT
  5
8
102
{ACAD_XDICTIONARY
360
37D7
102
}
330
0
100
AcDbSymbolTable
 70
     1
  0
VPORT
  5
3DD8
330
8
100
AcDbSymbolTableRecord
100
AcDbViewportTableRecord
  2
*Active
 70
     0
 10
0.0
 20
0.0
 11
1.0
 21
1.0
 12
305.9357779861375
 22
75.24788106443214
 13
0.0
 23
0.0
 14
10.0
 24
10.0
 15
10.0
 25
10.0
 16
0.0
 26
0.0
 36
1.0
 17
0.0
 27
0.0
 37
0.0
 40
693.3430862040816
 41
1.55350553505535
 42
50.0
 43
0.0
 44
0.0
 50
0.0
 51
0.0
 71
     0
 72
 20000
 73
     1
 74
     3
 75
     0
 76
     0
 77
     0
 78
     1
281
     0
 65
     1
110
0.0
120
0.0
130
0.0
111
1.0
121
0.0
131
0.0
112
0.0
122
1.0
132
0.0
 79
     0
146
0.0
  0
ENDTAB
  0
TABLE
  2
LTYPE
  5
5
330
0
100
AcDbSymbolTable
 70
     2
  0
LTYPE
  5
14
330
5
100
AcDbSymbolTableRecord
100
AcDbLinetypeTableRecord
  2
ByBlock
 70
     0
  3

 72
    65
 73
     0
 40
0.0
  0
LTYPE
  5
15
330
5
100
AcDbSymbolTableRecord
100
AcDbLinetypeTableRecord
  2
ByLayer
 70
     0
  3

 72
    65
 73
     0
 40
0.0
  0
LTYPE
  5
16
330
5
100
AcDbSymbolTableRecord
100
AcDbLinetypeTableRecord
  2
Continuous
 70
     0
  3
Solid line
 72
    65
 73
     0
 40
0.0
  0
LTYPE
  5
2DF6
330
5
100
AcDbSymbolTableRecord
100
AcDbLinetypeTableRecord
  2
DASHED
 70
     0
  3
_ _ _ _ _ _ _ _ _ _ _ _ _ _ _ _
 72
    65
 73
     2
 40
0.2
 49
0.1
 74
     0
 49
-0.1
 74
     0
  0
ENDTAB
  0
TABLE
  2
LAYER
  5
2
102
{ACAD_XDICTIONARY
360
31AB
102
}
330
0
100
AcDbSymbolTable
 70
     6
  0
LAYER
  5
10
102
{ACAD_XDICTIONARY
360
3603
102
}
330
2
100
AcDbSymbolTableRecord
100
AcDbLayerTableRecord
  2
0
 70
     4
 62
     7
  6
Continuous
290
     0
370
    -3
390
F
  0
LAYER
  5
2B
102
{ACAD_XDICTIONARY
360
3605
102
}
330
2
100
AcDbSymbolTableRecord
100
AcDbLayerTableRecord
  2
APL Joinery
 70
     0
 62
     2
  6
Continuous
370
    -3
390
F
  0
LAYER
  5
75
102
{ACAD_XDICTIONARY
360
3607
102
}
330
2
100
AcDbSymbolTableRecord
100
AcDbLayerTableRecord
  2
APL Notes
 70
     0
 62
     7
  6
Continuous
370
    -3
390
F
  0
LAYER
  5
2F05
102
{ACAD_XDICTIONARY
360
3609
102
}
330
2
100
AcDbSymbolTableRecord
100
AcDbLayerTableRecord
  2
APL Border
 70
     0
 62
     7
  6
Continuous
370
    -3
390
F
  0
LAYER
  5
35A2
102
{ACAD_XDICTIONARY
360
360F
102
}
330
2
100
AcDbSymbolTableRecord
100
AcDbLayerTableRecord
  2
APL Hatch
 70
     0
 62
   253
  6
Continuous
370
    -3
390
F
  0
ENDTAB
  0
TABLE
  2
STYLE
  5
3
330
0
100
AcDbSymbolTable
 70
     5
  0
STYLE
  5
11
330
3
100
AcDbSymbolTableRecord
100
AcDbTextStyleTableRecord
  2
Standard
 70
     0
 40
0.0
 41
1.0
 50
0.0
 71
     0
 42
3.0
  3
txt.shx
  4

  0
STYLE
  5
2830
330
3
100
AcDbSymbolTableRecord
100
AcDbTextStyleTableRecord
  2
Arial-Bold
 70
     0
 40
0.0
 41
1.0
 50
0.0
 71
     0
 42
5.0
  3
ARIALBD.TTF
  4

1001
ACAD
1000
Arial
1071
 33554466
  0
STYLE
  5
2F3D
330
3
100
AcDbSymbolTableRecord
100
AcDbTextStyleTableRecord
  2
Arial-Regular
 70
     0
 40
0.0
 41
1.0
 50
0.0
 71
     0
 42
2.5
  3
ARIAL.TTF
  4

1001
ACAD
1000
Arial
1071
       34
  0
ENDTAB
  0
TABLE
  2
VIEW
  5
6
330
0
100
AcDbSymbolTable
 70
     1
  0
ENDTAB
  0
TABLE
  2
UCS
  5
7
330
0
100
AcDbSymbolTable
 70
     0
  0
ENDTAB
  0
TABLE
  2
APPID
  5
9
330
0
100
AcDbSymbolTable
 70
    10
  0
APPID
  5
12
330
9
100
AcDbSymbolTableRecord
100
AcDbRegAppTableRecord
  2
ACAD
 70
     0
  0
APPID
  5
352C
330
9
100
AcDbSymbolTableRecord
100
AcDbRegAppTableRecord
  2
DCO15
 70
     0
  0
APPID
  5
359A
330
9
100
AcDbSymbolTableRecord
100
AcDbRegAppTableRecord
  2
ACAD_MLEADERVER
 70
     0
  0
APPID
  5
36E8
330
9
100
AcDbSymbolTableRecord
100
AcDbRegAppTableRecord
  2
ACAD_PSEXT
 70
     0
  0
APPID
  5
3976
330
9
100
AcDbSymbolTableRecord
100
AcDbRegAppTableRecord
  2
ACAUTHENVIRON
 70
     0
  0
APPID
  5
3977
330
9
100
AcDbSymbolTableRecord
100
AcDbRegAppTableRecord
  2
AcDbDynamicBlockTrueName
 70
     0
  0
APPID
  5
3978
330
9
100
AcDbSymbolTableRecord
100
AcDbRegAppTableRecord
  2
AcDbDynamicBlockGUID
 70
     0
  0
APPID
  5
3979
330
9
100
AcDbSymbolTableRecord
100
AcDbRegAppTableRecord
  2
AcDbBlockRepETag
 70
     0
  0
APPID
  5
397A
330
9
100
AcDbSymbolTableRecord
100
AcDbRegAppTableRecord
  2
AcDbBlockRepBTag
 70
     0
  0
APPID
  5
397B
330
9
100
AcDbSymbolTableRecord
100
AcDbRegAppTableRecord
  2
ACAD_EXEMPT_FROM_CAD_STANDARDS
 70
     0
  0
ENDTAB
  0
TABLE
  2
DIMSTYLE
  5
A
330
0
100
AcDbSymbolTable
 70
     2
100
AcDbDimStyleTable
 71
     1
340
27
  0
DIMSTYLE
105
27
330
A
100
AcDbSymbolTableRecord
100
AcDbDimStyleTableRecord
  2
ISO-25
 70
     0
 41
4.0
 42
0.625
 43
3.75
 44
1.25
 73
     0
 74
     0
 77
     1
 78
     8
140
2.5
141
2.5
143
0.03937007874016
147
0.625
171
     3
172
     1
271
     2
272
     2
274
     3
278
    44
283
     0
284
     8
340
11
  0
ENDTAB
  0
TABLE
  2
BLOCK_RECORD
  5
1
330
0
100
AcDbSymbolTable
 70
    34
  0
BLOCK_RECORD
  5
1F
102
{ACAD_XDICTIONARY
360
369B
102
}
330
1
100
AcDbSymbolTableRecord
100
AcDbBlockTableRecord
  2
*Model_Space
340
22
  0
BLOCK_RECORD
  5
2F0A
330
1
100
AcDbSymbolTableRecord
100
AcDbBlockTableRecord
  2
*Paper_Space
340
2F0B
  0
BLOCK_RECORD
  5
268A
330
1
100
AcDbSymbolTableRecord
100
AcDbBlockTableRecord
  2
08021
340
0
102
{BLKREFS
331
3BEE
102
}
  0
BLOCK_RECORD
  5
2691
330
1
100
AcDbSymbolTableRecord
100
AcDbBlockTableRecord
  2
6Glass
340
0
102
{BLKREFS
331
30D7
331
30D8
331
3BE5
331
3BF0
102
}
  0
BLOCK_RECORD
  5
269A
330
1
100
AcDbSymbolTableRecord
100
AcDbBlockTableRecord
  2
9010312l
340
0
102
{BLKREFS
331
3BE4
331
3BEF
331
3BFB
102
}
  0
BLOCK_RECORD
  5
269F
330
1
100
AcDbSymbolTableRecord
100
AcDbBlockTableRecord
  2
9010260R
340
0
102
{BLKREFS
331
3BE6
331
3BF1
102
}
  0
BLOCK_RECORD
  5
26A8
102
{ACAD_XDICTIONARY
360
3E27
102
}
330
1
100
AcDbSymbolTableRecord
100
AcDbBlockTableRecord
  2
08001
340
0
102
{BLKREFS
331
26AD
331
26E7
331
28D2
102
}
  0
BLOCK_RECORD
  5
26B8
330
1
100
AcDbSymbolTableRecord
100
AcDbBlockTableRecord
  2
08022
340
0
102
{BLKREFS
331
287F
331
2DDA
331
2E91
331
2E94
331
2EE0
331
3BE3
102
}
  0
BLOCK_RECORD
  5
26EC
330
1
100
AcDbSymbolTableRecord
100
AcDbBlockTableRecord
  2
9010317
340
0
102
{BLKREFS
331
26F2
331
28D4
331
3153
102
}
  0
BLOCK_RECORD
  5
26F6
330
1
100
AcDbSymbolTableRecord
100
AcDbBlockTableRecord
  2
19mmliner
340
0
102
{BLKREFS
331
26FB
331
281A
331
28D3
102
}
  0
BLOCK_RECORD
  5
2E6A
330
1
100
AcDbSymbolTableRecord
100
AcDbBlockTableRecord
  2
08005
340
0
102
{BLKREFS
331
2E6F
102
}
  0
BLOCK_RECORD
  5
2E70
330
1
100
AcDbSymbolTableRecord
100
AcDbBlockTableRecord
  2
08006
340
0
102
{BLKREFS
331
2E75
102
}
  0
BLOCK_RECORD
  5
2E81
330
1
100
AcDbSymbolTableRecord
100
AcDbBlockTableRecord
  2
08015
340
0
102
{BLKREFS
331
2E86
102
}
  0
BLOCK_RECORD
  5
2E87
102
{ACAD_XDICTIONARY
360
3E3F
102
}
330
1
100
AcDbSymbolTableRecord
100
AcDbBlockTableRecord
  2
08016
340
0
102
{BLKREFS
331
2E8D
102
}
  0
BLOCK_RECORD
  5
2EA9
330
1
100
AcDbSymbolTableRecord
100
AcDbBlockTableRecord
  2
9010100
340
0
102
{BLKREFS
331
2EAD
331
2EAE
331
2EB4
331
2EB5
102
}
  0
BLOCK_RECORD
  5
2F25
330
1
100
AcDbSymbolTableRecord
100
AcDbBlockTableRecord
  2
altherm a4 SM border
340
0
102
{BLKREFS
331
2F29
102
}
  0
BLOCK_RECORD
  5
2FA1
330
1
100
AcDbSymbolTableRecord
100
AcDbBlockTableRecord
  2
08025
340
0
102
{BLKREFS
331
2FA6
102
}
  0
BLOCK_RECORD
  5
2FB9
102
{ACAD_XDICTIONARY
360
4233
102
}
330
1
100
AcDbSymbolTableRecord
100
AcDbBlockTableRecord
  2
08004
340
0
102
{BLKREFS
331
2FBE
102
}
  0
BLOCK_RECORD
  5
2FC4
102
{ACAD_XDICTIONARY
360
3BE7
102
}
330
1
100
AcDbSymbolTableRecord
100
AcDbBlockTableRecord
  2
08022glaze
340
0
310
28000000200000002000000001000800000000000004000000000000000000000000000000000000000000004000000080000000FF000000002000004020000080200000FF200000004000004040000080400000FF400000006000004060000080600000FF600000008000004080000080800000FF80000000A0000040A000
310
0080A00000FFA0000000C0000040C0000080C00000FFC0000000FF000040FF000080FF0000FFFF0000000020004000200080002000FF002000002020004020200080202000FF202000004020004040200080402000FF402000006020004060200080602000FF602000008020004080200080802000FF80200000A0200040A0
310
200080A02000FFA0200000C0200040C0200080C02000FFC0200000FF200040FF200080FF2000FFFF2000000040004000400080004000FF004000002040004020400080204000FF204000004040004040400080404000FF404000006040004060400080604000FF604000008040004080400080804000FF80400000A0400040
310
A0400080A04000FFA0400000C0400040C0400080C04000FFC0400000FF400040FF400080FF4000FFFF4000000060004000600080006000FF006000002060004020600080206000FF206000004060004040600080406000FF406000006060004060600080606000FF606000008060004080600080806000FF80600000A06000
310
40A0600080A06000FFA0600000C0600040C0600080C06000FFC0600000FF600040FF600080FF6000FFFF6000000080004000800080008000FF008000002080004020800080208000FF208000004080004040800080408000FF408000006080004060800080608000FF608000008080004080800080808000FF80800000A080
310
0040A0800080A08000FFA0800000C0800040C0800080C08000FFC0800000FF800040FF800080FF8000FFFF80000000A0004000A0008000A000FF00A0000020A0004020A0008020A000FF20A0000040A0004040A0008040A000FF40A0000060A0004060A0008060A000FF60A0000080A0004080A0008080A000FF80A00000A0
310
A00040A0A00080A0A000FFA0A00000C0A00040C0A00080C0A000FFC0A00000FFA00040FFA00080FFA000FFFFA0000000C0004000C0008000C000FF00C0000020C0004020C0008020C000FF20C0000040C0004040C0008040C000FF40C0000060C0004060C0008060C000FF60C0000080C0004080C0008080C000FF80C00000
310
A0C00040A0C00080A0C000FFA0C00000C0C00040C0C00080C0C000FFC0C00000FFC00040FFC00080FFC000FFFFC0000000FF004000FF008000FF00FF00FF000020FF004020FF008020FF00FF20FF000040FF004040FF008040FF00FF40FF000060FF004060FF008060FF00FF60FF000080FF004080FF008080FF00FF80FF00
310
00A0FF0040A0FF0080A0FF00FFA0FF0000C0FF0040C0FF0080C0FF00FFC0FF0000FFFF0040FFFF0080FFFF00FFFFFF0000000000000000000000000000000000000000000000000000000000000000000000000000000000000000000000000000000000000000000000000000000000000000000000000000000000000000
310
0000000000000000000000000000000000000000000000000000000000000000000000FF00929200FF0000000000000000000000000000000000000000000000000000FF00929200FF0000000000000000000000000000000000000000000000000000FF00929200FF00000000000000000000000000000000000000000000
310
00000000FF00929200FF0000000000000000000000000000000000000000000000000092FF00929200FF0000000000000000000000000000000000000000000000000092FF0092920092929200000000000000FCFCFCFCFCFCFCFCFCFCFCFCFCFC929200FF0092920092000092929292920000FCFCFCFCFCFCFCFCFCFCFCFC
310
0000920000FF0092920092000000000000920000FCFC000000000000000000FC0000929292FF00929200FF929200009292000000FCFC0000000000000000FCFCFC92929292FF0092920092000092009200000000FCFC00000000000000FCFC00FC92929292FF0092920092929292009292000000FCFC000000000000FCFC00
310
00FC92000092FF0092920092929200000092000000FCFC0000000000FCFC000000FC92929292FF0092920092929292009200000000FCFC00000000FCFC00000000FC9292FC92FF00929200FF929200009200000000FCFC000000FCFC0000000000FC0000FC92FF00929200FF000092009200000000FCFC0000FCFC00000000
310
0000FCFCFCFC92FF00929200FF000000920000000000FCFC00FCFC00000000000000FCFC000092FF00929200FF000000000000000000FC00FCFC0000000000000000FCFC000092FFFF9292FFFF000000000000000000FC00FC000000000000000000FCFC000000000000000000000000000000000000FC00FC000000000000
310
000000FCFC000000000000000000000000000000000000FC00FC000000000000000000FCFC000000000000000000000000000000000000FC00FCFC0000000000000000FCFC000000000000000000000000000000000000FCFCFCFCFC00000000000000FC00FC0000000000000000000000000000000000000000FCFC000000
310
0000000000FCFC00000000000000000000000000000000000000FC00FC00000000000000000000FCFCFCFCFC000000000000000000000000000000FCFC00000000000000000000FCFCFCFC00000000000000000000000000000000000000000000000000000000000000000000000000000000000000000000000000000000
310
0000000000000000000000000000000000000000000000000000000000000000000000000000000000000000000000000000000000000000
102
{BLKREFS
331
2FEE
331
2FF0
331
2FF1
331
2FF4
102
}
1001
AcDbDynamicBlockGUID
1000
{C76B49DF-5B2F-4117-ABA5-176FDE019A5A}
1001
AcDbBlockRepETag
1070
     1
1071
        4
1001
ACAD
1000
DesignCenter Data
1002
{
1070
     1
1070
     4
1002
}
  0
BLOCK_RECORD
  5
2FCC
102
{ACAD_XDICTIONARY
360
3BF2
102
}
330
1
100
AcDbSymbolTableRecord
100
AcDbBlockTableRecord
  2
08021glaze
340
0
310
28000000200000002000000001000800000000000004000000000000000000000000000000000000000000004000000080000000FF000000002000004020000080200000FF200000004000004040000080400000FF400000006000004060000080600000FF600000008000004080000080800000FF80000000A0000040A000
310
0080A00000FFA0000000C0000040C0000080C00000FFC0000000FF000040FF000080FF0000FFFF0000000020004000200080002000FF002000002020004020200080202000FF202000004020004040200080402000FF402000006020004060200080602000FF602000008020004080200080802000FF80200000A0200040A0
310
200080A02000FFA0200000C0200040C0200080C02000FFC0200000FF200040FF200080FF2000FFFF2000000040004000400080004000FF004000002040004020400080204000FF204000004040004040400080404000FF404000006040004060400080604000FF604000008040004080400080804000FF80400000A0400040
310
A0400080A04000FFA0400000C0400040C0400080C04000FFC0400000FF400040FF400080FF4000FFFF4000000060004000600080006000FF006000002060004020600080206000FF206000004060004040600080406000FF406000006060004060600080606000FF606000008060004080600080806000FF80600000A06000
310
40A0600080A06000FFA0600000C0600040C0600080C06000FFC0600000FF600040FF600080FF6000FFFF6000000080004000800080008000FF008000002080004020800080208000FF208000004080004040800080408000FF408000006080004060800080608000FF608000008080004080800080808000FF80800000A080
310
0040A0800080A08000FFA0800000C0800040C0800080C08000FFC0800000FF800040FF800080FF8000FFFF80000000A0004000A0008000A000FF00A0000020A0004020A0008020A000FF20A0000040A0004040A0008040A000FF40A0000060A0004060A0008060A000FF60A0000080A0004080A0008080A000FF80A00000A0
310
A00040A0A00080A0A000FFA0A00000C0A00040C0A00080C0A000FFC0A00000FFA00040FFA00080FFA000FFFFA0000000C0004000C0008000C000FF00C0000020C0004020C0008020C000FF20C0000040C0004040C0008040C000FF40C0000060C0004060C0008060C000FF60C0000080C0004080C0008080C000FF80C00000
310
A0C00040A0C00080A0C000FFA0C00000C0C00040C0C00080C0C000FFC0C00000FFC00040FFC00080FFC000FFFFC0000000FF004000FF008000FF00FF00FF000020FF004020FF008020FF00FF20FF000040FF004040FF008040FF00FF40FF000060FF004060FF008060FF00FF60FF000080FF004080FF008080FF00FF80FF00
310
00A0FF0040A0FF0080A0FF00FFA0FF0000C0FF0040C0FF0080C0FF00FFC0FF0000FFFF0040FFFF0080FFFF00FFFFFF0000000000000000000000000000000000000000000000000000000000000000000000000000000000000000000000000000000000000000000000000000000000000000000000000000000000000000
310
000000000000000000000000000000000000000000FCFC00000000000000000000FCFCFC00000000000000000000000000000000FC00FC000000000000000000FCFCFCFCFCFC000000000000000000000000000000FCFC0000000000000000FCFC0000000000000000000000000000000000FCFCFCFCFC00000000000000FC
310
00FC0000000000000000000000000000000000FCFCFCFC0000000000000000FCFC000000000000000000000000000000000000FCFC00000000000000000000FCFC000000000000000000000000000000000000FC00FC000000000000000000FCFC000000000000000000000000000000000000FC00FC000000000000000000
310
FCFC00000000000000000000000000000000000000FC00FC0000000000000000FCFC000092FFFF9292FFFF0000000000000000000000FC00FC00000000000000FCFC000092FF00929200FF000000000000000000000000FC00FC000000000000FCFCFCFC92FF00929200FF00000092000000000000000000FC00FC00000000
310
00FC0000FC92FF00929200FF0000920092000000000000000000FC00FC00000000FC9292FC92FF00929200FF929200009200000000000000000000FCFCFC000000FC92929292FF00929200920092920092000000000000000000000000FCFC0000FC92000092FF0092920092929200000092000000000000000000000000FC
310
FC00FC92929292FF009292009292929200929200000000000000000000000000FCFCFC92929292FF00929200929200920092000000000000000000000000000000FC0000929292FF00929200FF009200009292000000000000000000000000000000FC00920000FF0092920092920000000000920000000000000000000000
310
00000000FC920000FF00929200920000009292929200000000000000000000000000000000009292FF00929200929292920000000000000000000000000000000000000000000092FF00929200FF0000000000000000000000000000000000000000000000000000FF00929200FF0000000000000000000000000000000000
310
000000000000000000FF00929200FF0000000000000000000000000000000000000000000000000000FF00929200FF0000000000000000000000000000000000000000000000000000FF00929200FF000000000000000000000000000000000000000000000000000000000000000000000000000000000000000000000000
310
0000000000000000000000000000000000000000000000000000000000000000000000000000000000000000000000000000000000000000
102
{BLKREFS
331
2FE5
102
}
1001
AcDbDynamicBlockGUID
1000
{CE0A0C55-71C6-4C5F-8A10-183BED64B54E}
1001
AcDbBlockRepETag
1070
     1
1071
        4
1001
ACAD
1000
DesignCenter Data
1002
{
1070
     1
1070
     4
1002
}
  0
BLOCK_RECORD
  5
3089
330
1
100
AcDbSymbolTableRecord
100
AcDbBlockTableRecord
  2
altherm a4 SM attributes (3)
340
0
102
{BLKREFS
331
3094
102
}
1001
ACAD
1000
DesignCenter Data
1002
{
1070
     1
1070
     4
1002
}
  0
BLOCK_RECORD
  5
30CB
102
{ACAD_XDICTIONARY
360
4237
102
}
330
1
100
AcDbSymbolTableRecord
100
AcDbBlockTableRecord
  2
08024
340
0
102
{BLKREFS
331
3BFA
102
}
  0
BLOCK_RECORD
  5
30D4
330
1
100
AcDbSymbolTableRecord
100
AcDbBlockTableRecord
  2
20mm igu
340
0
102
{BLKREFS
331
3BF9
102
}
1001
ACAD
1000
DesignCenter Data
1002
{
1070
     1
1070
     4
1002
}
  0
BLOCK_RECORD
  5
30E1
330
1
100
AcDbSymbolTableRecord
100
AcDbBlockTableRecord
  2
9010250L
340
0
102
{BLKREFS
331
3BFC
102
}
  0
BLOCK_RECORD
  5
30E6
102
{ACAD_XDICTIONARY
360
3BFD
102
}
330
1
100
AcDbSymbolTableRecord
100
AcDbBlockTableRecord
  2
08024glaze
340
0
310
2800000020000000200000000100080000000000000400000000000000000000000000000000000000000000000080000080000000808000800000008000800080800000C0C0C000C0DCC000F0CAA6000020400000206000002080000020A0000020C0000020E00000400000004020000040400000406000004080000040A0
310
000040C0000040E00000600000006020000060400000606000006080000060A0000060C0000060E00000800000008020000080400000806000008080000080A0000080C0000080E00000A0000000A0200000A0400000A0600000A0800000A0A00000A0C00000A0E00000C0000000C0200000C0400000C0600000C0800000C0
310
A00000C0C00000C0E00000E0000000E0200000E0400000E0600000E0800000E0A00000E0C00000E0E00040000000400020004000400040006000400080004000A0004000C0004000E00040200000402020004020400040206000402080004020A0004020C0004020E000404000004040200040404000404060004040800040
310
40A0004040C0004040E00040600000406020004060400040606000406080004060A0004060C0004060E00040800000408020004080400040806000408080004080A0004080C0004080E00040A0000040A0200040A0400040A0600040A0800040A0A00040A0C00040A0E00040C0000040C0200040C0400040C0600040C08000
310
40C0A00040C0C00040C0E00040E0000040E0200040E0400040E0600040E0800040E0A00040E0C00040E0E00080000000800020008000400080006000800080008000A0008000C0008000E00080200000802020008020400080206000802080008020A0008020C0008020E00080400000804020008040400080406000804080
310
008040A0008040C0008040E00080600000806020008060400080606000806080008060A0008060C0008060E00080800000808020008080400080806000808080008080A0008080C0008080E00080A0000080A0200080A0400080A0600080A0800080A0A00080A0C00080A0E00080C0000080C0200080C0400080C0600080C0
310
800080C0A00080C0C00080C0E00080E0000080E0200080E0400080E0600080E0800080E0A00080E0C00080E0E000C0000000C0002000C0004000C0006000C0008000C000A000C000C000C000E000C0200000C0202000C0204000C0206000C0208000C020A000C020C000C020E000C0400000C0402000C0404000C0406000C0
310
408000C040A000C040C000C040E000C0600000C0602000C0604000C0606000C0608000C060A000C060C000C060E000C0800000C0802000C0804000C0806000C0808000C080A000C080C000C080E000C0A00000C0A02000C0A04000C0A06000C0A08000C0A0A000C0A0C000C0A0E000C0C00000C0C02000C0C04000C0C06000
310
C0C08000C0C0A000F0FBFF00A4A0A000808080000000FF0000FF000000FFFF00FF000000FF00FF00FFFF0000FFFFFF000000000000000000000000000000000000000000000000000000000000000000000000000000FBFBFBFBFBFBFBFBFBFBFBFBFBFBFBFBFB000000000000000000000000000000FB0000000000000000
310
00000000000000FB00000000000000000000000000FB00FB00FBFBFBFBFBFB00A4A4A4A4A4FBFBA4000000000000000000000000FB00FBFB00FB00000000FB00A4A400A4A4A4A4A4000000000000000000000000FBFBFBFBFB0000000000FBFBFBA400A4A4A40000A400000000000000000000000000FBFB00000000A4A4A4
310
A4A4A4A4A4A4A40000A4A4000000000000000000000000FBFB00000000A4A4A4A4A4A4FFA4A4A4A4A4A4A4FFFFFFFF0000000000000000FBFB00000000FFA4A4A4A4A4A4A4A4A4A4A4A4A4A4A4A4A40000000000000000FBFB00000000FF00000000000000000000000000000000000000000000000000FBFB00000000FFA4
310
A4A4A4A4A4A4A4A4A4A4A4A4A4A4A4A40000000000000000FBFB00000000FF00000000000000000000000000000000000000000000000000FBFB00000000FFFFFFFFFFFFFFFFFFFFFFFFFFFFFFFFFFFF0000000000000000FBFB00000000FF00000000FF0000000000000000000000000000000000000000FBFB00000000FF
310
00000000FF0000000000000000000000000000000000000000FBFB00000000FF00000000FF000000000000000000000000000000000000FBFBFB0000000000FF00000000FF000000000000000000000000000000000000FBFB000000000000FF00000000FF00000000000000000000000000000000000000FB000000000000
310
FF00000000FF00000000000000000000000000000000000000FB000000000000FFFFFFFFFFFFFFFFFFFFFFFFFFFFFFFFFFFF0000000000000000000000000000A4A4A4A4A4A4A4A4A4A4A4A4A4A4A4A4A4A40000000000000000000000000000FF000000000000000000000000000000000000000000000000000000000000
310
00A4A4A4A4A4A4A4A4A4A4A4A4A4A4A4A4A4A40000000000000000000000000000FF00000000000000000000000000000000000000000000000000000000000000FFFFFFFFA4A4FFA4A4FFA4A4A4FFFFFFFFFF000000000000000000000000000000000000A4A400A4A400A400A40000000000000000000000000000000000
310
00000000A4A4A4A4A4A4A4A40000A4000000000000000000000000000000000000000000A40000000000000000A40000000000000000000000000000000000000000000000A4A4A400A4A4A400A40000000000000000000000000000000000000000000000000000A4A400A400A40000000000000000000000000000000000
310
00000000000000000000000000A4A40000000000000000000000000000000000000000000000000000000000000000000000000000000000
102
{BLKREFS
331
30ED
331
30F2
102
}
1001
AcDbDynamicBlockGUID
1000
{35C4523C-7AE8-43F4-A39D-06440BFFC2D7}
1001
AcDbBlockRepETag
1070
     1
1071
        4
1001
ACAD
1000
DesignCenter Data
1002
{
1070
     1
1070
     4
1002
}
  0
BLOCK_RECORD
  5
3441
102
{ACAD_XDICTIONARY
360
423F
102
}
330
1
100
AcDbSymbolTableRecord
100
AcDbBlockTableRecord
  2
08060
340
0
102
{BLKREFS
331
3446
102
}
  0
BLOCK_RECORD
  5
36EA
102
{ACAD_XDICTIONARY
360
3701
102
}
330
1
100
AcDbSymbolTableRecord
100
AcDbBlockTableRecord
  2
hinges
340
0
102
{BLKREFS
331
3705
102
}
1001
ACAD
1000
DesignCenter Data
1002
{
1070
     1
1070
     4
1002
}
  0
ENDTAB
  0
ENDSEC
  0
SECTION
  2
BLOCKS
  0
BLOCK
  5
20
330
1F
100
AcDbEntity
  8
0
100
AcDbBlockBegin
  2
*Model_Space
 70
     0
 10
0.0
 20
0.0
 30
0.0
  3
*Model_Space
  1

  0
ENDBLK
  5
21
330
1F
100
AcDbEntity
  8
0
100
AcDbBlockEnd
  0
BLOCK
  5
2F0C
330
2F0A
100
AcDbEntity
 67
     1
  8
0
100
AcDbBlockBegin
  2
*Paper_Space
 70
     0
 10
0.0
 20
0.0
 30
0.0
  3
*Paper_Space
  1

  0
ENDBLK
  5
2F0D
330
2F0A
100
AcDbEntity
 67
     1
  8
0
100
AcDbBlockEnd
  0
BLOCK
  5
268B
330
268A
100
AcDbEntity
  8
0
100
AcDbBlockBegin
  2
08021
 70
     0
 10
0.0
 20
0.0000000000000025
 30
0.0
  3
08021
  1
08021.dwg
  0
LWPOLYLINE
  5
3E1B
102
{ACAD_REACTORS
330
3E1C
102
}
330
268A
100
AcDbEntity
  8
APL Joinery
100
AcDbPolyline
 90
       45
 70
   129
 43
0.0
 10
13.39999999999958
 20
15.04436508138939
 10
13.39999999999963
 20
0.852207793864423
 42
0.1989123673796211
 10
13.45857864376234
 20
0.7107864376271067
 10
16.81078643762856
 20
-2.641421356238154
 42
0.1989123673796058
 10
16.95220779386585
 20
-2.700000000000827
 10
19.34004950616258
 20
-2.700000000001196
 42
3.927182716064131
 10
19.34004950616327
 20
-1.600000000000491
 10
17.32500000000072
 20
-1.600000000000491
 10
14.5
 20
1.225000000000235
 10
14.5
 20
4.499999999999502
 42
0.9999999999999998
 10
14.5
 20
5.299999999999513
 10
14.5
 20
8.899999999999508
 10
16.5
 20
8.900000000000417
 42
0.4142135623730951
 10
17.0
 20
9.399999999999508
 10
17.0
 20
10.94999999999969
 42
0.9999999999999998
 10
16.0
 20
10.94999999999969
 10
16.0
 20
10.19999999999969
 10
14.5
 20
10.19999999999969
 10
14.5
 20
15.69999999999969
 10
16.0
 20
15.69999999999969
 10
16.0
 20
14.94999999999969
 42
0.9999999999999998
 10
17.0
 20
14.94999999999969
 10
17.0
 20
16.49999999999987
 42
0.4142135623730951
 10
16.5
 20
16.99999999999987
 10
15.30000000000018
 20
16.99999999999987
 10
15.30000000000018
 20
18.49999999999987
 42
0.6681786379192698
 10
14.44644660940696
 20
18.85355339059315
 10
0.073223304703788
 20
4.480330085890145
 42
0.198912367379655
 10
0.0
 20
4.303553390593023
 10
0.0
 20
0.2878679656440539
 42
0.414213562373095
 10
0.2878679656441818
 20
-0.0000000000000142
 10
2.25
 20
-0.0000000000001279
 42
-0.4142135623730951
 10
2.5
 20
-0.2500000000001279
 10
2.5
 20
-1.353553390603465
 10
2.073223304703788
 20
-1.780330085899677
 42
0.414213562373048
 10
2.073223304703333
 20
-2.133883476493409
 10
3.173223304703242
 20
-3.233883476489737
 42
0.6681786379193531
 10
3.600000000000306
 20
-3.057106781193525
 10
3.600000000000363
 20
0.6000000000002359
 42
0.4142135623730951
 10
3.100000000000363
 20
1.100000000000235
 10
1.600000000000363
 20
1.100000000000235
 42
-0.4142135623730951
 10
1.100000000000363
 20
1.600000000000235
 10
1.100000000000363
 20
2.708831175456779
 42
-0.1989123673796601
 10
1.978679656440363
 20
4.83015151901678
 10
12.54644660940641
 20
15.39791847198266
 42
-0.6681786379192407
  0
HATCH
  5
3E1C
330
268A
100
AcDbEntity
  8
APL Hatch
100
AcDbHatch
 10
0.0
 20
0.0
 30
0.0
210
0.0
220
0.0
230
1.0
  2
SOLID
 70
     1
 71
     1
 91
        1
 92
        1
 93
       45
 72
     1
 10
13.39999999999958
 20
15.04436508138939
 11
13.39999999999963
 21
0.852207793864423
 72
     2
 10
13.59999999999968
 20
0.8522077938644461
 40
0.2000000000000472
 50
180.0000000000066
 51
224.9999999999985
 73
     1
 72
     1
 10
13.45857864376234
 20
0.7107864376271067
 11
16.81078643762856
 21
-2.641421356238154
 72
     2
 10
16.95220779386586
 20
-2.500000000000813
 40
0.2000000000000146
 50
225.0000000000087
 51
269.9999999999969
 73
     1
 72
     1
 10
16.95220779386585
 20
-2.700000000000827
 11
19.34004950616258
 21
-2.700000000001196
 72
     2
 10
20.34999999999929
 20
-2.15000000000147
 40
1.150000000000299
 50
208.5718781422852
 51
511.4281218576437
 73
     1
 72
     1
 10
19.34004950616327
 20
-1.600000000000491
 11
17.32500000000072
 21
-1.600000000000491
 72
     1
 10
17.32500000000072
 20
-1.600000000000491
 11
14.5
 21
1.225000000000235
 72
     1
 10
14.5
 20
1.225000000000235
 11
14.5
 21
4.499999999999502
 72
     2
 10
14.5
 20
4.899999999999508
 40
0.4000000000000057
 50
270.0
 51
450.0
 73
     1
 72
     1
 10
14.5
 20
5.299999999999513
 11
14.5
 21
8.899999999999508
 72
     1
 10
14.5
 20
8.899999999999508
 11
16.5
 21
8.900000000000417
 72
     2
 10
16.50000000000045
 20
9.399999999999963
 40
0.4999999999995453
 50
269.9999999999479
 51
359.9999999999479
 73
     1
 72
     1
 10
17.0
 20
9.399999999999508
 11
17.0
 21
10.94999999999969
 72
     2
 10
16.5
 20
10.94999999999969
 40
0.5
 50
0.0
 51
180.0
 73
     1
 72
     1
 10
16.0
 20
10.94999999999969
 11
16.0
 21
10.19999999999969
 72
     1
 10
16.0
 20
10.19999999999969
 11
14.5
 21
10.19999999999969
 72
     1
 10
14.5
 20
10.19999999999969
 11
14.5
 21
15.69999999999969
 72
     1
 10
14.5
 20
15.69999999999969
 11
16.0
 21
15.69999999999969
 72
     1
 10
16.0
 20
15.69999999999969
 11
16.0
 21
14.94999999999969
 72
     2
 10
16.5
 20
14.94999999999969
 40
0.5
 50
180.0
 51
360.0
 73
     1
 72
     1
 10
17.0
 20
14.94999999999969
 11
17.0
 21
16.49999999999987
 72
     2
 10
16.5
 20
16.49999999999987
 40
0.5
 50
0.0
 51
90.0
 73
     1
 72
     1
 10
16.5
 20
16.99999999999987
 11
15.30000000000018
 21
16.99999999999987
 72
     1
 10
15.30000000000018
 20
16.99999999999987
 11
15.30000000000018
 21
18.49999999999987
 72
     2
 10
14.8000000000002
 20
18.49999999999986
 40
0.4999999999999823
 50
0.0000000000008142
 51
134.9999999999962
 73
     1
 72
     1
 10
14.44644660940696
 20
18.85355339059315
 11
0.073223304703788
 21
4.480330085890145
 72
     2
 10
0.2500000000008009
 20
4.303553390592751
 40
0.2500000000008007
 50
134.9999999999383
 51
179.9999999999377
 73
     1
 72
     1
 10
0.0
 20
4.303553390593023
 11
0.0
 21
0.2878679656440539
 72
     2
 10
0.287867965644125
 20
0.2878679656441108
 40
0.287867965644125
 50
180.0000000000113
 51
270.0000000000113
 73
     1
 72
     1
 10
0.2878679656441818
 20
-0.0000000000000142
 11
2.25
 21
-0.0000000000001279
 72
     2
 10
2.25
 20
-0.2500000000001279
 40
0.25
 50
270.0
 51
360.0
 73
     0
 72
     1
 10
2.5
 20
-0.2500000000001279
 11
2.5
 21
-1.353553390603465
 72
     1
 10
2.5
 20
-1.353553390603465
 11
2.073223304703788
 21
-1.780330085899677
 72
     2
 10
2.250000000000454
 20
-1.95710678119677
 40
0.2500000000003437
 50
134.9999999999309
 51
224.9999999999217
 73
     1
 72
     1
 10
2.073223304703333
 20
-2.133883476493409
 11
3.173223304703242
 21
-3.233883476489737
 72
     2
 10
3.350000000000188
 20
-3.057106781193242
 40
0.2500000000001182
 50
224.9999999999268
 51
359.9999999999353
 73
     1
 72
     1
 10
3.600000000000306
 20
-3.057106781193525
 11
3.600000000000363
 21
0.6000000000002359
 72
     2
 10
3.100000000000363
 20
0.6000000000002359
 40
0.5
 50
0.0
 51
90.0
 73
     1
 72
     1
 10
3.100000000000363
 20
1.100000000000235
 11
1.600000000000363
 21
1.100000000000235
 72
     2
 10
1.600000000000363
 20
1.600000000000235
 40
0.5
 50
90.0
 51
180.0
 73
     0
 72
     1
 10
1.100000000000363
 20
1.600000000000235
 11
1.100000000000363
 21
2.708831175456779
 72
     2
 10
4.100000000000587
 20
2.708831175457403
 40
3.000000000000223
 50
179.9999999999881
 51
224.9999999999885
 73
     0
 72
     1
 10
1.978679656440363
 20
4.83015151901678
 11
12.54644660940641
 21
15.39791847198266
 72
     2
 10
12.89999999999962
 20
15.04436508138937
 40
0.4999999999999613
 50
225.0000000000075
 51
359.9999999999982
 73
     0
 97
        1
330
3E1B
 75
     0
 76
     1
 98
        1
 10
0.0
 20
0.0
  0
ENDBLK
  5
268C
330
268A
100
AcDbEntity
  8
0
100
AcDbBlockEnd
  0
BLOCK
  5
2692
330
2691
100
AcDbEntity
  8
0
100
AcDbBlockBegin
  2
6Glass
 70
     0
 10
101.8368839708302
 20
399.4111348733001
 30
0.0
  3
6Glass
  1
6Glass.dwg
  0
LINE
  5
2F88
330
2691
100
AcDbEntity
  8
APL Joinery
 62
     7
100
AcDbLine
 10
95.33688397083029
 20
412.4111348732999
 30
0.0
 11
95.33688397083029
 21
392.4111348733
 31
0.0
  0
LINE
  5
2F89
330
2691
100
AcDbEntity
  8
APL Joinery
 62
     7
100
AcDbLine
 10
89.33688397083029
 20
412.4111348732999
 30
0.0
 11
95.33688397083029
 21
412.4111348732999
 31
0.0
  0
LINE
  5
2F8A
330
2691
100
AcDbEntity
  8
APL Joinery
 62
     8
100
AcDbLine
 10
93.33688397083028
 20
412.4111348732999
 30
0.0
 11
93.33688397083028
 21
392.4111348733
 31
0.0
  0
LINE
  5
2F8B
330
2691
100
AcDbEntity
  8
APL Joinery
 62
     7
100
AcDbLine
 10
89.33688397083029
 20
412.4111348732999
 30
0.0
 11
89.33688397083029
 21
392.4111348733
 31
0.0
  0
LINE
  5
2F8C
330
2691
100
AcDbEntity
  8
APL Joinery
 62
     8
100
AcDbLine
 10
91.33688397083028
 20
412.4111348732999
 30
0.0
 11
91.33688397083028
 21
392.4111348733
 31
0.0
  0
ENDBLK
  5
2693
330
2691
100
AcDbEntity
  8
0
100
AcDbBlockEnd
  0
BLOCK
  5
269B
330
269A
100
AcDbEntity
  8
0
100
AcDbBlockBegin
  2
9010312l
 70
     0
 10
365.0634067278241
 20
339.4121540145173
 30
0.0
  3
9010312l
  1
9010312l.dwg
  0
LWPOLYLINE
  5
3E1E
330
269A
100
AcDbEntity
  8
APL Joinery
  6
Continuous
 62
   252
100
AcDbPolyline
 90
       28
 70
   128
 43
0.0
 10
368.7634067278242
 20
336.2999919725366
 10
368.7634067278242
 20
343.1621540145172
 42
0.7673269879789622
 10
368.2969003768781
 20
343.2871540145172
 10
367.7417988747633
 20
342.3256900094965
 10
365.2336571919708
 20
341.6536354710895
 42
0.3626955242591878
 10
365.0492176629833
 20
341.3914870691883
 10
365.2134067278238
 20
339.4121540145172
 10
366.7634067278242
 20
339.4121540145172
 10
366.7634067278242
 20
336.5121540145171
 10
365.513243805812
 20
336.5121540145171
 10
365.2515573605315
 20
337.3376963843301
 42
0.6640183420487276
 10
364.792655570518
 20
337.3798010733406
 42
0.250000000000001
 10
364.7926555705179
 20
333.1445069556935
 42
0.6640183420487097
 10
365.2515573605313
 20
333.1866116447042
 10
365.513243805812
 20
334.0121540145171
 10
367.0632438058122
 20
334.0121540145171
 10
367.3369346947806
 20
334.2858449034854
 42
-0.6681785464135807
 10
367.7637113900772
 20
334.1090682714504
 10
367.7637118012051
 20
332.4843569389277
 10
368.2660718660176
 20
329.0715154000631
 42
0.9294717386060577
 10
368.7634067278242
 20
329.1079223518048
 10
368.7634067278242
 20
334.5749919747145
 42
0.3563939586926081
 10
367.9634067278242
 20
335.5547878718279
 42
-0.3563939586925715
 10
367.7634067278242
 20
335.7997368461061
 10
367.7634067278241
 20
339.3871540145172
 42
-0.9999999999999998
 10
367.8134067278242
 20
339.3871540145172
 10
367.8134067278242
 20
336.2999919725366
 42
0.9999999999999998
 10
368.7634067234684
 20
336.2999919725366
  0
ENDBLK
  5
269C
330
269A
100
AcDbEntity
  8
0
100
AcDbBlockEnd
  0
BLOCK
  5
26A0
330
269F
100
AcDbEntity
  8
0
100
AcDbBlockBegin
  2
9010260R
 70
     0
 10
156.1743665915094
 20
-81.53902373500953
 30
0.0
  3
9010260R
  1
9010260R.dwg
  0
LWPOLYLINE
  5
3E21
330
269F
100
AcDbEntity
  8
APL Joinery
  6
Continuous
 62
   252
100
AcDbPolyline
 90
       36
 70
   129
 43
0.0
 10
151.4112849747289
 20
-86.98693969135872
 42
0.4991631999369929
 10
151.6667704724094
 20
-86.79479037559843
 10
151.6667704724094
 20
-86.19810729204813
 42
0.272072501204814
 10
151.4100847187875
 20
-85.76130278484901
 42
-0.055420875940738
 10
148.6334536863916
 20
-83.78341896417607
 42
-0.2134333709620201
 10
148.4667704724094
 20
-83.41072616821833
 10
148.4667704724094
 20
-82.79672757783419
 42
-0.606477064294606
 10
148.7813238722325
 20
-82.6327839332823
 42
0.0778026134852526
 10
151.4078015955849
 20
-83.91640293538889
 42
0.5048527223647302
 10
151.6667704724094
 20
-83.72529387865411
 10
151.6667704724093
 20
-82.71037252415302
 42
0.3020576082188024
 10
151.360292015658
 20
-82.24934170924081
 42
-0.0678144351682685
 10
148.6645537833863
 20
-80.65954656657909
 42
-0.2295412802047894
 10
148.4743665958649
 20
-80.26709781677331
 10
148.4743665958649
 20
-79.01215435192681
 42
-0.4607623830565047
 10
148.763276481804
 20
-78.76520087295517
 10
155.9632764774486
 20
-79.54207025603785
 42
-0.394142907229037
 10
156.1734152660324
 20
-79.81081267069645
 10
156.0222163897248
 20
-81.53902373500963
 10
154.4743665958649
 20
-81.53902373500963
 10
154.4743665958649
 20
-84.43902373500973
 10
154.9743665958649
 20
-84.43902373500973
 42
-0.5486826681767436
 10
155.2009227871826
 20
-84.79472279922322
 10
153.9743665958649
 20
-87.42373282130737
 10
153.9743665958649
 20
-87.90341630654447
 10
154.2377640554862
 20
-87.90341630654447
 42
-0.5773502691896241
 10
154.442667866054
 20
-88.25832011711245
 10
153.7542079459013
 20
-89.45076767779173
 42
-0.267949192431124
 10
153.3211952440091
 20
-89.70076767779174
 10
152.7667704724094
 20
-89.70076767779174
 42
-0.2238716985268056
 10
152.1496898130719
 20
-89.40989581477845
 42
0.122227011028704
 10
151.9561720427158
 20
-89.26649994640433
 42
-0.0461487875582768
 10
148.6482515130876
 20
-86.9134714477949
 42
-0.2184468557088208
 10
148.4743665915091
 20
-86.53446095239122
 10
148.4743665915091
 20
-85.94377607221765
 42
-0.5970869766259792
 10
148.7843563536427
 20
-85.77673639960723
 42
0.0754394984412558
  0
ENDBLK
  5
26A1
330
269F
100
AcDbEntity
  8
0
100
AcDbBlockEnd
  0
BLOCK
  5
26A9
330
26A8
100
AcDbEntity
  8
0
100
AcDbBlockBegin
  2
08001
 70
     0
 10
0.0
 20
0.0
 30
0.0
  3
08001
  1
08001.dwg
  0
LWPOLYLINE
  5
3E24
102
{ACAD_REACTORS
330
3E26
102
}
330
26A8
100
AcDbEntity
  8
APL Joinery
100
AcDbPolyline
 90
      106
 70
     1
 43
0.0
 10
48.39999999999998
 20
14.64999999999998
 10
48.5770520258726
 20
5.196255008275387
 42
0.408739403627736
 10
48.77701696039105
 20
4.999999999999971
 10
49.60000000000002
 20
5.0
 10
50.0
 20
5.399999999999977
 10
63.60000300000002
 20
5.399999999999977
 10
64.00000299999999
 20
5.0
 10
65.74999999999999
 20
5.0
 42
0.9999999999999905
 10
65.75000000000011
 20
6.5
 10
50.0
 20
6.5
 10
50.0
 20
14.75
 42
0.4142135623730961
 10
48.39999999999998
 20
16.35000000000002
 10
47.76301891420008
 20
16.35000000000002
 42
-0.5701098464939183
 10
47.32466208961976
 20
17.09050632911379
 42
0.2160671282016072
 10
47.54157548037176
 20
19.93096926507535
 42
-0.507124319317585
 10
47.98995190738225
 20
20.60166532734326
 42
0.4017188249341092
 10
49.99999999999994
 20
22.69973793199995
 10
50.0
 20
25.5
 42
-0.4142135623730961
 10
50.5
 20
26.0
 10
57.79999999999999
 20
26.0
 42
0.4142135623730787
 10
58.5
 20
26.69999999999993
 10
58.5
 20
47.5
 42
0.4142135623730961
 10
58.0
 20
48.0
 10
51.25
 20
48.0
 42
0.4142135623730961
 10
51.0
 20
47.75
 10
51.0
 20
45.29142135618128
 42
0.19891236737966
 10
51.08786796564402
 20
45.07928932182529
 10
52.65857864376267
 20
43.50857864370669
 42
0.6681786379192565
 10
53.0
 20
43.64999999999997
 10
53.0
 20
45.49999999999999
 42
-0.4142135623730961
 10
53.5
 20
46.0
 10
56.20000000000004
 20
46.0
 42
-0.4142135623730961
 10
56.70000000000005
 20
45.49999999999999
 10
56.70000000000005
 20
41.44999999999993
 42
-0.4142135623730961
 10
56.20000000000004
 20
40.94999999999993
 10
51.70000000000005
 20
40.94999999999993
 42
1.000000000000003
 10
51.70000000000005
 20
39.55000000000001
 10
53.70000000000004
 20
39.54999999999996
 10
53.70000000000004
 20
38.74999999999995
 42
0.4142135623730109
 10
53.90000000000009
 20
38.54999999999995
 10
54.50000000000011
 20
38.54999999999995
 42
0.4142135623730129
 10
54.70000000000016
 20
38.74999999999995
 10
54.70000000000005
 20
39.54999999999996
 10
56.70000000000005
 20
39.54999999999996
 10
56.70000000000005
 20
34.44999999999993
 42
1.000000000000003
 10
56.70000000000005
 20
33.64999999999998
 10
56.70000000000005
 20
28.54999999999995
 10
54.70000000000005
 20
28.54999999999995
 10
54.70000000000005
 20
29.34999999999997
 42
0.4142135623730129
 10
54.5
 20
29.54999999999996
 10
53.9000000000002
 20
29.54999999999996
 42
0.4142135623730108
 10
53.70000000000016
 20
29.34999999999997
 10
53.70000000000004
 20
28.0
 10
23.90000000000009
 20
28.0
 10
23.5
 20
27.60000000000002
 10
23.10000000000002
 20
28.0
 10
20.90000000000009
 20
28.0
 10
20.5
 20
27.60000000000002
 10
20.10000000000002
 20
28.0
 10
8.90000000000009
 20
28.0
 10
8.5
 20
27.60000000000002
 10
8.100000000000022
 20
28.0
 10
-4.25
 20
28.0
 42
0.4142135623730961
 10
-4.5
 20
27.75
 10
-4.5
 20
-19.80000000000001
 42
0.4142135623730109
 10
-4.299999999999955
 20
-20.0
 10
-0.2000000000000455
 20
-20.00000000000006
 42
0.4142135623730129
 10
0.0
 20
-19.80000000000007
 10
0.0
 20
-17.69999999999999
 42
0.4142135623730129
 10
-0.2000000000000462
 20
-17.5
 10
-0.7999999999999546
 20
-17.5
 42
0.4142135623730108
 10
-1.0
 20
-17.69999999999999
 10
-1.0
 20
-18.5
 10
-3.0
 20
-18.5
 10
-2.999999999999886
 20
-13.39999999999998
 42
0.9999999999999998
 10
-3.0
 20
-12.60000000000002
 10
-3.0
 20
-7.5
 10
-1.0
 20
-7.5
 10
-1.0
 20
-8.300000000000011
 42
0.4142135623730109
 10
-0.7999999999999554
 20
-8.5
 10
-0.2000000000000455
 20
-8.5
 42
0.4142135623730129
 10
0.0
 20
-8.300000000000011
 10
0.0
 20
-6.199999999999988
 42
0.4142135623730129
 10
-0.2000000000000462
 20
-6.0
 10
-2.899999999999977
 20
-6.0
 10
-2.899999999999977
 20
4.0
 42
-0.4142135623730961
 10
-1.89999999999998
 20
5.0
 10
3.300000000000067
 20
5.0
 42
0.4142135623730961
 10
5.40000000000009
 20
7.100000000000022
 10
5.40000000000009
 20
8.5
 10
13.60000000000002
 20
8.5
 10
13.60000000000002
 20
5.200000000000045
 42
0.4142135623730524
 10
13.80000000000007
 20
5.000000000000028
 10
15.0
 20
5.0
 42
0.4142135623731784
 10
15.20000000000004
 20
5.199999999999988
 10
15.20000000000004
 20
8.5
 42
0.4142135623730961
 10
13.60000000000002
 20
10.10000000000002
 10
12.28745860880008
 20
10.10000000000002
 10
12.28745860880008
 20
10.60000000000002
 42
0.657763010441569
 10
10.76974488229518
 20
11.25454545454499
 42
-0.3973597071192729
 10
8.230255117721977
 20
11.25454545454574
 42
0.1432248589117956
 10
7.780239626801956
 20
11.48423826074858
 42
-0.295976833748959
 10
7.780239626821067
 20
13.71576173925262
 42
0.1432248589113613
 10
8.230255117705043
 20
13.94545454545505
 42
-0.3973597071192736
 10
10.76974488227824
 20
13.94545454545431
 42
0.677856157977275
 10
12.28606864660003
 20
14.64999999999998
  0
LWPOLYLINE
  5
3E25
102
{ACAD_REACTORS
330
3E26
102
}
330
26A8
100
AcDbEntity
  8
APL Joinery
100
AcDbPolyline
 90
       41
 70
     1
 43
0.0
 10
3.300000000000068
 20
6.600000000000022
 10
-1.899999999999977
 20
6.600000000000022
 42
-0.4142135623730971
 10
-2.899999999999977
 20
7.600000000000022
 10
-2.899999999999977
 20
17.51715728752538
 10
-2.058578643862688
 20
18.35857864366272
 42
0.4142135623730363
 10
-2.058578643862688
 20
18.64142135613724
 10
-2.899999999999977
 20
19.48284271227453
 10
-2.899999999999977
 20
25.19999999999992
 42
-0.4142135623730992
 10
-1.900000000000091
 20
26.19999999999993
 10
6.0
 20
26.19999999999993
 10
6.0
 20
25.69999999999999
 42
0.4142135623730109
 10
6.200000000000045
 20
25.5
 10
10.79999999999995
 20
25.49999999999994
 42
0.4142135623730129
 10
11.0
 20
25.69999999999993
 10
11.0
 20
26.19999999999993
 10
18.0
 20
26.19999999999993
 10
18.0
 20
25.69999999999999
 42
0.4142135623730109
 10
18.20000000000004
 20
25.5
 10
25.79999999999996
 20
25.5
 42
0.4142135623730129
 10
26.0
 20
25.69999999999999
 10
26.0
 20
26.19999999999993
 10
47.39999999999997
 20
26.19999999999993
 42
-0.4142135623730961
 10
48.39999999999998
 20
25.19999999999993
 10
48.39999999999998
 20
22.69973793199995
 42
-0.4142135623730961
 10
47.89999999999998
 20
22.19973793199995
 10
44.33726783650003
 20
22.19973793200001
 42
0.9929927093380095
 10
44.32601716887365
 20
20.59981704687891
 42
-0.4016728856466486
 10
46.14922524954045
 20
18.80353481615162
 42
0.1432248589113634
 10
46.30501691391759
 20
18.32290847010884
 42
-0.2959768337489483
 10
44.72709152985988
 20
16.74498308605882
 42
0.1432248589118002
 10
44.24646518377825
 20
16.90077475048275
 42
-0.4016728856466394
 10
42.45018295313696
 20
18.72398283112091
 42
1.000000000000004
 10
40.8503411828475
 20
18.70148149588448
 42
0.129938666619159
 10
41.32492589415948
 20
17.00316455696225
 42
-0.5797941154844655
 10
40.89375573389998
 20
16.25
 10
9.499999999999985
 20
16.25
 42
0.5704557393384569
 10
6.301829922913979
 20
10.84096385542177
 42
-0.5704557393379189
 10
5.863724432899971
 20
10.10000000000002
 10
5.40000000000009
 20
10.10000000000002
 42
0.4142135623730961
 10
3.800000000000068
 20
8.499999999999989
 10
3.800000000000068
 20
7.100000000000022
 42
-0.4142135623730961
  0
HATCH
  5
3E26
330
26A8
100
AcDbEntity
  8
APL Hatch
100
AcDbHatch
 10
0.0
 20
0.0
 30
0.0
210
0.0
220
0.0
230
1.0
  2
SOLID
 70
     1
 71
     1
 91
        2
 92
        1
 93
      106
 72
     1
 10
48.39999999999998
 20
14.64999999999998
 11
48.5770520258726
 21
5.196255008275386
 72
     2
 10
48.77701696039105
 20
5.199999999999931
 40
0.1999999999999602
 50
181.0729238056887
 51
270.0
 73
     1
 72
     1
 10
48.77701696039105
 20
4.999999999999971
 11
49.60000000000002
 21
5.0
 72
     1
 10
49.60000000000002
 20
5.0
 11
50.0
 21
5.399999999999977
 72
     1
 10
50.0
 20
5.399999999999977
 11
63.60000300000002
 21
5.399999999999977
 72
     1
 10
63.60000300000002
 20
5.399999999999977
 11
64.00000299999999
 21
5.0
 72
     1
 10
64.00000299999999
 20
5.0
 11
65.74999999999999
 21
5.0
 72
     2
 10
65.75000000000004
 20
5.75
 40
0.75
 50
269.9999999999957
 51
449.9999999999945
 73
     1
 72
     1
 10
65.75000000000011
 20
6.5
 11
50.0
 21
6.5
 72
     1
 10
50.0
 20
6.5
 11
50.0
 21
14.75
 72
     2
 10
48.39999999999998
 20
14.75
 40
1.600000000000022
 50
359.9999999999999
 51
450.0
 73
     1
 72
     1
 10
48.39999999999998
 20
16.35000000000002
 11
47.76301891420008
 21
16.35000000000002
 72
     2
 10
47.76301891420014
 20
16.85000000000001
 40
0.4999999999999858
 50
90.00000000000733
 51
208.7515612239017
 73
     0
 72
     2
 10
44.3000000000062
 20
18.74999999998292
 40
3.450000000000018
 50
331.2484387764024
 51
380.0176702410015
 73
     1
 72
     2
 10
48.01136902821552
 20
20.10212423103304
 40
0.4999999999675991
 50
159.9823297573707
 51
267.545027623872
 73
     0
 72
     2
 10
47.89999999996584
 20
22.69973793202007
 40
2.100000000034093
 50
272.4549723736544
 51
359.9999999994511
 73
     1
 72
     1
 10
49.99999999999994
 20
22.69973793199995
 11
50.0
 21
25.5
 72
     2
 10
50.5
 20
25.5
 40
0.5
 50
179.9999999999996
 51
270.0
 73
     0
 72
     1
 10
50.5
 20
26.0
 11
57.79999999999999
 21
26.0
 72
     2
 10
57.80000000000001
 20
26.69999999999999
 40
0.6999999999999887
 50
269.9999999999988
 51
359.9999999999954
 73
     1
 72
     1
 10
58.5
 20
26.69999999999993
 11
58.5
 21
47.5
 72
     2
 10
58.0
 20
47.5
 40
0.5
 50
0.0
 51
90.0
 73
     1
 72
     1
 10
58.0
 20
48.0
 11
51.25
 21
48.0
 72
     2
 10
51.25
 20
47.75
 40
0.25
 50
90.0
 51
180.0
 73
     1
 72
     1
 10
51.0
 20
47.75
 11
51.0
 21
45.29142135618128
 72
     2
 10
51.30000000000002
 20
45.29142135618124
 40
0.3000000000000256
 50
179.9999999999932
 51
224.9999999999943
 73
     1
 72
     1
 10
51.08786796564402
 20
45.07928932182529
 11
52.65857864376267
 21
43.50857864370669
 72
     2
 10
52.79999999998839
 20
43.64999999997201
 40
0.2000000000116108
 50
225.0000000080186
 51
360.0000000080119
 73
     1
 72
     1
 10
53.0
 20
43.64999999999997
 11
53.0
 21
45.49999999999999
 72
     2
 10
53.5
 20
45.49999999999999
 40
0.5
 50
180.0
 51
270.0
 73
     0
 72
     1
 10
53.5
 20
46.0
 11
56.20000000000004
 21
46.0
 72
     2
 10
56.20000000000004
 20
45.49999999999999
 40
0.5
 50
270.0
 51
360.0
 73
     0
 72
     1
 10
56.70000000000005
 20
45.49999999999999
 11
56.70000000000005
 21
41.44999999999993
 72
     2
 10
56.20000000000004
 20
41.44999999999993
 40
0.5
 50
360.0
 51
450.0
 73
     0
 72
     1
 10
56.20000000000004
 20
40.94999999999993
 11
51.70000000000005
 21
40.94999999999993
 72
     2
 10
51.70000000000005
 20
40.24999999999997
 40
0.6999999999999602
 50
90.0
 51
270.0
 73
     1
 72
     1
 10
51.70000000000005
 20
39.55000000000001
 11
53.70000000000004
 21
39.54999999999996
 72
     1
 10
53.70000000000004
 20
39.54999999999996
 11
53.70000000000004
 21
38.74999999999995
 72
     2
 10
53.90000000000009
 20
38.75
 40
0.2000000000000455
 50
180.0000000000163
 51
270.0
 73
     1
 72
     1
 10
53.90000000000009
 20
38.54999999999995
 11
54.50000000000011
 21
38.54999999999995
 72
     2
 10
54.50000000000011
 20
38.75
 40
0.2000000000000455
 50
270.0
 51
359.9999999999837
 73
     1
 72
     1
 10
54.70000000000016
 20
38.74999999999995
 11
54.70000000000005
 21
39.54999999999996
 72
     1
 10
54.70000000000005
 20
39.54999999999996
 11
56.70000000000005
 21
39.54999999999996
 72
     1
 10
56.70000000000005
 20
39.54999999999996
 11
56.70000000000005
 21
34.44999999999993
 72
     2
 10
56.70000000000005
 20
34.04999999999996
 40
0.3999999999999772
 50
90.0
 51
270.0
 73
     1
 72
     1
 10
56.70000000000005
 20
33.64999999999998
 11
56.70000000000005
 21
28.54999999999995
 72
     1
 10
56.70000000000005
 20
28.54999999999995
 11
54.70000000000005
 21
28.54999999999995
 72
     1
 10
54.70000000000005
 20
28.54999999999995
 11
54.70000000000005
 21
29.34999999999997
 72
     2
 10
54.5
 20
29.34999999999991
 40
0.2000000000000455
 50
0.0000000000162844
 51
90.0
 73
     1
 72
     1
 10
54.5
 20
29.54999999999996
 11
53.9000000000002
 21
29.54999999999996
 72
     2
 10
53.9000000000002
 20
29.34999999999991
 40
0.2000000000000455
 50
90.0
 51
179.9999999999837
 73
     1
 72
     1
 10
53.70000000000016
 20
29.34999999999997
 11
53.70000000000004
 21
28.0
 72
     1
 10
53.70000000000004
 20
28.0
 11
23.90000000000009
 21
28.0
 72
     1
 10
23.90000000000009
 20
28.0
 11
23.5
 21
27.60000000000002
 72
     1
 10
23.5
 20
27.60000000000002
 11
23.10000000000002
 21
28.0
 72
     1
 10
23.10000000000002
 20
28.0
 11
20.90000000000009
 21
28.0
 72
     1
 10
20.90000000000009
 20
28.0
 11
20.5
 21
27.60000000000002
 72
     1
 10
20.5
 20
27.60000000000002
 11
20.10000000000002
 21
28.0
 72
     1
 10
20.10000000000002
 20
28.0
 11
8.90000000000009
 21
28.0
 72
     1
 10
8.90000000000009
 20
28.0
 11
8.5
 21
27.60000000000002
 72
     1
 10
8.5
 20
27.60000000000002
 11
8.100000000000022
 21
28.0
 72
     1
 10
8.100000000000022
 20
28.0
 11
-4.25
 21
28.0
 72
     2
 10
-4.25
 20
27.75
 40
0.25
 50
90.0
 51
180.0
 73
     1
 72
     1
 10
-4.5
 20
27.75
 11
-4.5
 21
-19.80000000000001
 72
     2
 10
-4.299999999999954
 20
-19.79999999999995
 40
0.2000000000000455
 50
180.0000000000163
 51
269.9999999999998
 73
     1
 72
     1
 10
-4.299999999999955
 20
-20.0
 11
-0.2000000000000455
 21
-20.00000000000006
 72
     2
 10
-0.2000000000000451
 20
-19.80000000000001
 40
0.2000000000000455
 50
269.9999999999999
 51
359.9999999999837
 73
     1
 72
     1
 10
0.0
 20
-19.80000000000007
 11
0.0
 21
-17.69999999999999
 72
     2
 10
-0.2000000000000455
 20
-17.70000000000004
 40
0.2000000000000455
 50
0.0000000000162844
 51
90.00000000000019
 73
     1
 72
     1
 10
-0.2000000000000462
 20
-17.5
 11
-0.7999999999999546
 21
-17.5
 72
     2
 10
-0.7999999999999542
 20
-17.70000000000004
 40
0.2000000000000455
 50
90.00000000000007
 51
179.9999999999837
 73
     1
 72
     1
 10
-1.0
 20
-17.69999999999999
 11
-1.0
 21
-18.5
 72
     1
 10
-1.0
 20
-18.5
 11
-3.0
 21
-18.5
 72
     1
 10
-3.0
 20
-18.5
 11
-2.999999999999886
 21
-13.39999999999998
 72
     2
 10
-2.999999999999943
 20
-13.0
 40
0.3999999999999772
 50
270.0000000000081
 51
450.0000000000081
 73
     1
 72
     1
 10
-3.0
 20
-12.60000000000002
 11
-3.0
 21
-7.5
 72
     1
 10
-3.0
 20
-7.5
 11
-1.0
 21
-7.5
 72
     1
 10
-1.0
 20
-7.5
 11
-1.0
 21
-8.300000000000011
 72
     2
 10
-0.7999999999999547
 20
-8.299999999999954
 40
0.2000000000000454
 50
180.0000000000163
 51
269.9999999999998
 73
     1
 72
     1
 10
-0.7999999999999554
 20
-8.5
 11
-0.2000000000000455
 21
-8.5
 72
     2
 10
-0.2000000000000451
 20
-8.299999999999954
 40
0.2000000000000455
 50
269.9999999999999
 51
359.9999999999837
 73
     1
 72
     1
 10
0.0
 20
-8.300000000000011
 11
0.0
 21
-6.199999999999988
 72
     2
 10
-0.2000000000000455
 20
-6.200000000000045
 40
0.2000000000000455
 50
0.0000000000162844
 51
90.00000000000019
 73
     1
 72
     1
 10
-0.2000000000000462
 20
-6.0
 11
-2.899999999999977
 21
-6.0
 72
     1
 10
-2.899999999999977
 20
-6.0
 11
-2.899999999999977
 21
4.0
 72
     2
 10
-1.89999999999998
 20
4.000000000000003
 40
0.9999999999999964
 50
179.9999999999998
 51
270.0
 73
     0
 72
     1
 10
-1.89999999999998
 20
5.0
 11
3.300000000000068
 21
5.0
 72
     2
 10
3.300000000000071
 20
7.100000000000019
 40
2.100000000000019
 50
269.9999999999999
 51
360.0000000000001
 73
     1
 72
     1
 10
5.40000000000009
 20
7.100000000000022
 11
5.40000000000009
 21
8.5
 72
     1
 10
5.40000000000009
 20
8.5
 11
13.60000000000002
 21
8.5
 72
     1
 10
13.60000000000002
 20
8.5
 11
13.60000000000002
 21
5.200000000000045
 72
     2
 10
13.80000000000007
 20
5.200000000000073
 40
0.2000000000000455
 50
180.0000000000081
 51
270.0
 73
     1
 72
     1
 10
13.80000000000007
 20
5.000000000000028
 11
15.0
 21
5.0
 72
     2
 10
15.00000000000006
 20
5.199999999999988
 40
0.1999999999999886
 50
269.9999999999838
 51
360.0
 73
     1
 72
     1
 10
15.20000000000004
 20
5.199999999999988
 11
15.20000000000004
 21
8.5
 72
     2
 10
13.60000000000002
 20
8.5
 40
1.600000000000022
 50
0.0
 51
90.00000000000019
 73
     1
 72
     1
 10
13.60000000000002
 20
10.10000000000002
 11
12.28745860880008
 21
10.10000000000002
 72
     1
 10
12.28745860880008
 20
10.10000000000002
 11
12.28745860880008
 21
10.60000000000002
 72
     2
 10
11.38745860880873
 20
10.60000000000332
 40
0.8999999999913459
 50
359.9999999997899
 51
493.3417582269896
 73
     1
 72
     2
 10
9.500000000008977
 20
12.59999999999156
 40
1.849999999987796
 50
46.65824177281834
 51
133.3417582272155
 73
     0
 72
     2
 10
7.612541391189854
 20
10.59999999997038
 40
0.9000000000285906
 50
46.65824177362257
 51
79.26123576092161
 73
     1
 72
     2
 10
9.500000000010478
 20
12.59999999998587
 40
2.050000000001013
 50
147.0249334074901
 51
212.9750665934912
 73
     0
 72
     2
 10
7.612541391190416
 20
14.59999999997142
 40
0.8999999999736823
 50
280.7387642409434
 51
313.3417582281449
 73
     1
 72
     2
 10
9.499999999991253
 20
12.60000000000849
 40
1.849999999987793
 50
226.658241772818
 51
313.3417582272153
 73
     0
 72
     2
 10
11.3874586088101
 20
14.60000000000321
 40
0.9000000000091619
 50
226.6582417724787
 51
363.1847385364819
 73
     1
 72
     1
 10
12.28606864660003
 20
14.64999999999998
 11
48.39999999999998
 21
14.64999999999998
 97
        1
330
3E24
 92
       16
 93
       41
 72
     1
 10
3.300000000000068
 20
6.600000000000022
 11
-1.899999999999977
 21
6.600000000000022
 72
     2
 10
-1.89999999999998
 20
7.600000000000019
 40
0.9999999999999964
 50
89.9999999999998
 51
180.0000000000002
 73
     0
 72
     1
 10
-2.899999999999977
 20
7.600000000000022
 11
-2.899999999999977
 21
17.51715728752538
 72
     1
 10
-2.899999999999977
 20
17.51715728752538
 11
-2.058578643862688
 21
18.35857864366272
 72
     2
 10
-2.200000000099976
 20
18.49999999989998
 40
0.1999999999999493
 50
315.0000000000058
 51
404.9999999999942
 73
     1
 72
     1
 10
-2.058578643862688
 20
18.64142135613724
 11
-2.899999999999977
 21
19.48284271227453
 72
     1
 10
-2.899999999999977
 20
19.48284271227453
 11
-2.899999999999977
 21
25.19999999999992
 72
     2
 10
-1.900000000000034
 20
25.19999999999999
 40
0.9999999999999431
 50
179.9999999999959
 51
269.9999999999968
 73
     0
 72
     1
 10
-1.900000000000091
 20
26.19999999999993
 11
6.0
 21
26.19999999999993
 72
     1
 10
6.0
 20
26.19999999999993
 11
6.0
 21
25.69999999999999
 72
     2
 10
6.200000000000045
 20
25.70000000000005
 40
0.2000000000000455
 50
180.0000000000163
 51
270.0
 73
     1
 72
     1
 10
6.200000000000045
 20
25.5
 11
10.79999999999995
 21
25.49999999999994
 72
     2
 10
10.79999999999995
 20
25.69999999999999
 40
0.2000000000000455
 50
270.0
 51
359.9999999999837
 73
     1
 72
     1
 10
11.0
 20
25.69999999999993
 11
11.0
 21
26.19999999999993
 72
     1
 10
11.0
 20
26.19999999999993
 11
18.0
 21
26.19999999999993
 72
     1
 10
18.0
 20
26.19999999999993
 11
18.0
 21
25.69999999999999
 72
     2
 10
18.20000000000004
 20
25.70000000000005
 40
0.2000000000000455
 50
180.0000000000163
 51
270.0
 73
     1
 72
     1
 10
18.20000000000004
 20
25.5
 11
25.79999999999996
 21
25.5
 72
     2
 10
25.79999999999996
 20
25.70000000000005
 40
0.2000000000000455
 50
270.0
 51
359.9999999999837
 73
     1
 72
     1
 10
26.0
 20
25.69999999999999
 11
26.0
 21
26.19999999999993
 72
     1
 10
26.0
 20
26.19999999999993
 11
47.39999999999997
 21
26.19999999999993
 72
     2
 10
47.39999999999997
 20
25.19999999999993
 40
1.0
 50
270.0
 51
360.0
 73
     0
 72
     1
 10
48.39999999999998
 20
25.19999999999993
 11
48.39999999999998
 21
22.69973793199995
 72
     2
 10
47.89999999999998
 20
22.69973793199995
 40
0.5
 50
360.0
 51
450.0
 73
     0
 72
     1
 10
47.89999999999998
 20
22.19973793199995
 11
44.33726783650003
 21
22.19973793200001
 72
     2
 10
44.33726783649725
 20
21.39973793200785
 40
0.7999999999921528
 50
89.99999999980103
 51
269.1942037227034
 73
     1
 72
     2
 10
44.29999999997504
 20
18.74999999995287
 40
1.85000000004748
 50
270.8057962778577
 51
358.3417582279568
 73
     0
 72
     2
 10
47.04884834377375
 20
18.82957878079455
 40
0.8999999998734537
 50
181.6582417726819
 51
214.2612357598837
 73
     1
 72
     2
 10
44.2999999999662
 20
18.75000000001228
 40
2.050000000035708
 50
12.02493340714006
 51
77.9750665931389
 73
     0
 72
     2
 10
44.22042121907559
 20
16.00115165616225
 40
0.8999999999623454
 50
55.73876423637821
 51
88.34175822367841
 73
     1
 72
     2
 10
44.30000000000508
 20
18.74999999998898
 40
1.84999999998914
 50
91.65824177296551
 51
179.1942037230631
 73
     0
 72
     2
 10
41.65026206799223
 20
18.7127321635027
 40
0.8000000000078641
 50
0.8057962768946966
 51
180.8057962768952
 73
     1
 72
     2
 10
44.29999999997114
 20
18.74999999990479
 40
3.449999999969739
 50
180.8057962755274
 51
210.4196217138265
 73
     1
 72
     2
 10
40.89375573390003
 20
16.75000000000004
 40
0.5000000000000434
 50
329.5803782846089
 51
450.0000000000056
 73
     0
 72
     1
 10
40.89375573389998
 20
16.25
 11
9.499999999999985
 21
16.25
 72
     2
 10
9.500000000007281
 20
12.60000000000484
 40
3.649999999995158
 50
90.00000000011452
 51
208.8113797094123
 73
     1
 72
     2
 10
5.863724432899658
 20
10.60000000000029
 40
0.5000000000002705
 50
331.1886202907593
 51
449.9999999999642
 73
     0
 72
     1
 10
5.863724432899971
 20
10.10000000000002
 11
5.40000000000009
 21
10.10000000000002
 72
     2
 10
5.400000000000093
 20
8.499999999999996
 40
1.600000000000026
 50
90.00000000000007
 51
180.0000000000002
 73
     1
 72
     1
 10
3.800000000000068
 20
8.499999999999989
 11
3.800000000000068
 21
7.100000000000022
 72
     2
 10
3.300000000000069
 20
7.100000000000021
 40
0.4999999999999992
 50
359.9999999999999
 51
450.0
 73
     0
 97
        1
330
3E25
 75
     0
 76
     1
 98
        1
 10
0.0
 20
0.0
  0
ENDBLK
  5
26AA
330
26A8
100
AcDbEntity
  8
0
100
AcDbBlockEnd
  0
BLOCK
  5
26B9
330
26B8
100
AcDbEntity
  8
0
100
AcDbBlockBegin
  2
08022
 70
     0
 10
0.0
 20
-0.0000000000000031
 30
0.0
  3
08022
  1
08022.dwg
  0
LWPOLYLINE
  5
3E2A
102
{ACAD_REACTORS
330
3E2C
102
}
330
26B8
100
AcDbEntity
  8
APL Joinery
  6
Continuous
100
AcDbPolyline
 90
       45
 70
     1
 43
0.0
 10
2.378679656439999
 20
5.230151519017908
 10
12.54644660940636
 20
15.39791847198324
 42
-0.6681786379192798
 10
13.39999999999963
 20
15.04436508139042
 10
13.39999999999963
 20
0.9764718625768582
 42
0.1989123673796311
 10
13.5464466094063
 20
0.6229184719836099
 10
16.72291847198255
 20
-2.553553390593094
 42
0.1989123673796875
 10
17.07647186257588
 20
-2.699999999999818
 10
19.05004950616257
 20
-2.699999999999717
 42
3.927182716063912
 10
19.05004950616325
 20
-1.599999999999454
 10
17.32499999999982
 20
-1.599999999999454
 10
14.5
 20
1.225000000000363
 10
14.50000000000004
 20
4.500000000000994
 42
0.9999999999975839
 10
14.50000000000005
 20
5.300000000001006
 10
14.5
 20
8.900000000001
 10
16.5
 20
8.900000000000545
 42
0.4142135623730951
 10
17.0
 20
9.400000000000545
 10
17.0
 20
10.95000000000073
 42
0.9999999999999998
 10
16.0
 20
10.95000000000073
 10
16.0
 20
10.20000000000027
 10
14.5
 20
10.20000000000073
 10
14.5
 20
15.70000000000073
 10
16.0
 20
15.70000000000073
 10
16.0
 20
14.95000000000073
 42
0.9999999999999998
 10
17.0
 20
14.95000000000073
 10
17.0
 20
16.50000000000091
 42
0.4142135623730951
 10
16.5
 20
17.00000000000091
 10
15.30000000000018
 20
17.00000000000091
 10
15.30000000000018
 20
18.50000000000091
 42
0.4142135623730951
 10
14.80000000000018
 20
19.00000000000045
 10
0.25
 20
19.00000000000045
 42
0.4142135623730951
 10
0.0
 20
18.75000000000045
 10
0.0
 20
0.2878679656446379
 42
0.4142135623731034
 10
0.2878679656441818
 20
0.0000000000001137
 10
2.25
 20
0.0000000000009095
 42
-0.4142135623730951
 10
2.5
 20
-0.2499999999990905
 10
2.5
 20
-1.353553390602428
 10
2.073223304703788
 20
-1.780330085899549
 42
0.414213562373048
 10
2.073223304703333
 20
-2.133883476492371
 10
3.173223304703242
 20
-3.233883476489609
 42
0.6681786379193531
 10
3.600000000000306
 20
-3.057106781193397
 10
3.600000000000363
 20
0.6000000000003638
 42
0.4142135623730951
 10
3.100000000000363
 20
1.100000000000363
 10
2.0
 20
1.100000000000818
 42
-0.4142135623730951
 10
1.5
 20
1.600000000000363
 10
1.5
 20
3.108831175458334
 42
-0.1989123673796531
  0
LWPOLYLINE
  5
3E2B
102
{ACAD_REACTORS
330
3E2C
102
}
330
26B8
100
AcDbEntity
  8
APL Joinery
  6
Continuous
100
AcDbPolyline
 90
        6
 70
     1
 43
0.0
 10
12.28578643762648
 20
17.900000000001
 10
1.600000000000363
 20
17.90000000000009
 42
0.4142135623730951
 10
1.100000000000363
 20
17.40000000000009
 10
1.100000000000363
 20
6.714213562373515
 42
0.6681786379193371
 10
1.953553390592787
 20
6.360660171779727
 10
12.63933982822055
 20
17.04644660940715
 42
0.6681786379193227
  0
HATCH
  5
3E2C
330
26B8
100
AcDbEntity
  8
APL Hatch
100
AcDbHatch
 10
0.0
 20
0.0
 30
0.0
210
0.0
220
0.0
230
1.0
  2
SOLID
 70
     1
 71
     1
 91
        2
 92
       16
 93
        6
 72
     1
 10
12.28578643762648
 20
17.900000000001
 11
1.600000000000363
 21
17.90000000000009
 72
     2
 10
1.600000000000363
 20
17.40000000000009
 40
0.5
 50
90.0
 51
180.0
 73
     1
 72
     1
 10
1.100000000000363
 20
17.40000000000009
 11
1.100000000000363
 21
6.714213562373515
 72
     2
 10
1.600000000000034
 20
6.714213562373055
 40
0.4999999999996707
 50
179.9999999999473
 51
314.9999999999534
 73
     1
 72
     1
 10
1.953553390592787
 20
6.360660171779727
 11
12.63933982822055
 21
17.04644660940715
 72
     2
 10
12.28578643762678
 20
17.40000000000055
 40
0.5000000000004449
 50
315.0000000000298
 51
450.0000000000335
 73
     1
 97
        1
330
3E2B
 92
        1
 93
       45
 72
     1
 10
2.378679656439999
 20
5.230151519017908
 11
12.54644660940636
 21
15.39791847198324
 72
     2
 10
12.89999999999972
 20
15.04436508139018
 40
0.4999999999999136
 50
224.9999999999755
 51
359.9999999999726
 73
     0
 72
     1
 10
13.39999999999963
 20
15.04436508139042
 11
13.39999999999963
 21
0.976471862576858
 72
     2
 10
13.89999999999964
 20
0.9764718625768246
 40
0.5000000000000018
 50
179.9999999999962
 51
224.9999999999903
 73
     1
 72
     1
 10
13.5464466094063
 20
0.6229184719836099
 11
16.72291847198255
 21
-2.553553390593094
 72
     2
 10
17.07647186257582
 20
-2.199999999999816
 40
0.5000000000000028
 50
225.0000000000004
 51
270.0000000000069
 73
     1
 72
     1
 10
17.07647186257588
 20
-2.699999999999818
 11
19.05004950616257
 21
-2.699999999999717
 72
     2
 10
20.0599999999988
 20
-2.150000000000205
 40
1.149999999999781
 50
208.5718781422871
 51
511.4281218576425
 73
     1
 72
     1
 10
19.05004950616325
 20
-1.599999999999454
 11
17.32499999999982
 21
-1.599999999999454
 72
     1
 10
17.32499999999982
 20
-1.599999999999454
 11
14.5
 21
1.225000000000363
 72
     1
 10
14.5
 20
1.225000000000363
 11
14.50000000000004
 21
4.500000000000994
 72
     2
 10
14.49999999999908
 20
4.900000000001
 40
0.4000000000000057
 50
270.0000000001377
 51
449.9999999998608
 73
     1
 72
     1
 10
14.50000000000005
 20
5.300000000001006
 11
14.5
 21
8.900000000001
 72
     1
 10
14.5
 20
8.900000000001
 11
16.5
 21
8.900000000000545
 72
     2
 10
16.5
 20
9.400000000000545
 40
0.5
 50
270.0
 51
360.0
 73
     1
 72
     1
 10
17.0
 20
9.400000000000545
 11
17.0
 21
10.95000000000073
 72
     2
 10
16.5
 20
10.95000000000073
 40
0.5
 50
0.0
 51
180.0
 73
     1
 72
     1
 10
16.0
 20
10.95000000000073
 11
16.0
 21
10.20000000000027
 72
     1
 10
16.0
 20
10.20000000000027
 11
14.5
 21
10.20000000000073
 72
     1
 10
14.5
 20
10.20000000000073
 11
14.5
 21
15.70000000000073
 72
     1
 10
14.5
 20
15.70000000000073
 11
16.0
 21
15.70000000000073
 72
     1
 10
16.0
 20
15.70000000000073
 11
16.0
 21
14.95000000000073
 72
     2
 10
16.5
 20
14.95000000000073
 40
0.5
 50
180.0
 51
360.0
 73
     1
 72
     1
 10
17.0
 20
14.95000000000073
 11
17.0
 21
16.50000000000091
 72
     2
 10
16.5
 20
16.50000000000091
 40
0.5
 50
0.0
 51
90.0
 73
     1
 72
     1
 10
16.5
 20
17.00000000000091
 11
15.30000000000018
 21
17.00000000000091
 72
     1
 10
15.30000000000018
 20
17.00000000000091
 11
15.30000000000018
 21
18.50000000000091
 72
     2
 10
14.80000000000041
 20
18.50000000000068
 40
0.4999999999997727
 50
0.0000000000260551
 51
90.00000000002605
 73
     1
 72
     1
 10
14.80000000000018
 20
19.00000000000045
 11
0.25
 21
19.00000000000045
 72
     2
 10
0.25
 20
18.75000000000045
 40
0.25
 50
90.0
 51
180.0
 73
     1
 72
     1
 10
0.0
 20
18.75000000000045
 11
0.0
 21
0.2878679656446366
 72
     2
 10
0.2878679656443489
 20
0.2878679656444626
 40
0.2878679656443489
 50
179.9999999999651
 51
269.9999999999667
 73
     1
 72
     1
 10
0.2878679656441818
 20
0.0000000000001137
 11
2.25
 21
0.0000000000009095
 72
     2
 10
2.25
 20
-0.2499999999990905
 40
0.25
 50
270.0
 51
360.0
 73
     0
 72
     1
 10
2.5
 20
-0.2499999999990905
 11
2.5
 21
-1.353553390602428
 72
     1
 10
2.5
 20
-1.353553390602428
 11
2.073223304703788
 21
-1.780330085899549
 72
     2
 10
2.25
 20
-1.957106781196188
 40
0.2499999999997006
 50
134.9999999999309
 51
224.9999999999217
 73
     1
 72
     1
 10
2.073223304703333
 20
-2.133883476492371
 11
3.173223304703242
 21
-3.233883476489609
 72
     2
 10
3.350000000000188
 20
-3.057106781193114
 40
0.2500000000001182
 50
224.9999999999268
 51
359.9999999999353
 73
     1
 72
     1
 10
3.600000000000306
 20
-3.057106781193397
 11
3.600000000000363
 21
0.6000000000003638
 72
     2
 10
3.100000000000363
 20
0.6000000000003638
 40
0.5
 50
0.0
 51
90.0
 73
     1
 72
     1
 10
3.100000000000363
 20
1.100000000000363
 11
2.0
 21
1.100000000000818
 72
     2
 10
1.999999999999772
 20
1.600000000000591
 40
0.4999999999997727
 50
89.99999999997395
 51
179.9999999999739
 73
     0
 72
     1
 10
1.5
 20
1.600000000000363
 11
1.5
 21
3.108831175458334
 72
     2
 10
4.499999999999806
 20
3.108831175458704
 40
2.999999999999806
 50
179.9999999999929
 51
224.9999999999918
 73
     0
 97
        1
330
3E2A
 75
     0
 76
     1
 98
        1
 10
0.0
 20
0.0
  0
ENDBLK
  5
26BA
330
26B8
100
AcDbEntity
  8
0
100
AcDbBlockEnd
  0
BLOCK
  5
26ED
330
26EC
100
AcDbEntity
  8
0
100
AcDbBlockBegin
  2
9010317
 70
     0
 10
0.0
 20
0.0
 30
0.0
  3
9010317
  1
9010317.dwg
  0
LWPOLYLINE
  5
3E2E
330
26EC
100
AcDbEntity
  8
APL Joinery
  6
Continuous
 62
   252
100
AcDbPolyline
 90
       12
 70
     1
 43
0.0
 10
-1.260557280899964
 20
-1.021114561800001
 10
1.439442719099853
 20
-2.371114561800025
 42
-0.4884978633711547
 10
1.501611632788765
 20
-2.680437390356985
 10
0.7778238181522355
 20
-3.52171957232341
 42
0.6414138097735301
 10
1.914911064067338
 20
-6.0
 10
4.200000000000001
 20
-6.000000000000001
 42
-0.4142135623730951
 10
5.200000000000001
 20
-7.000000000000001
 10
5.199999999999999
 20
-10.5
 42
-0.4142135623730951
 10
4.699999999999999
 20
-11.0
 10
-0.5499999999999999
 20
-11.0
 42
-0.4142135623730951
 10
-1.549999999999999
 20
-10.0
 10
-1.549999999999997
 20
-1.199999999999987
 42
-0.5575365158350433
  0
ENDBLK
  5
26EE
330
26EC
100
AcDbEntity
  8
0
100
AcDbBlockEnd
  0
BLOCK
  5
26F7
330
26F6
100
AcDbEntity
  8
0
100
AcDbBlockBegin
  2
19mmliner
 70
     0
 10
110.739951507863
 20
355.7623510830485
 30
0.0
  3
19mmliner
  1
19mmliner.dwg
  0
LINE
  5
2F8E
330
26F6
100
AcDbEntity
  8
APL Joinery
 62
     3
100
AcDbLine
 10
110.739951507863
 20
336.7623510830484
 30
0.0
 11
160.7399515078631
 21
336.7623510830485
 31
0.0
  0
LINE
  5
2F8F
330
26F6
100
AcDbEntity
  8
APL Joinery
 62
     3
100
AcDbLine
 10
110.739951507863
 20
355.7623510830485
 30
0.0
 11
177.7399515078631
 21
355.7623510830485
 31
0.0
  0
LINE
  5
2F90
330
26F6
100
AcDbEntity
  8
APL Joinery
 62
     8
100
AcDbLine
 10
136.9304814615635
 20
338.5194764502585
 30
0.0
 11
148.1588522325407
 21
350.7651184192899
 31
0.0
  0
SPLINE
  5
2F91
330
26F6
100
AcDbEntity
  8
APL Joinery
 62
     8
100
AcDbSpline
210
0.0
220
0.0
230
1.0
 70
     8
 71
     3
 72
    14
 73
    10
 74
     8
 42
0.0000000001
 43
0.0000000001
 44
0.0000000001
 40
0.0
 40
0.0
 40
0.0
 40
0.0
 40
8.267050822299994
 40
20.90203347130239
 40
31.18486054127779
 40
41.04700630219173
 40
47.37085711970707
 40
52.62972264650577
 40
55.04603969815228
 40
55.04603969815228
 40
55.04603969815228
 40
55.04603969815228
 10
112.962024863876
 20
352.4416363673449
 30
0.0
 10
115.710435231041
 20
352.6547702152513
 30
0.0
 10
122.6593903931888
 20
353.1936480954732
 30
0.0
 10
133.0603500725692
 20
353.1446097782715
 30
0.0
 10
143.9830780527489
 20
353.7000992866996
 30
0.0
 10
152.8130144084047
 20
352.2948735856875
 30
0.0
 10
159.402266048835
 20
349.3943549626646
 30
0.0
 10
163.2730412780899
 20
346.7537889098187
 30
0.0
 10
165.2352067994704
 20
345.1119730676722
 30
0.0
 10
165.8529398578057
 20
344.5950931661851
 30
0.0
 11
112.962024863876
 21
352.4416363673449
 31
0.0
 11
121.2107623821955
 21
352.9915987772956
 31
0.0
 11
133.8426794995448
 21
353.2699088220463
 31
0.0
 11
144.1252702312661
 21
353.3396253547937
 31
0.0
 11
153.8351469582417
 21
351.6132960245525
 31
0.0
 11
159.6232888309603
 21
349.0660420475272
 31
0.0
 11
163.9838780752223
 21
346.1264964922112
 31
0.0
 11
165.8529398578057
 21
344.5950931661851
 31
0.0
  0
SPLINE
  5
2F92
330
26F6
100
AcDbEntity
  8
APL Joinery
 62
     8
100
AcDbSpline
210
0.0
220
0.0
230
1.0
 70
     8
 71
     3
 72
    13
 73
     9
 74
     7
 42
0.0000000001
 43
0.0000000001
 44
0.0000000001
 40
0.0
 40
0.0
 40
0.0
 40
0.0
 40
7.873644080568313
 40
17.07129258656329
 40
24.77081643184663
 40
33.27528257512341
 40
39.90117587444498
 40
45.52268627951728
 40
45.52268627951728
 40
45.52268627951728
 40
45.52268627951728
 10
117.2336493875612
 20
346.4777841475926
 30
0.0
 10
119.8422678032878
 20
346.8000537066384
 30
0.0
 10
125.4981607755736
 20
347.4987845456142
 30
0.0
 10
133.7781962604838
 20
347.1223878341504
 30
0.0
 10
142.2036965073619
 20
346.5273623865884
 30
0.0
 10
149.7800610034507
 20
345.0750496880203
 30
0.0
 10
155.8214982068499
 20
341.4387446299347
 30
0.0
 10
158.650253791137
 20
338.4840976402127
 30
0.0
 10
159.9486415420667
 20
337.1279262265049
 30
0.0
 11
117.2336493875612
 21
346.4777841475926
 31
0.0
 11
125.0702377681257
 21
347.2407740958025
 31
0.0
 11
134.2660784444942
 21
347.0584219785152
 31
0.0
 11
141.9373280562645
 21
346.3991823877746
 31
0.0
 11
150.2087695760063
 21
344.4220128028292
 31
0.0
 11
155.8982514277181
 21
341.0260949190992
 31
0.0
 11
159.9486415420667
 21
337.1279262265049
 31
0.0
  0
LINE
  5
2F93
330
26F6
100
AcDbEntity
  8
APL Joinery
 62
     3
100
AcDbLine
 10
110.739951507863
 20
336.7623510830484
 30
0.0
 11
110.739951507863
 21
355.7623510830485
 31
0.0
  0
LINE
  5
2F94
330
26F6
100
AcDbEntity
  8
APL Joinery
 62
     8
100
AcDbLine
 10
130.1934589989773
 20
339.0760965397599
 30
0.0
 11
127.6670755755074
 21
350.2084983297885
 31
0.0
  0
SPLINE
  5
2F95
330
26F6
100
AcDbEntity
  8
APL Joinery
 62
     8
100
AcDbSpline
210
0.0
220
0.0
230
1.0
 70
     8
 71
     3
 72
    15
 73
    11
 74
     9
 42
0.0000000001
 43
0.0000000001
 44
0.0000000001
 40
0.0
 40
0.0
 40
0.0
 40
0.0
 40
4.844139449286539
 40
10.54193621031332
 40
16.07410556410715
 40
19.51351901015936
 40
22.27929741151003
 40
25.6710732269026
 40
27.95241956603697
 40
30.23778869522836
 40
30.23778869522836
 40
30.23778869522836
 40
30.23778869522836
 10
115.8770369925237
 20
337.0554560822224
 30
0.0
 10
117.1487211363271
 20
338.1096881093439
 30
0.0
 10
119.9161916569408
 20
340.4039339495252
 30
0.0
 10
125.4540610404964
 20
340.8199775377686
 30
0.0
 10
130.238054618822
 20
341.7249569545736
 30
0.0
 10
134.1816997355666
 20
341.426500736041
 30
0.0
 10
137.2886936906936
 20
340.6778211815542
 30
0.0
 10
140.1492368439622
 20
340.581128745862
 30
0.0
 10
142.5350224188241
 20
339.1458380938952
 30
0.0
 10
143.2897884662015
 20
337.8009584142327
 30
0.0
 10
143.6675039241498
 20
337.1279262265049
 30
0.0
 11
115.8770369925237
 21
337.0554560822224
 31
0.0
 11
119.8746185322385
 21
339.7913341565277
 31
0.0
 11
125.4579300570243
 21
340.9277849241204
 31
0.0
 11
130.9542151154868
 21
341.556870224519
 31
0.0
 11
134.3846942728782
 21
341.3091251870553
 31
0.0
 11
137.1049409005003
 21
340.8093367815391
 31
0.0
 11
140.4461645861669
 21
340.2259265791753
 31
0.0
 11
142.3805274829412
 21
339.0164716181847
 31
0.0
 11
143.6675039241498
 21
337.1279262265049
 31
0.0
  0
LINE
  5
2F96
330
26F6
100
AcDbEntity
  8
APL Joinery
 62
     8
100
AcDbLine
 10
122.8950179978421
 20
338.2411664055077
 30
0.0
 11
112.4454077587423
 21
345.190146322691
 31
0.0
  0
LINE
  5
2F97
330
26F6
100
AcDbEntity
  8
APL Joinery
 62
     3
100
AcDbLine
 10
177.7399515078631
 20
336.7623510830485
 30
0.0
 11
170.7399515078631
 21
336.7623510830485
 31
0.0
  0
SPLINE
  5
2F98
330
26F6
100
AcDbEntity
  8
APL Joinery
 62
     8
100
AcDbSpline
210
0.0
220
0.0
230
1.0
 70
     8
 71
     3
 72
    11
 73
     7
 74
     5
 42
0.0000000001
 43
0.0000000001
 44
0.0000000001
 40
0.0
 40
0.0
 40
0.0
 40
0.0
 40
4.077163776164723
 40
7.378903861023069
 40
10.95052549711435
 40
14.90356917242528
 40
14.90356917242528
 40
14.90356917242528
 40
14.90356917242528
 10
165.2821176582808
 20
355.2180791353014
 30
0.0
 10
166.5726858318287
 20
354.7818781738363
 30
0.0
 10
168.9083728440546
 20
353.9924360185927
 30
0.0
 10
172.0610412556228
 20
352.0900882102073
 30
0.0
 10
174.6875300120783
 20
349.5844033021437
 30
0.0
 10
176.2507024700006
 20
347.6216106372748
 30
0.0
 10
177.0719069678068
 20
346.5904677480291
 30
0.0
 11
165.2821176582808
 21
355.2180791353014
 31
0.0
 11
169.0893137398045
 21
353.7591334699317
 31
0.0
 11
171.9114927001994
 21
352.0454259384479
 31
0.0
 11
174.5358983769054
 21
349.6228289939545
 31
0.0
 11
177.0719069678068
 21
346.5904677480291
 31
0.0
  0
LINE
  5
2F99
330
26F6
100
AcDbEntity
  8
APL Joinery
 62
     3
100
AcDbLine
 10
160.7399515078631
 20
343.7623510830484
 30
0.0
 11
170.7399515078631
 21
343.7623510830484
 31
0.0
  0
LINE
  5
2F9A
330
26F6
100
AcDbEntity
  8
APL Joinery
 62
     8
100
AcDbLine
 10
145.9131780783453
 20
339.6327166292613
 30
0.0
 11
175.1069420828859
 21
352.7132887325449
 31
0.0
  0
LINE
  5
2F9B
330
26F6
100
AcDbEntity
  8
APL Joinery
 62
     3
100
AcDbLine
 10
160.7399515078631
 20
336.7623510830485
 30
0.0
 11
160.7399515078631
 21
343.7623510830484
 31
0.0
  0
LINE
  5
2F9C
330
26F6
100
AcDbEntity
  8
APL Joinery
 62
     3
100
AcDbLine
 10
170.7399515078631
 20
336.7623510830485
 30
0.0
 11
170.7399515078631
 21
343.7623510830484
 31
0.0
  0
LINE
  5
2F9D
330
26F6
100
AcDbEntity
  8
APL Joinery
 62
     3
100
AcDbLine
 10
177.7399515078631
 20
336.7623510830485
 30
0.0
 11
177.7399515078631
 21
355.7623510830485
 31
0.0
  0
ENDBLK
  5
26F8
330
26F6
100
AcDbEntity
  8
0
100
AcDbBlockEnd
  0
BLOCK
  5
2E6B
330
2E6A
100
AcDbEntity
  8
0
100
AcDbBlockBegin
  2
08005
 70
     0
 10
0.0
 20
0.0
 30
0.0
  3
08005
  1
08005.dwg
  0
LWPOLYLINE
  5
3E30
102
{ACAD_REACTORS
330
3E32
102
}
330
2E6A
100
AcDbEntity
  8
APL Joinery
  6
Continuous
100
AcDbPolyline
 90
       23
 70
     1
 43
0.0
 10
49.50000000000091
 20
40.0
 42
0.4142135623730951
 10
50.00000000000091
 20
40.49999999999999
 10
50.00000000000091
 20
41.5
 42
0.4142135623730951
 10
49.0000000000009
 20
42.5
 10
39.00000000000091
 20
42.5
 42
-0.4142135623730951
 10
38.00000000000091
 20
43.5
 10
38.00000000000091
 20
46.5
 42
0.4142135623730951
 10
37.00000000000091
 20
47.5
 10
6.800000000001091
 20
47.5
 42
0.4142135623730951
 10
5.800000000001091
 20
46.5
 10
5.800000000001091
 20
26.0
 10
4.800000000000181
 20
25.0
 10
5.800000000001091
 20
24.0
 10
5.800000000001091
 20
3.5
 42
0.4142135623730951
 10
6.800000000001091
 20
2.5
 10
49.0000000000009
 20
2.5
 42
0.4142135623730951
 10
50.00000000000091
 20
3.5
 10
50.00000000000091
 20
9.5
 42
0.4142135623730951
 10
49.50000000000091
 20
10.0
 10
49.25000000000091
 20
10.0
 42
-0.4142135623730951
 10
47.0000000000009
 20
12.25
 10
47.0000000000009
 20
37.75
 42
-0.4142135623730951
 10
49.25000000000091
 20
40.0
  0
LWPOLYLINE
  5
3E31
102
{ACAD_REACTORS
330
3E32
102
}
330
2E6A
100
AcDbEntity
  8
APL Joinery
  6
Continuous
100
AcDbPolyline
 90
       73
 70
     1
 43
0.0
 10
1.5
 20
3.25
 10
1.5
 20
1.5
 10
3.800000000001091
 20
1.5
 10
3.800000000001091
 20
22.0
 42
0.4142135623730951
 10
3.300000000001091
 20
22.5
 10
1.5
 20
22.5
 42
0.4142135623730951
 10
1.0
 20
22.0
 10
1.0
 20
19.5
 42
-0.9999999999999998
 10
0.0
 20
19.5
 10
0.0
 20
24.0
 10
1.000000000000909
 20
25.0
 10
0.0
 20
26.0
 10
0.0
 20
30.5
 42
-0.9999999999999998
 10
1.0
 20
30.5
 10
1.0
 20
28.0
 42
0.4142135623730951
 10
1.5
 20
27.5
 10
3.300000000001091
 20
27.5
 42
0.4142135623730951
 10
3.800000000001091
 20
28.0
 10
3.800000000001091
 20
48.5
 10
1.5
 20
48.5
 10
1.5
 20
46.74999999999999
 42
-0.4744978678080916
 10
1.200000000000061
 20
46.5050510257216
 42
-0.3563939586925953
 10
0.0
 20
47.97474487139152
 10
0.000000000001819
 20
49.25
 10
-0.374999999998181
 20
49.25
 42
-0.9999999999999998
 10
-0.374999999998181
 20
50.0
 10
39.50000000000091
 20
50.0
 42
-0.4142135623730951
 10
40.00000000000091
 20
49.5
 10
40.00000000000091
 20
44.75
 42
0.4142135623730951
 10
40.2500000000009
 20
44.5
 10
51.75000000000091
 20
44.5
 42
-0.4142135623730951
 10
52.00000000000091
 20
44.24999999999999
 10
52.00000000000091
 20
38.25
 42
-0.4142135623730951
 10
51.75000000000091
 20
38.0
 10
49.25000000000091
 20
38.0
 42
0.4142135623730951
 10
49.0000000000009
 20
37.75
 10
49.0000000000009
 20
25.40000000000055
 10
48.60000000000127
 20
25.0
 10
49.0000000000009
 20
24.60000000000036
 10
49.0000000000009
 20
12.25
 42
0.4142135623730951
 10
49.25000000000091
 20
12.0
 10
51.75000000000091
 20
12.0
 42
-0.4142135623730951
 10
52.00000000000091
 20
11.75
 10
52.00000000000091
 20
2.25
 42
0.4142135623730951
 10
52.25000000000091
 20
2.0
 10
59.90000000000145
 20
2.0
 10
59.90000000000145
 20
7.25
 42
-0.4142135623730951
 10
60.15000000000146
 20
7.5
 10
61.95000000000073
 20
7.5
 42
-0.9999999999999998
 10
61.95000000000073
 20
6.5
 10
61.20000000000072
 20
6.5
 10
61.20000000000072
 20
5.0
 10
62.20000000000073
 20
5.0
 42
-0.5642956302654018
 10
62.42126033866952
 20
4.633621898399411
 10
61.22873966133283
 20
2.366378101601185
 42
0.5642956302654404
 10
61.45000000000073
 20
2.0
 10
66.45000000000073
 20
2.0
 42
0.5642956302653263
 10
66.67126033866958
 20
2.36637810160056
 10
65.47873966133284
 20
4.633621898399726
 42
-0.5642956302653342
 10
65.70000000000163
 20
5.0
 10
66.70000000000072
 20
5.0
 10
66.70000000000072
 20
6.5
 10
65.95000000000073
 20
6.5
 42
-0.9999999999999998
 10
65.95000000000073
 20
7.5
 10
67.7500000000009
 20
7.5
 42
-0.4142135623730951
 10
68.00000000000091
 20
7.25
 10
68.00000000000091
 20
0.25
 42
-0.4142135623730951
 10
67.7500000000009
 20
0.0
 10
-0.374999999998181
 20
0.0
 42
-0.9999999999999998
 10
-0.374999999998181
 20
0.75
 10
0.0
 20
0.75
 10
0.0
 20
2.025255128608463
 42
-0.3563939586925953
 10
1.200000000000038
 20
3.494948974278314
 42
-0.4744978678080755
  0
HATCH
  5
3E32
330
2E6A
100
AcDbEntity
  8
APL Hatch
100
AcDbHatch
 10
0.0
 20
0.0
 30
0.0
210
0.0
220
0.0
230
1.0
  2
SOLID
 70
     1
 71
     1
 91
        2
 92
        1
 93
       73
 72
     1
 10
1.5
 20
3.25
 11
1.5
 21
1.5
 72
     1
 10
1.5
 20
1.5
 11
3.800000000001091
 21
1.5
 72
     1
 10
3.800000000001091
 20
1.5
 11
3.800000000001091
 21
22.0
 72
     2
 10
3.300000000001091
 20
22.0
 40
0.5
 50
0.0
 51
90.0
 73
     1
 72
     1
 10
3.300000000001091
 20
22.5
 11
1.5
 21
22.5
 72
     2
 10
1.5
 20
22.0
 40
0.5
 50
90.0
 51
180.0
 73
     1
 72
     1
 10
1.0
 20
22.0
 11
1.0
 21
19.5
 72
     2
 10
0.5
 20
19.5
 40
0.5
 50
360.0
 51
540.0
 73
     0
 72
     1
 10
0.0
 20
19.5
 11
0.0
 21
24.0
 72
     1
 10
0.0
 20
24.0
 11
1.000000000000909
 21
25.0
 72
     1
 10
1.000000000000909
 20
25.0
 11
0.0
 21
26.0
 72
     1
 10
0.0
 20
26.0
 11
0.0
 21
30.5
 72
     2
 10
0.5
 20
30.5
 40
0.5
 50
180.0
 51
360.0
 73
     0
 72
     1
 10
1.0
 20
30.5
 11
1.0
 21
28.0
 72
     2
 10
1.5
 20
28.0
 40
0.5
 50
180.0
 51
270.0
 73
     1
 72
     1
 10
1.5
 20
27.5
 11
3.300000000001091
 21
27.5
 72
     2
 10
3.300000000001091
 20
28.0
 40
0.5
 50
270.0
 51
360.0
 73
     1
 72
     1
 10
3.800000000001091
 20
28.0
 11
3.800000000001091
 21
48.5
 72
     1
 10
3.800000000001091
 20
48.5
 11
1.5
 21
48.5
 72
     1
 10
1.5
 20
48.5
 11
1.5
 21
46.74999999999999
 72
     2
 10
1.25
 20
46.74999999999992
 40
0.2499999999999993
 50
359.9999999999837
 51
461.5369590328012
 73
     0
 72
     2
 10
1.500000000000057
 20
47.97474487139156
 40
1.500000000000056
 50
101.5369590328148
 51
179.9999999999984
 73
     0
 72
     1
 10
0.0
 20
47.97474487139152
 11
0.000000000001819
 21
49.25
 72
     1
 10
0.000000000001819
 20
49.25
 11
-0.374999999998181
 21
49.25
 72
     2
 10
-0.374999999998181
 20
49.625
 40
0.375
 50
90.0
 51
270.0
 73
     0
 72
     1
 10
-0.374999999998181
 20
50.0
 11
39.50000000000091
 21
50.0
 72
     2
 10
39.50000000000091
 20
49.5
 40
0.5
 50
270.0
 51
360.0
 73
     0
 72
     1
 10
40.00000000000091
 20
49.5
 11
40.00000000000091
 21
44.75
 72
     2
 10
40.2500000000009
 20
44.75
 40
0.25
 50
180.0
 51
270.0
 73
     1
 72
     1
 10
40.2500000000009
 20
44.5
 11
51.75000000000091
 21
44.5
 72
     2
 10
51.75000000000091
 20
44.24999999999999
 40
0.25
 50
270.0
 51
360.0
 73
     0
 72
     1
 10
52.00000000000091
 20
44.24999999999999
 11
52.00000000000091
 21
38.25
 72
     2
 10
51.75000000000091
 20
38.25
 40
0.25
 50
360.0
 51
450.0
 73
     0
 72
     1
 10
51.75000000000091
 20
38.0
 11
49.25000000000091
 21
38.0
 72
     2
 10
49.25000000000091
 20
37.75
 40
0.25
 50
90.0
 51
180.0
 73
     1
 72
     1
 10
49.0000000000009
 20
37.75
 11
49.0000000000009
 21
25.40000000000055
 72
     1
 10
49.0000000000009
 20
25.40000000000055
 11
48.60000000000127
 21
25.0
 72
     1
 10
48.60000000000127
 20
25.0
 11
49.0000000000009
 21
24.60000000000036
 72
     1
 10
49.0000000000009
 20
24.60000000000036
 11
49.0000000000009
 21
12.25
 72
     2
 10
49.25000000000091
 20
12.25
 40
0.25
 50
180.0
 51
270.0
 73
     1
 72
     1
 10
49.25000000000091
 20
12.0
 11
51.75000000000091
 21
12.0
 72
     2
 10
51.75000000000091
 20
11.75
 40
0.25
 50
270.0
 51
360.0
 73
     0
 72
     1
 10
52.00000000000091
 20
11.75
 11
52.00000000000091
 21
2.25
 72
     2
 10
52.25000000000091
 20
2.25
 40
0.25
 50
180.0
 51
270.0
 73
     1
 72
     1
 10
52.25000000000091
 20
2.0
 11
59.90000000000145
 21
2.0
 72
     1
 10
59.90000000000145
 20
2.0
 11
59.90000000000145
 21
7.25
 72
     2
 10
60.15000000000146
 20
7.25
 40
0.25
 50
180.0
 51
270.0
 73
     0
 72
     1
 10
60.15000000000146
 20
7.5
 11
61.95000000000073
 21
7.5
 72
     2
 10
61.95000000000073
 20
7.0
 40
0.5
 50
270.0
 51
450.0
 73
     0
 72
     1
 10
61.95000000000073
 20
6.5
 11
61.20000000000072
 21
6.5
 72
     1
 10
61.20000000000072
 20
6.5
 11
61.20000000000072
 21
5.0
 72
     1
 10
61.20000000000072
 20
5.0
 11
62.20000000000073
 21
5.0
 72
     2
 10
62.20000000000072
 20
4.750000000000013
 40
0.2499999999999867
 50
270.0000000000017
 51
387.7433891514559
 73
     0
 72
     1
 10
62.42126033866952
 20
4.633621898399411
 11
61.22873966133283
 21
2.366378101601185
 72
     2
 10
61.45000000000135
 20
2.250000000000001
 40
0.2500000000000023
 50
152.256610848395
 51
269.9999999998567
 73
     1
 72
     1
 10
61.45000000000073
 20
2.0
 11
66.45000000000073
 21
2.0
 72
     2
 10
66.45000000000073
 20
2.250000000000007
 40
0.2500000000000071
 50
270.0
 51
387.7433891514407
 73
     1
 72
     1
 10
66.67126033866958
 20
2.36637810160056
 11
65.47873966133284
 21
4.633621898399726
 72
     2
 10
65.70000000000156
 20
4.750000000000155
 40
0.2499999999998395
 50
152.2566108485709
 51
270.0000000000163
 73
     0
 72
     1
 10
65.70000000000163
 20
5.0
 11
66.70000000000072
 21
5.0
 72
     1
 10
66.70000000000072
 20
5.0
 11
66.70000000000072
 21
6.5
 72
     1
 10
66.70000000000072
 20
6.5
 11
65.95000000000073
 21
6.5
 72
     2
 10
65.95000000000073
 20
7.0
 40
0.5
 50
90.0
 51
270.0
 73
     0
 72
     1
 10
65.95000000000073
 20
7.5
 11
67.7500000000009
 21
7.5
 72
     2
 10
67.7500000000009
 20
7.25
 40
0.25
 50
270.0
 51
360.0
 73
     0
 72
     1
 10
68.00000000000091
 20
7.25
 11
68.00000000000091
 21
0.25
 72
     2
 10
67.7500000000009
 20
0.25
 40
0.25
 50
360.0
 51
450.0
 73
     0
 72
     1
 10
67.7500000000009
 20
0.0
 11
-0.374999999998181
 21
0.0
 72
     2
 10
-0.374999999998181
 20
0.375
 40
0.375
 50
90.0
 51
270.0
 73
     0
 72
     1
 10
-0.374999999998181
 20
0.75
 11
0.0
 21
0.75
 72
     1
 10
0.0
 20
0.75
 11
0.0
 21
2.025255128608463
 72
     2
 10
1.500000000000002
 20
2.025255128608398
 40
1.500000000000002
 50
180.0000000000025
 51
258.4630409671859
 73
     0
 72
     2
 10
1.250000000000019
 20
3.250000000000012
 40
0.2499999999999806
 50
258.4630409671881
 51
360.0000000000028
 73
     0
 97
        1
330
3E31
 92
       16
 93
       23
 72
     2
 10
49.50000000000091
 20
40.49999999999999
 40
0.5
 50
270.0
 51
360.0
 73
     1
 72
     1
 10
50.00000000000091
 20
40.49999999999999
 11
50.00000000000091
 21
41.5
 72
     2
 10
49.0000000000009
 20
41.5
 40
1.0
 50
0.0
 51
90.0
 73
     1
 72
     1
 10
49.0000000000009
 20
42.5
 11
39.00000000000091
 21
42.5
 72
     2
 10
39.00000000000091
 20
43.5
 40
1.0
 50
90.0
 51
180.0
 73
     0
 72
     1
 10
38.00000000000091
 20
43.5
 11
38.00000000000091
 21
46.5
 72
     2
 10
37.00000000000091
 20
46.5
 40
1.0
 50
0.0
 51
90.0
 73
     1
 72
     1
 10
37.00000000000091
 20
47.5
 11
6.800000000001091
 21
47.5
 72
     2
 10
6.800000000001091
 20
46.5
 40
1.0
 50
90.0
 51
180.0
 73
     1
 72
     1
 10
5.800000000001091
 20
46.5
 11
5.800000000001091
 21
26.0
 72
     1
 10
5.800000000001091
 20
26.0
 11
4.800000000000181
 21
25.0
 72
     1
 10
4.800000000000181
 20
25.0
 11
5.800000000001091
 21
24.0
 72
     1
 10
5.800000000001091
 20
24.0
 11
5.800000000001091
 21
3.5
 72
     2
 10
6.800000000001091
 20
3.5
 40
1.0
 50
180.0
 51
270.0
 73
     1
 72
     1
 10
6.800000000001091
 20
2.5
 11
49.0000000000009
 21
2.5
 72
     2
 10
49.0000000000009
 20
3.5
 40
1.0
 50
270.0
 51
360.0
 73
     1
 72
     1
 10
50.00000000000091
 20
3.5
 11
50.00000000000091
 21
9.5
 72
     2
 10
49.50000000000091
 20
9.5
 40
0.5
 50
0.0
 51
90.0
 73
     1
 72
     1
 10
49.50000000000091
 20
10.0
 11
49.25000000000091
 21
10.0
 72
     2
 10
49.25000000000091
 20
12.25
 40
2.25
 50
90.0
 51
180.0
 73
     0
 72
     1
 10
47.0000000000009
 20
12.25
 11
47.0000000000009
 21
37.75
 72
     2
 10
49.25000000000091
 20
37.75
 40
2.25
 50
180.0
 51
270.0
 73
     0
 72
     1
 10
49.25000000000091
 20
40.0
 11
49.50000000000091
 21
40.0
 97
        1
330
3E30
 75
     0
 76
     1
 98
        1
 10
0.0
 20
0.0
  0
ENDBLK
  5
2E6C
330
2E6A
100
AcDbEntity
  8
0
100
AcDbBlockEnd
  0
BLOCK
  5
2E71
330
2E70
100
AcDbEntity
  8
0
100
AcDbBlockBegin
  2
08006
 70
     0
 10
0.0
 20
0.0
 30
0.0
  3
08006
  1
08006.dwg
  0
LWPOLYLINE
  5
3E34
102
{ACAD_REACTORS
330
3E36
102
}
330
2E70
100
AcDbEntity
  8
APL Joinery
  6
ByBlock
100
AcDbPolyline
 90
       64
 70
     1
 43
0.0
 10
70.80000000000183
 20
-46.50505102572168
 42
0.4744978678080937
 10
70.50000000000181
 20
-46.74999999999999
 10
70.50000000000181
 20
-48.5
 10
68.20000000000073
 20
-48.5
 10
68.20000000000073
 20
-28.0
 42
-0.4142135623730951
 10
68.70000000000072
 20
-27.5
 10
70.50000000000181
 20
-27.5
 42
-0.4142135623730951
 10
71.00000000000182
 20
-28.0
 10
71.00000000000182
 20
-30.5
 42
0.9999999999999998
 10
72.00000000000182
 20
-30.5
 10
72.00000000000182
 20
-26.0
 10
71.00000000000182
 20
-25.0
 10
72.00000000000182
 20
-24.0
 10
72.00000000000182
 20
-19.5
 42
0.9999999999999998
 10
71.00000000000182
 20
-19.5
 10
71.00000000000182
 20
-22.0
 42
-0.4142135623730951
 10
70.50000000000181
 20
-22.5
 10
68.70000000000072
 20
-22.5
 42
-0.4142135623730951
 10
68.20000000000073
 20
-22.0
 10
68.20000000000073
 20
-1.5
 10
70.50000000000181
 20
-1.5
 10
70.50000000000181
 20
-3.25
 42
0.4744978678081637
 10
70.8000000000018
 20
-3.494948974278408
 42
0.3563939586926118
 10
72.00000000000182
 20
-2.025255128608478
 10
72.0
 20
-0.75
 10
72.375
 20
-0.75
 42
0.9999999999999998
 10
72.375
 20
0.0
 10
4.5
 20
0.0
 42
0.4142135623730951
 10
4.0
 20
-0.5
 10
4.0
 20
-3.0
 42
0.4142135623730951
 10
4.5
 20
-3.5
 10
6.050000000000181
 20
-3.5
 42
0.9999999999999998
 10
6.050000000000181
 20
-2.5
 10
5.300000000000181
 20
-2.5
 10
5.300000000000181
 20
-1.0
 10
10.80000000000018
 20
-1.0
 10
10.80000000000018
 20
-2.5
 10
10.05000000000018
 20
-2.5
 42
0.9999999999999998
 10
10.05000000000018
 20
-3.5
 10
11.60000000000036
 20
-3.5
 42
0.4142135623730951
 10
12.10000000000036
 20
-3.0
 10
12.10000000000036
 20
-2.0
 10
20.0
 20
-2.0
 10
20.00000000000006
 20
-12.25
 42
0.4142135623730951
 10
20.25000000000006
 20
-12.5
 10
30.00000000000091
 20
-12.5
 10
30.00000000000091
 20
-24.59999999999946
 10
30.40000000000055
 20
-25.0
 10
30.00000000000091
 20
-25.39999999999964
 10
30.00000000000091
 20
-38.5
 10
22.00000000000091
 20
-38.5
 10
22.00000000000085
 20
-38.25
 42
0.4142135623730951
 10
21.75000000000085
 20
-38.0
 10
20.25
 20
-38.0
 42
0.4142135623730951
 10
20.0
 20
-38.25
 10
20.0
 20
-40.25000000000003
 42
0.4142135623730951
 10
20.25
 20
-40.50000000000003
 10
32.00000000000091
 20
-40.49999999999999
 10
32.00000000000091
 20
-49.75
 42
0.4142135623730951
 10
32.25000000000091
 20
-50.0
 10
72.375
 20
-50.0
 42
0.9999999999999998
 10
72.375
 20
-49.25
 10
72.00000000000182
 20
-49.25
 10
72.00000000000182
 20
-47.97474487139152
 42
0.3563939586926042
  0
LWPOLYLINE
  5
3E35
102
{ACAD_REACTORS
330
3E36
102
}
330
2E70
100
AcDbEntity
  8
APL Joinery
  6
ByBlock
100
AcDbPolyline
 90
       16
 70
     1
 43
0.0
 10
65.20000000000073
 20
-2.5
 42
-0.4142135623730951
 10
66.20000000000072
 20
-3.5
 10
66.20000000000072
 20
-24.0
 10
67.20000000000254
 20
-25.0
 10
66.20000000000072
 20
-26.0
 10
66.20000000000072
 20
-46.5
 42
-0.4142135623730951
 10
65.20000000000073
 20
-47.5
 10
34.00000000000091
 20
-47.5
 10
34.00000000000091
 20
-38.75
 42
0.4142135623730951
 10
33.75000000000091
 20
-38.5
 10
32.00000000000091
 20
-38.5
 10
32.00000000000097
 20
-10.75
 42
0.4142135623730951
 10
31.75000000000097
 20
-10.5
 10
22.00000000000091
 20
-10.5
 10
22.00000000000091
 20
-3.5
 42
-0.4142135623730951
 10
23.00000000000091
 20
-2.5
  0
HATCH
  5
3E36
330
2E70
100
AcDbEntity
  8
APL Hatch
100
AcDbHatch
 10
0.0
 20
0.0
 30
0.0
210
0.0
220
0.0
230
1.0
  2
SOLID
 70
     1
 71
     1
 91
        2
 92
       16
 93
       16
 72
     2
 10
65.20000000000073
 20
-3.5
 40
1.0
 50
270.0
 51
360.0
 73
     0
 72
     1
 10
66.20000000000072
 20
-3.5
 11
66.20000000000072
 21
-24.0
 72
     1
 10
66.20000000000072
 20
-24.0
 11
67.20000000000254
 21
-25.0
 72
     1
 10
67.20000000000254
 20
-25.0
 11
66.20000000000072
 21
-26.0
 72
     1
 10
66.20000000000072
 20
-26.0
 11
66.20000000000072
 21
-46.5
 72
     2
 10
65.20000000000073
 20
-46.5
 40
1.0
 50
360.0
 51
450.0
 73
     0
 72
     1
 10
65.20000000000073
 20
-47.5
 11
34.00000000000091
 21
-47.5
 72
     1
 10
34.00000000000091
 20
-47.5
 11
34.00000000000091
 21
-38.75
 72
     2
 10
33.75000000000091
 20
-38.75
 40
0.25
 50
0.0
 51
90.0
 73
     1
 72
     1
 10
33.75000000000091
 20
-38.5
 11
32.00000000000091
 21
-38.5
 72
     1
 10
32.00000000000091
 20
-38.5
 11
32.00000000000097
 21
-10.75
 72
     2
 10
31.75000000000097
 20
-10.75
 40
0.25
 50
0.0
 51
90.0
 73
     1
 72
     1
 10
31.75000000000097
 20
-10.5
 11
22.00000000000091
 21
-10.5
 72
     1
 10
22.00000000000091
 20
-10.5
 11
22.00000000000091
 21
-3.5
 72
     2
 10
23.00000000000091
 20
-3.5
 40
1.0
 50
180.0
 51
270.0
 73
     0
 72
     1
 10
23.00000000000091
 20
-2.5
 11
65.20000000000073
 21
-2.5
 97
        1
330
3E35
 92
        1
 93
       64
 72
     2
 10
70.75000000000182
 20
-46.74999999999999
 40
0.2500000000000002
 50
78.46304096718187
 51
180.0
 73
     1
 72
     1
 10
70.50000000000181
 20
-46.74999999999999
 11
70.50000000000181
 21
-48.5
 72
     1
 10
70.50000000000181
 20
-48.5
 11
68.20000000000073
 21
-48.5
 72
     1
 10
68.20000000000073
 20
-48.5
 11
68.20000000000073
 21
-28.0
 72
     2
 10
68.70000000000072
 20
-28.0
 40
0.5
 50
180.0
 51
270.0
 73
     0
 72
     1
 10
68.70000000000072
 20
-27.5
 11
70.50000000000181
 21
-27.5
 72
     2
 10
70.50000000000181
 20
-28.0
 40
0.5
 50
270.0
 51
360.0
 73
     0
 72
     1
 10
71.00000000000182
 20
-28.0
 11
71.00000000000182
 21
-30.5
 72
     2
 10
71.50000000000182
 20
-30.5
 40
0.5
 50
180.0
 51
360.0
 73
     1
 72
     1
 10
72.00000000000182
 20
-30.5
 11
72.00000000000182
 21
-26.0
 72
     1
 10
72.00000000000182
 20
-26.0
 11
71.00000000000182
 21
-25.0
 72
     1
 10
71.00000000000182
 20
-25.0
 11
72.00000000000182
 21
-24.0
 72
     1
 10
72.00000000000182
 20
-24.0
 11
72.00000000000182
 21
-19.5
 72
     2
 10
71.50000000000182
 20
-19.5
 40
0.5
 50
0.0
 51
180.0
 73
     1
 72
     1
 10
71.00000000000182
 20
-19.5
 11
71.00000000000182
 21
-22.0
 72
     2
 10
70.50000000000181
 20
-22.0
 40
0.5
 50
360.0
 51
450.0
 73
     0
 72
     1
 10
70.50000000000181
 20
-22.5
 11
68.70000000000072
 21
-22.5
 72
     2
 10
68.70000000000072
 20
-22.0
 40
0.5
 50
90.0
 51
180.0
 73
     0
 72
     1
 10
68.20000000000073
 20
-22.0
 11
68.20000000000073
 21
-1.5
 72
     1
 10
68.20000000000073
 20
-1.5
 11
70.50000000000181
 21
-1.5
 72
     1
 10
70.50000000000181
 20
-1.5
 11
70.50000000000181
 21
-3.25
 72
     2
 10
70.75000000000182
 20
-3.250000000000086
 40
0.25
 50
179.9999999999802
 51
281.5369590328115
 73
     1
 72
     2
 10
70.50000000000183
 20
-2.025255128608509
 40
1.499999999999985
 50
281.5369590328144
 51
360.0000000000012
 73
     1
 72
     1
 10
72.00000000000182
 20
-2.025255128608478
 11
72.0
 21
-0.75
 72
     1
 10
72.0
 20
-0.75
 11
72.375
 21
-0.75
 72
     2
 10
72.375
 20
-0.375
 40
0.375
 50
270.0
 51
450.0
 73
     1
 72
     1
 10
72.375
 20
0.0
 11
4.5
 21
0.0
 72
     2
 10
4.5
 20
-0.5
 40
0.5
 50
90.0
 51
180.0
 73
     1
 72
     1
 10
4.0
 20
-0.5
 11
4.0
 21
-3.0
 72
     2
 10
4.5
 20
-3.0
 40
0.5
 50
180.0
 51
270.0
 73
     1
 72
     1
 10
4.5
 20
-3.5
 11
6.050000000000181
 21
-3.5
 72
     2
 10
6.050000000000181
 20
-3.0
 40
0.5
 50
270.0
 51
450.0
 73
     1
 72
     1
 10
6.050000000000181
 20
-2.5
 11
5.300000000000181
 21
-2.5
 72
     1
 10
5.300000000000181
 20
-2.5
 11
5.300000000000181
 21
-1.0
 72
     1
 10
5.300000000000181
 20
-1.0
 11
10.80000000000018
 21
-1.0
 72
     1
 10
10.80000000000018
 20
-1.0
 11
10.80000000000018
 21
-2.5
 72
     1
 10
10.80000000000018
 20
-2.5
 11
10.05000000000018
 21
-2.5
 72
     2
 10
10.05000000000018
 20
-3.0
 40
0.5
 50
90.0
 51
270.0
 73
     1
 72
     1
 10
10.05000000000018
 20
-3.5
 11
11.60000000000036
 21
-3.5
 72
     2
 10
11.60000000000036
 20
-3.0
 40
0.5
 50
270.0
 51
360.0
 73
     1
 72
     1
 10
12.10000000000036
 20
-3.0
 11
12.10000000000036
 21
-2.0
 72
     1
 10
12.10000000000036
 20
-2.0
 11
20.0
 21
-2.0
 72
     1
 10
20.0
 20
-2.0
 11
20.00000000000006
 21
-12.25
 72
     2
 10
20.25000000000006
 20
-12.25
 40
0.25
 50
180.0
 51
270.0
 73
     1
 72
     1
 10
20.25000000000006
 20
-12.5
 11
30.00000000000091
 21
-12.5
 72
     1
 10
30.00000000000091
 20
-12.5
 11
30.00000000000091
 21
-24.59999999999946
 72
     1
 10
30.00000000000091
 20
-24.59999999999946
 11
30.40000000000055
 21
-25.0
 72
     1
 10
30.40000000000055
 20
-25.0
 11
30.00000000000091
 21
-25.39999999999964
 72
     1
 10
30.00000000000091
 20
-25.39999999999964
 11
30.00000000000091
 21
-38.5
 72
     1
 10
30.00000000000091
 20
-38.5
 11
22.00000000000091
 21
-38.5
 72
     1
 10
22.00000000000091
 20
-38.5
 11
22.00000000000085
 21
-38.25
 72
     2
 10
21.75000000000085
 20
-38.25
 40
0.25
 50
0.0
 51
90.0
 73
     1
 72
     1
 10
21.75000000000085
 20
-38.0
 11
20.25
 21
-38.0
 72
     2
 10
20.25
 20
-38.25
 40
0.25
 50
90.0
 51
180.0
 73
     1
 72
     1
 10
20.0
 20
-38.25
 11
20.0
 21
-40.25000000000003
 72
     2
 10
20.25
 20
-40.25000000000003
 40
0.25
 50
180.0
 51
270.0
 73
     1
 72
     1
 10
20.25
 20
-40.50000000000003
 11
32.00000000000091
 21
-40.49999999999999
 72
     1
 10
32.00000000000091
 20
-40.49999999999999
 11
32.00000000000091
 21
-49.75
 72
     2
 10
32.25000000000091
 20
-49.75
 40
0.25
 50
180.0
 51
270.0
 73
     1
 72
     1
 10
32.25000000000091
 20
-50.0
 11
72.375
 21
-50.0
 72
     2
 10
72.375
 20
-49.625
 40
0.375
 50
270.0
 51
450.0
 73
     1
 72
     1
 10
72.375
 20
-49.25
 11
72.00000000000182
 21
-49.25
 72
     1
 10
72.00000000000182
 20
-49.25
 11
72.00000000000182
 21
-47.97474487139152
 72
     2
 10
70.50000000000188
 20
-47.97474487139154
 40
1.499999999999943
 50
0.0000000000005428
 51
78.46304096718579
 73
     1
 97
        1
330
3E34
 75
     0
 76
     1
 98
        1
 10
0.0
 20
0.0
  0
ENDBLK
  5
2E72
330
2E70
100
AcDbEntity
  8
0
100
AcDbBlockEnd
  0
BLOCK
  5
2E82
330
2E81
100
AcDbEntity
  8
0
100
AcDbBlockBegin
  2
08015
 70
     0
 10
0.0
 20
0.0
 30
0.0
  3
08015
  1
08015.dwg
  0
LWPOLYLINE
  5
3E38
102
{ACAD_REACTORS
330
3E3A
102
}
330
2E81
100
AcDbEntity
  8
APL Joinery
  6
Continuous
370
    50
100
AcDbPolyline
 90
       23
 70
   129
 43
0.0
 10
90.25
 20
10.0
 42
-0.4142135623730951
 10
88.0
 20
12.25
 10
88.0
 20
37.75
 42
-0.4142135623730951
 10
90.25
 20
40.0
 10
90.5
 20
40.0
 42
0.4142135623730951
 10
91.0
 20
40.49999999999999
 10
91.0
 20
41.5
 42
0.4142135623730951
 10
90.0
 20
42.5
 10
80.0
 20
42.5
 42
-0.4142135623730951
 10
79.0
 20
43.5
 10
79.0
 20
46.5
 42
0.4142135623730951
 10
78.0
 20
47.5
 10
6.799999999999272
 20
47.50000000000002
 42
0.4142135623730951
 10
5.799999999999272
 20
46.50000000000003
 10
5.799999999999272
 20
26.0
 10
4.799999999999272
 20
25.0
 10
5.799999999999272
 20
24.0
 10
5.799999999999272
 20
3.5
 42
0.4142135623730951
 10
6.799999999999272
 20
2.5
 10
90.0
 20
2.5
 42
0.4142135623730951
 10
91.0
 20
3.5
 10
91.0
 20
9.5
 42
0.4142135623730951
 10
90.5
 20
10.0
  0
LWPOLYLINE
  5
3E39
102
{ACAD_REACTORS
330
3E3A
102
}
330
2E81
100
AcDbEntity
  8
APL Joinery
  6
Continuous
370
    50
100
AcDbPolyline
 90
       71
 70
   129
 43
0.0
 10
102.2287396613319
 20
2.366378101601185
 42
0.5642956302653635
 10
102.4500000000003
 20
2.0
 10
107.4500000000002
 20
2.0
 42
0.5642956302652885
 10
107.671260338669
 20
2.366378101600616
 10
106.4787396613319
 20
4.633621898399724
 42
-0.5642956302653213
 10
106.7000000000007
 20
5.0
 10
107.7000000000003
 20
5.0
 10
107.7000000000003
 20
6.5
 10
106.9500000000003
 20
6.5
 42
-0.9999999999999998
 10
106.9500000000003
 20
7.5
 10
108.75
 20
7.5
 42
-0.4142135623730951
 10
109.0
 20
7.25
 10
109.0
 20
0.25
 42
-0.4142135623730961
 10
108.75
 20
0.0
 10
-0.3749999999990905
 20
0.0
 42
-0.9999999999999998
 10
-0.3749999999990905
 20
0.75
 10
0.0
 20
0.75
 10
0.0
 20
2.025255128608478
 42
-0.3563939586926047
 10
1.199999999999988
 20
3.494948974278372
 42
-0.4744978678080767
 10
1.5
 20
3.25
 10
1.5
 20
1.5
 10
3.799999999999272
 20
1.5
 10
3.799999999999272
 20
22.0
 42
0.4142135623730951
 10
3.299999999999272
 20
22.5
 10
1.5
 20
22.5
 42
0.4142135623730951
 10
1.0
 20
22.0
 10
1.0
 20
19.5
 42
-0.9999999999999998
 10
0.0
 20
19.5
 10
0.0
 20
24.0
 10
1.0
 20
25.0
 10
0.0
 20
26.0
 10
0.0
 20
30.5
 42
-0.9999999999999998
 10
1.0
 20
30.5
 10
1.0
 20
28.0
 42
0.4142135623730951
 10
1.5
 20
27.5
 10
3.299999999999272
 20
27.5
 42
0.4142135623730951
 10
3.799999999999272
 20
28.0
 10
3.799999999999272
 20
48.50000000000003
 10
1.5
 20
48.50000000000003
 10
1.5
 20
46.75000000000003
 42
-0.4744978678080884
 10
1.200000000000017
 20
46.50505102572165
 42
-0.3563939586926018
 10
0.0
 20
47.97474487139155
 10
0.0000000000009095
 20
49.25000000000003
 10
-0.3749999999990905
 20
49.25000000000003
 42
-0.9999999999999998
 10
-0.3749999999990905
 20
50.00000000000003
 10
80.75000000000001
 20
50.0
 42
-0.4142135623730951
 10
81.0
 20
49.75
 10
81.0
 20
44.5
 10
92.75
 20
44.5
 42
-0.4142135623730951
 10
93.0
 20
44.24999999999999
 10
93.0
 20
38.25
 42
-0.4142135623730951
 10
92.75
 20
38.0
 10
90.25
 20
38.0
 42
0.4142135623730951
 10
90.0
 20
37.75
 10
90.0
 20
25.40000000000055
 10
89.60000000000036
 20
25.0
 10
90.0
 20
24.60000000000036
 10
90.0
 20
12.25
 42
0.4142135623730951
 10
90.25
 20
12.0
 10
92.75
 20
12.0
 42
-0.4142135623730951
 10
93.0
 20
11.75
 10
93.0
 20
2.0
 10
100.8999999999996
 20
2.0
 10
100.9000000000005
 20
7.25
 42
-0.4142135623730466
 10
101.1500000000005
 20
7.5
 10
102.9500000000002
 20
7.5
 42
-0.9999999999999998
 10
102.9500000000002
 20
6.5
 10
102.2000000000002
 20
6.5
 10
102.2000000000002
 20
5.0
 10
103.2000000000002
 20
5.0
 42
-0.5642956302653767
 10
103.421260338669
 20
4.633621898399383
  0
HATCH
  5
3E3A
330
2E81
100
AcDbEntity
  8
APL Hatch
100
AcDbHatch
 10
0.0
 20
0.0
 30
0.0
210
0.0
220
0.0
230
1.0
  2
SOLID
 70
     1
 71
     1
 91
        2
 92
        1
 93
       71
 72
     2
 10
102.4500000000007
 20
2.250000000000156
 40
0.2500000000001568
 50
152.2566108484536
 51
269.9999999999023
 73
     1
 72
     1
 10
102.4500000000003
 20
2.0
 11
107.4500000000002
 21
2.0
 72
     2
 10
107.4500000000002
 20
2.250000000000026
 40
0.2500000000000266
 50
270.000000000013
 51
387.7433891514483
 73
     1
 72
     1
 10
107.671260338669
 20
2.366378101600616
 11
106.4787396613319
 21
4.633621898399724
 72
     2
 10
106.7000000000007
 20
4.75000000000015
 40
0.2499999999998513
 50
152.2566108485728
 51
270.000000000013
 73
     0
 72
     1
 10
106.7000000000007
 20
5.0
 11
107.7000000000003
 21
5.0
 72
     1
 10
107.7000000000003
 20
5.0
 11
107.7000000000003
 21
6.5
 72
     1
 10
107.7000000000003
 20
6.5
 11
106.9500000000003
 21
6.5
 72
     2
 10
106.9500000000003
 20
7.0
 40
0.5
 50
90.0
 51
270.0
 73
     0
 72
     1
 10
106.9500000000003
 20
7.5
 11
108.75
 21
7.5
 72
     2
 10
108.75
 20
7.25
 40
0.25
 50
270.0
 51
360.0
 73
     0
 72
     1
 10
109.0
 20
7.25
 11
109.0
 21
0.25
 72
     2
 10
108.75
 20
0.2499999999999996
 40
0.25
 50
359.9999999999999
 51
450.0
 73
     0
 72
     1
 10
108.75
 20
0.0
 11
-0.3749999999990905
 21
0.0
 72
     2
 10
-0.3749999999990905
 20
0.375
 40
0.375
 50
90.0
 51
270.0
 73
     0
 72
     1
 10
-0.3749999999990905
 20
0.75
 11
0.0
 21
0.75
 72
     1
 10
0.0
 20
0.75
 11
0.0
 21
2.025255128608478
 72
     2
 10
1.499999999999973
 20
2.025255128608489
 40
1.499999999999973
 50
179.9999999999996
 51
258.4630409671849
 73
     0
 72
     2
 10
1.24999999999997
 20
3.250000000000021
 40
0.2500000000000293
 50
258.46304096719
 51
360.0000000000049
 73
     0
 72
     1
 10
1.5
 20
3.25
 11
1.5
 21
1.5
 72
     1
 10
1.5
 20
1.5
 11
3.799999999999272
 21
1.5
 72
     1
 10
3.799999999999272
 20
1.5
 11
3.799999999999272
 21
22.0
 72
     2
 10
3.299999999999272
 20
22.0
 40
0.5
 50
0.0
 51
90.0
 73
     1
 72
     1
 10
3.299999999999272
 20
22.5
 11
1.5
 21
22.5
 72
     2
 10
1.5
 20
22.0
 40
0.5
 50
90.0
 51
180.0
 73
     1
 72
     1
 10
1.0
 20
22.0
 11
1.0
 21
19.5
 72
     2
 10
0.5
 20
19.5
 40
0.5
 50
360.0
 51
540.0
 73
     0
 72
     1
 10
0.0
 20
19.5
 11
0.0
 21
24.0
 72
     1
 10
0.0
 20
24.0
 11
1.0
 21
25.0
 72
     1
 10
1.0
 20
25.0
 11
0.0
 21
26.0
 72
     1
 10
0.0
 20
26.0
 11
0.0
 21
30.5
 72
     2
 10
0.5
 20
30.5
 40
0.5
 50
180.0
 51
360.0
 73
     0
 72
     1
 10
1.0
 20
30.5
 11
1.0
 21
28.0
 72
     2
 10
1.5
 20
28.0
 40
0.5
 50
180.0
 51
270.0
 73
     1
 72
     1
 10
1.5
 20
27.5
 11
3.299999999999272
 21
27.5
 72
     2
 10
3.299999999999272
 20
28.0
 40
0.5
 50
270.0
 51
360.0
 73
     1
 72
     1
 10
3.799999999999272
 20
28.0
 11
3.799999999999272
 21
48.50000000000003
 72
     1
 10
3.799999999999272
 20
48.50000000000003
 11
1.5
 21
48.50000000000003
 72
     1
 10
1.5
 20
48.50000000000003
 11
1.5
 21
46.75000000000003
 72
     2
 10
1.249999999999989
 20
46.74999999999998
 40
0.2500000000000109
 50
359.9999999999902
 51
461.5369590328087
 73
     0
 72
     2
 10
1.499999999999996
 20
47.97474487139156
 40
1.499999999999997
 50
101.5369590328147
 51
179.9999999999994
 73
     0
 72
     1
 10
0.0
 20
47.97474487139155
 11
0.0000000000009095
 21
49.25000000000003
 72
     1
 10
0.0000000000009095
 20
49.25000000000003
 11
-0.3749999999990905
 21
49.25000000000003
 72
     2
 10
-0.3749999999990905
 20
49.62500000000003
 40
0.375
 50
90.0
 51
270.0
 73
     0
 72
     1
 10
-0.3749999999990905
 20
50.00000000000003
 11
80.75000000000001
 21
50.0
 72
     2
 10
80.75000000000001
 20
49.75
 40
0.25
 50
270.0
 51
360.0
 73
     0
 72
     1
 10
81.0
 20
49.75
 11
81.0
 21
44.5
 72
     1
 10
81.0
 20
44.5
 11
92.75
 21
44.5
 72
     2
 10
92.75
 20
44.24999999999999
 40
0.25
 50
270.0
 51
360.0
 73
     0
 72
     1
 10
93.0
 20
44.24999999999999
 11
93.0
 21
38.25
 72
     2
 10
92.75
 20
38.25
 40
0.25
 50
360.0
 51
450.0
 73
     0
 72
     1
 10
92.75
 20
38.0
 11
90.25
 21
38.0
 72
     2
 10
90.25
 20
37.75
 40
0.25
 50
90.0
 51
180.0
 73
     1
 72
     1
 10
90.0
 20
37.75
 11
90.0
 21
25.40000000000055
 72
     1
 10
90.0
 20
25.40000000000055
 11
89.60000000000036
 21
25.0
 72
     1
 10
89.60000000000036
 20
25.0
 11
90.0
 21
24.60000000000036
 72
     1
 10
90.0
 20
24.60000000000036
 11
90.0
 21
12.25
 72
     2
 10
90.25
 20
12.25
 40
0.25
 50
180.0
 51
270.0
 73
     1
 72
     1
 10
90.25
 20
12.0
 11
92.75
 21
12.0
 72
     2
 10
92.75
 20
11.75
 40
0.25
 50
270.0
 51
360.0
 73
     0
 72
     1
 10
93.0
 20
11.75
 11
93.0
 21
2.0
 72
     1
 10
93.0
 20
2.0
 11
100.8999999999996
 21
2.0
 72
     1
 10
100.8999999999996
 20
2.0
 11
100.9000000000005
 21
7.25
 72
     2
 10
101.1500000000005
 20
7.249999999999978
 40
0.2500000000000142
 50
180.0000000000049
 51
269.9999999999968
 73
     0
 72
     1
 10
101.1500000000005
 20
7.5
 11
102.9500000000002
 21
7.5
 72
     2
 10
102.9500000000002
 20
7.0
 40
0.5
 50
270.0
 51
450.0
 73
     0
 72
     1
 10
102.9500000000002
 20
6.5
 11
102.2000000000002
 21
6.5
 72
     1
 10
102.2000000000002
 20
6.5
 11
102.2000000000002
 21
5.0
 72
     1
 10
102.2000000000002
 20
5.0
 11
103.2000000000002
 21
5.0
 72
     2
 10
103.2000000000002
 20
4.749999999999992
 40
0.2500000000000071
 50
270.0000000000065
 51
387.7433891514552
 73
     0
 72
     1
 10
103.421260338669
 20
4.633621898399383
 11
102.2287396613319
 21
2.366378101601185
 97
        1
330
3E39
 92
       16
 93
       23
 72
     2
 10
90.25
 20
12.25
 40
2.25
 50
90.0
 51
180.0
 73
     0
 72
     1
 10
88.0
 20
12.25
 11
88.0
 21
37.75
 72
     2
 10
90.25
 20
37.75
 40
2.25
 50
180.0
 51
270.0
 73
     0
 72
     1
 10
90.25
 20
40.0
 11
90.5
 21
40.0
 72
     2
 10
90.5
 20
40.49999999999999
 40
0.5
 50
270.0
 51
360.0
 73
     1
 72
     1
 10
91.0
 20
40.49999999999999
 11
91.0
 21
41.5
 72
     2
 10
90.0
 20
41.5
 40
1.0
 50
0.0
 51
90.0
 73
     1
 72
     1
 10
90.0
 20
42.5
 11
80.0
 21
42.5
 72
     2
 10
80.0
 20
43.5
 40
1.0
 50
90.0
 51
180.0
 73
     0
 72
     1
 10
79.0
 20
43.5
 11
79.0
 21
46.5
 72
     2
 10
78.0
 20
46.5
 40
1.0
 50
0.0
 51
90.0
 73
     1
 72
     1
 10
78.0
 20
47.5
 11
6.799999999999272
 21
47.50000000000002
 72
     2
 10
6.799999999999272
 20
46.50000000000003
 40
1.0
 50
90.0
 51
180.0
 73
     1
 72
     1
 10
5.799999999999272
 20
46.50000000000003
 11
5.799999999999272
 21
26.0
 72
     1
 10
5.799999999999272
 20
26.0
 11
4.799999999999272
 21
25.0
 72
     1
 10
4.799999999999272
 20
25.0
 11
5.799999999999272
 21
24.0
 72
     1
 10
5.799999999999272
 20
24.0
 11
5.799999999999272
 21
3.5
 72
     2
 10
6.799999999999272
 20
3.5
 40
1.0
 50
180.0
 51
270.0
 73
     1
 72
     1
 10
6.799999999999272
 20
2.5
 11
90.0
 21
2.5
 72
     2
 10
90.0
 20
3.5
 40
1.0
 50
270.0
 51
360.0
 73
     1
 72
     1
 10
91.0
 20
3.5
 11
91.0
 21
9.5
 72
     2
 10
90.5
 20
9.5
 40
0.5
 50
0.0
 51
90.0
 73
     1
 72
     1
 10
90.5
 20
10.0
 11
90.25
 21
10.0
 97
        1
330
3E38
 75
     0
 76
     1
 98
        1
 10
0.0
 20
0.0
  0
ENDBLK
  5
2E83
330
2E81
100
AcDbEntity
  8
0
100
AcDbBlockEnd
  0
BLOCK
  5
2E88
330
2E87
100
AcDbEntity
  8
0
100
AcDbBlockBegin
  2
08016
 70
     0
 10
0.0
 20
0.0
 30
0.0
  3
08016
  1
08016.dwg
  0
LWPOLYLINE
  5
3E3C
102
{ACAD_REACTORS
330
3E3E
102
}
330
2E87
100
AcDbEntity
  8
APL Joinery
  6
Continuous
100
AcDbPolyline
 90
       64
 70
     1
 43
0.0
 10
111.7999999999995
 20
-3.494948974278371
 42
0.3563939586926036
 10
112.9999999999995
 20
-2.025255128608478
 10
112.9999999999977
 20
-0.75
 10
113.3749999999977
 20
-0.75
 42
0.9999999999999998
 10
113.3749999999977
 20
0.0
 10
4.25
 20
0.0000000000000142
 42
0.4142135623730951
 10
4.0
 20
-0.25
 10
4.0
 20
-3.249999999999985
 42
0.4142135623730951
 10
4.25
 20
-3.5
 10
6.049999999999272
 20
-3.499999999999985
 42
0.9999999999999998
 10
6.049999999999272
 20
-2.5
 10
5.299999999999272
 20
-2.5
 10
5.299999999999272
 20
-1.0
 10
10.79999999999927
 20
-1.0
 10
10.79999999999927
 20
-2.5
 10
10.04999999999927
 20
-2.499999999999985
 42
0.9999999999999998
 10
10.04999999999927
 20
-3.5
 10
11.85000000000036
 20
-3.499999999999985
 42
0.4142135623730951
 10
12.10000000000036
 20
-3.25
 10
12.10000000000036
 20
-2.0
 10
20.0
 20
-2.0
 10
20.0
 20
-12.24999999999998
 42
0.4142135623730951
 10
20.25
 20
-12.5
 10
30.0
 20
-12.5
 10
30.0
 20
-24.60000000000036
 10
30.39999999999964
 20
-25.0
 10
30.0
 20
-25.39999999999964
 10
30.0
 20
-38.5
 10
22.0
 20
-38.5
 10
22.0
 20
-38.24999999999999
 42
0.4142135623730951
 10
21.75
 20
-38.0
 10
20.25
 20
-37.99999999999999
 42
0.4142135623730951
 10
20.0
 20
-38.25
 10
20.0
 20
-40.24999999999998
 42
0.4142135623730951
 10
20.25
 20
-40.49999999999999
 10
32.0
 20
-40.49999999999999
 10
32.0
 20
-49.74999999999998
 42
0.4142135623730951
 10
32.25
 20
-50.0
 10
113.3749999999977
 20
-50.0
 42
0.9999999999999998
 10
113.3749999999977
 20
-49.25
 10
112.9999999999995
 20
-49.25
 10
112.9999999999995
 20
-47.97474487139149
 42
0.3563939586925894
 10
111.7999999999995
 20
-46.50505102572168
 42
0.4744978678080178
 10
111.4999999999995
 20
-46.74999999999999
 10
111.4999999999995
 20
-48.5
 10
109.1999999999993
 20
-48.5
 10
109.1999999999993
 20
-28.0
 42
-0.4142135623730951
 10
109.6999999999993
 20
-27.5
 10
111.4999999999995
 20
-27.5
 42
-0.4142135623730951
 10
111.9999999999995
 20
-28.0
 10
111.9999999999995
 20
-30.5
 42
0.9999999999999998
 10
112.9999999999995
 20
-30.5
 10
112.9999999999995
 20
-26.0
 10
111.999999999999
 20
-25.0
 10
112.9999999999995
 20
-24.0
 10
112.9999999999995
 20
-19.5
 42
0.9999999999999998
 10
111.9999999999995
 20
-19.5
 10
111.9999999999995
 20
-22.0
 42
-0.4142135623730951
 10
111.4999999999995
 20
-22.5
 10
109.6999999999993
 20
-22.5
 42
-0.4142135623730951
 10
109.1999999999993
 20
-22.0
 10
109.1999999999994
 20
-1.5
 10
111.4999999999995
 20
-1.5
 10
111.4999999999995
 20
-3.25
 42
0.4744978678080967
  0
LWPOLYLINE
  5
3E3D
102
{ACAD_REACTORS
330
3E3E
102
}
330
2E87
100
AcDbEntity
  8
APL Joinery
  6
Continuous
100
AcDbPolyline
 90
       18
 70
     1
 43
0.0
 10
106.1999999999994
 20
-2.5
 42
-0.4142135623730919
 10
107.1999999999994
 20
-3.5
 10
107.1999999999993
 20
-24.0
 10
108.1999999999998
 20
-25.0
 10
107.1999999999993
 20
-26.0
 10
107.1999999999993
 20
-46.5
 42
-0.4142135623730909
 10
106.1999999999993
 20
-47.5
 10
35.00000000000003
 20
-47.49999999999999
 42
-0.4142135623730951
 10
34.00000000000003
 20
-46.5
 10
34.0
 20
-39.49999999999999
 42
0.4142135623730951
 10
33.0
 20
-38.5
 10
32.0
 20
-38.5
 10
32.00000000000003
 20
-11.49999999999998
 42
0.4142135623730868
 10
31.00000000000003
 20
-10.49999999999994
 10
23.0
 20
-10.49999999999998
 42
-0.4142135623730951
 10
22.0
 20
-9.5
 10
22.0
 20
-3.499999999999985
 42
-0.4142135623730951
 10
23.0
 20
-2.5
  0
HATCH
  5
3E3E
330
2E87
100
AcDbEntity
  8
APL Hatch
100
AcDbHatch
 10
0.0
 20
0.0
 30
0.0
210
0.0
220
0.0
230
1.0
  2
SOLID
 70
     1
 71
     1
 91
        2
 92
       16
 93
       18
 72
     2
 10
106.1999999999994
 20
-3.500000000000012
 40
1.000000000000012
 50
270.0
 51
359.9999999999992
 73
     0
 72
     1
 10
107.1999999999994
 20
-3.5
 11
107.1999999999993
 21
-24.0
 72
     1
 10
107.1999999999993
 20
-24.0
 11
108.1999999999998
 21
-25.0
 72
     1
 10
108.1999999999998
 20
-25.0
 11
107.1999999999993
 21
-26.0
 72
     1
 10
107.1999999999993
 20
-26.0
 11
107.1999999999993
 21
-46.5
 72
     2
 10
106.1999999999993
 20
-46.5
 40
1.0
 50
360.0
 51
449.9999999999992
 73
     0
 72
     1
 10
106.1999999999993
 20
-47.5
 11
35.00000000000003
 21
-47.49999999999999
 72
     2
 10
35.00000000000002
 20
-46.49999999999999
 40
0.9999999999999928
 50
89.99999999999959
 51
179.9999999999996
 73
     0
 72
     1
 10
34.00000000000003
 20
-46.5
 11
34.0
 21
-39.49999999999999
 72
     2
 10
33.00000000000001
 20
-39.49999999999999
 40
0.9999999999999928
 50
0.0000000000004071
 51
90.0000000000004
 73
     1
 72
     1
 10
33.0
 20
-38.5
 11
32.0
 21
-38.5
 72
     1
 10
32.0
 20
-38.5
 11
32.00000000000003
 21
-11.49999999999998
 72
     2
 10
31.0
 20
-11.49999999999998
 40
1.000000000000035
 50
359.9999999999996
 51
449.9999999999979
 73
     1
 72
     1
 10
31.00000000000003
 20
-10.49999999999994
 11
23.0
 21
-10.49999999999998
 72
     2
 10
22.99999999999999
 20
-9.499999999999992
 40
0.9999999999999928
 50
89.99999999999959
 51
179.9999999999996
 73
     0
 72
     1
 10
22.0
 20
-9.5
 11
22.0
 21
-3.499999999999985
 72
     2
 10
22.99999999999999
 20
-3.499999999999992
 40
0.9999999999999928
 50
180.0000000000004
 51
270.0000000000004
 73
     0
 72
     1
 10
23.0
 20
-2.5
 11
106.1999999999994
 21
-2.5
 97
        1
330
3E3D
 92
        1
 93
       64
 72
     2
 10
111.4999999999995
 20
-2.02525512860846
 40
1.499999999999998
 50
281.5369590328142
 51
359.9999999999993
 73
     1
 72
     1
 10
112.9999999999995
 20
-2.025255128608478
 11
112.9999999999977
 21
-0.75
 72
     1
 10
112.9999999999977
 20
-0.75
 11
113.3749999999977
 21
-0.75
 72
     2
 10
113.3749999999977
 20
-0.375
 40
0.375
 50
270.0
 51
450.0
 73
     1
 72
     1
 10
113.3749999999977
 20
0.0
 11
4.25
 21
0.0000000000000142
 72
     2
 10
4.250000000000007
 20
-0.2499999999999929
 40
0.2500000000000071
 50
90.00000000000161
 51
180.0000000000016
 73
     1
 72
     1
 10
4.0
 20
-0.25
 11
4.0
 21
-3.249999999999985
 72
     2
 10
4.250000000000007
 20
-3.249999999999992
 40
0.2500000000000071
 50
179.9999999999984
 51
269.9999999999984
 73
     1
 72
     1
 10
4.25
 20
-3.5
 11
6.049999999999272
 21
-3.499999999999985
 72
     2
 10
6.049999999999272
 20
-2.999999999999992
 40
0.4999999999999929
 50
270.0
 51
450.0
 73
     1
 72
     1
 10
6.049999999999272
 20
-2.5
 11
5.299999999999272
 21
-2.5
 72
     1
 10
5.299999999999272
 20
-2.5
 11
5.299999999999272
 21
-1.0
 72
     1
 10
5.299999999999272
 20
-1.0
 11
10.79999999999927
 21
-1.0
 72
     1
 10
10.79999999999927
 20
-1.0
 11
10.79999999999927
 21
-2.5
 72
     1
 10
10.79999999999927
 20
-2.5
 11
10.04999999999927
 21
-2.499999999999985
 72
     2
 10
10.04999999999927
 20
-2.999999999999992
 40
0.5000000000000071
 50
90.0
 51
270.0
 73
     1
 72
     1
 10
10.04999999999927
 20
-3.5
 11
11.85000000000036
 21
-3.499999999999985
 72
     2
 10
11.85000000000037
 20
-3.249999999999992
 40
0.2499999999999929
 50
269.9999999999984
 51
359.9999999999984
 73
     1
 72
     1
 10
12.10000000000036
 20
-3.25
 11
12.10000000000036
 21
-2.0
 72
     1
 10
12.10000000000036
 20
-2.0
 11
20.0
 21
-2.0
 72
     1
 10
20.0
 20
-2.0
 11
20.0
 21
-12.24999999999998
 72
     2
 10
20.25000000000001
 20
-12.24999999999999
 40
0.2500000000000071
 50
179.9999999999984
 51
269.9999999999984
 73
     1
 72
     1
 10
20.25
 20
-12.5
 11
30.0
 21
-12.5
 72
     1
 10
30.0
 20
-12.5
 11
30.0
 21
-24.60000000000036
 72
     1
 10
30.0
 20
-24.60000000000036
 11
30.39999999999964
 21
-25.0
 72
     1
 10
30.39999999999964
 20
-25.0
 11
30.0
 21
-25.39999999999964
 72
     1
 10
30.0
 20
-25.39999999999964
 11
30.0
 21
-38.5
 72
     1
 10
30.0
 20
-38.5
 11
22.0
 21
-38.5
 72
     1
 10
22.0
 20
-38.5
 11
22.0
 21
-38.24999999999999
 72
     2
 10
21.75000000000001
 20
-38.24999999999999
 40
0.2499999999999929
 50
0.0000000000016284
 51
90.00000000000161
 73
     1
 72
     1
 10
21.75
 20
-38.0
 11
20.25
 21
-37.99999999999999
 72
     2
 10
20.25000000000001
 20
-38.24999999999999
 40
0.2500000000000071
 50
90.00000000000161
 51
180.0000000000016
 73
     1
 72
     1
 10
20.0
 20
-38.25
 11
20.0
 21
-40.24999999999998
 72
     2
 10
20.25000000000001
 20
-40.24999999999999
 40
0.2500000000000071
 50
179.9999999999984
 51
269.9999999999984
 73
     1
 72
     1
 10
20.25
 20
-40.49999999999999
 11
32.0
 21
-40.49999999999999
 72
     1
 10
32.0
 20
-40.49999999999999
 11
32.0
 21
-49.74999999999998
 72
     2
 10
32.25000000000001
 20
-49.74999999999999
 40
0.2500000000000071
 50
179.9999999999984
 51
269.9999999999984
 73
     1
 72
     1
 10
32.25
 20
-50.0
 11
113.3749999999977
 21
-50.0
 72
     2
 10
113.3749999999977
 20
-49.625
 40
0.375
 50
270.0
 51
450.0
 73
     1
 72
     1
 10
113.3749999999977
 20
-49.25
 11
112.9999999999995
 21
-49.25
 72
     1
 10
112.9999999999995
 20
-49.25
 11
112.9999999999995
 21
-47.97474487139149
 72
     2
 10
111.4999999999995
 20
-47.97474487139156
 40
1.499999999999971
 50
0.0000000000027141
 51
78.46304096718495
 73
     1
 72
     2
 10
111.7499999999995
 20
-46.75000000000003
 40
0.2500000000000224
 50
78.46304096718956
 51
179.9999999999935
 73
     1
 72
     1
 10
111.4999999999995
 20
-46.74999999999999
 11
111.4999999999995
 21
-48.5
 72
     1
 10
111.4999999999995
 20
-48.5
 11
109.1999999999993
 21
-48.5
 72
     1
 10
109.1999999999993
 20
-48.5
 11
109.1999999999993
 21
-28.0
 72
     2
 10
109.6999999999993
 20
-28.0
 40
0.5
 50
180.0
 51
270.0
 73
     0
 72
     1
 10
109.6999999999993
 20
-27.5
 11
111.4999999999995
 21
-27.5
 72
     2
 10
111.4999999999995
 20
-28.0
 40
0.5
 50
270.0
 51
360.0
 73
     0
 72
     1
 10
111.9999999999995
 20
-28.0
 11
111.9999999999995
 21
-30.5
 72
     2
 10
112.4999999999995
 20
-30.5
 40
0.5
 50
180.0
 51
360.0
 73
     1
 72
     1
 10
112.9999999999995
 20
-30.5
 11
112.9999999999995
 21
-26.0
 72
     1
 10
112.9999999999995
 20
-26.0
 11
111.999999999999
 21
-25.0
 72
     1
 10
111.999999999999
 20
-25.0
 11
112.9999999999995
 21
-24.0
 72
     1
 10
112.9999999999995
 20
-24.0
 11
112.9999999999995
 21
-19.5
 72
     2
 10
112.4999999999995
 20
-19.5
 40
0.5
 50
0.0
 51
180.0
 73
     1
 72
     1
 10
111.9999999999995
 20
-19.5
 11
111.9999999999995
 21
-22.0
 72
     2
 10
111.4999999999995
 20
-22.0
 40
0.5
 50
360.0
 51
450.0
 73
     0
 72
     1
 10
111.4999999999995
 20
-22.5
 11
109.6999999999993
 21
-22.5
 72
     2
 10
109.6999999999993
 20
-22.0
 40
0.5
 50
90.0
 51
180.0
 73
     0
 72
     1
 10
109.1999999999993
 20
-22.0
 11
109.1999999999994
 21
-1.5
 72
     1
 10
109.1999999999994
 20
-1.5
 11
111.4999999999995
 21
-1.5
 72
     1
 10
111.4999999999995
 20
-1.5
 11
111.4999999999995
 21
-3.25
 72
     2
 10
111.7499999999995
 20
-3.250000000000046
 40
0.25
 50
179.9999999999893
 51
281.5369590328081
 73
     1
 97
        1
330
3E3C
 75
     0
 76
     1
 98
        1
 10
0.0
 20
0.0
  0
ENDBLK
  5
2E89
330
2E87
100
AcDbEntity
  8
0
100
AcDbBlockEnd
  0
BLOCK
  5
2EAA
330
2EA9
100
AcDbEntity
  8
0
100
AcDbBlockBegin
  2
9010100
 70
     0
 10
-698.0412257018842
 20
103.9239421823788
 30
0.0
  3
9010100
  1
9010100.dwg
  0
LWPOLYLINE
  5
3E41
330
2EA9
100
AcDbEntity
  8
APL Joinery
 62
   252
100
AcDbPolyline
 90
       16
 70
     1
 43
0.0
 10
-697.0412257018843
 20
102.9239421823788
 10
-695.7492784149856
 20
102.9239421823788
 10
-694.0229808775646
 20
98.81824357162003
 42
0.9293418001092543
 10
-693.550394430906
 20
98.97737999157357
 10
-694.5444653146969
 20
102.8447215218598
 10
-693.5412257018843
 20
103.4239421823788
 10
-693.5412257018843
 20
104.4239421823788
 10
-694.5663527677213
 20
105.0157995697934
 10
-693.5768325592873
 20
108.8654371152974
 42
0.9293418001092604
 10
-694.0494190059462
 20
109.024573535251
 10
-695.7735859449865
 20
104.9239421823788
 10
-697.0412257018843
 20
104.9239421823788
 10
-697.0412257018843
 20
106.1739421823788
 10
-698.0412257018842
 20
106.1739421823788
 10
-698.0412257018842
 20
101.6739421823788
 10
-697.0412257018843
 20
101.6739421823788
  0
ENDBLK
  5
2EAB
330
2EA9
100
AcDbEntity
  8
0
100
AcDbBlockEnd
  0
BLOCK
  5
2F26
330
2F25
100
AcDbEntity
  8
0
100
AcDbBlockBegin
  2
altherm a4 SM border
 70
     0
 10
0.0
 20
0.0
 30
0.0
  3
altherm a4 SM border
  1
altherm a4 SM border.dwg
  0
LWPOLYLINE
  5
3E97
330
2F25
100
AcDbEntity
  8
APL Border
100
AcDbPolyline
 90
        2
 70
     0
 43
0.2
 10
189.595
 20
262.19
 10
11.59500000000003
 20
262.19
  0
LWPOLYLINE
  5
3E98
330
2F25
100
AcDbEntity
  8
APL Border
100
AcDbPolyline
 90
        4
 70
     1
 43
0.0
 10
48.100746347538
 20
258.19
 10
49.850746347538
 20
258.19
 10
49.850746347538
 20
282.19
 10
48.100746347538
 20
282.19
  0
TEXT
  5
3E99
330
2F25
100
AcDbEntity
  8
APL Border
100
AcDbText
 10
52.85074634753801
 20
258.19
 30
0.0
 40
2.399999999999999
  1
Cad Ref.
  7
Arial-Bold
100
AcDbText
  0
TEXT
  5
3E9A
330
2F25
100
AcDbEntity
  8
APL Border
100
AcDbText
 10
90.85074634753794
 20
258.19
 30
0.0
 40
2.399999999999999
  1
Scale
  7
Arial-Bold
100
AcDbText
  0
TEXT
  5
3E9B
330
2F25
100
AcDbEntity
  8
APL Border
100
AcDbText
 10
110.3507463475379
 20
258.19
 30
0.0
 40
2.399999999999999
  1
Date
  7
Arial-Bold
100
AcDbText
  0
LWPOLYLINE
  5
3E9C
330
2F25
100
AcDbEntity
  8
APL Border
100
AcDbPolyline
 90
        2
 70
     0
 43
0.2
 10
189.595
 20
8.189999999999969
 10
11.59500000000003
 20
8.189999999999997
  0
MTEXT
  5
3E9D
330
2F25
100
AcDbEntity
  8
APL Border
100
AcDbMText
 10
100.595
 20
1.189999999999997
 30
0.0
 40
1.5
 41
178.0
 71
     8
 72
     5
  1
NB. Technical specification subject to change without notice.
  7
Arial-Regular
 73
     1
 44
1.0
1001
ACAD
1000
MTEXTBEGIN
1070
    73
1070
     1
1070
    44
1040
1.0
1070
    74
1070
     0
1000
MTEXTEND
  0
MTEXT
  5
3E9E
330
2F25
100
AcDbEntity
  8
APL Border
100
AcDbMText
 10
100.595
 20
4.189999999999997
 30
0.0
 40
2.0
 41
178.0
 71
     8
 72
     5
  1
ALTHERM SPECIFIER'S GUIDE 2011:1 {\fCommercialPi BT|b0|i0|c2|p18;a} ARCHITECTURAL PROFILES LTD.
  7
Arial-Regular
 73
     1
 44
1.0
1001
ACAD
1000
ACAD_MTEXT_DEFINED_HEIGHT_BEGIN
1070
    46
1040
0.0
1000
ACAD_MTEXT_DEFINED_HEIGHT_END
1000
MTEXTBEGIN
1070
    73
1070
     1
1070
    44
1040
1.0
1070
    74
1070
     0
1000
MTEXTEND
  0
SOLID
  5
3E9F
330
2F25
100
AcDbEntity
  8
APL Border
100
AcDbTrace
 10
48.100746347538
 20
258.19
 30
0.0
 11
49.850746347538
 21
258.19
 31
0.0
 12
48.100746347538
 22
282.19
 32
0.0
 13
49.850746347538
 23
282.19
 33
0.0
  0
LINE
  5
3EA0
330
2F25
100
AcDbEntity
  8
APL Border
  6
Continuous
 62
     7
100
AcDbLine
 10
28.97287317376902
 20
282.1899999999999
 30
0.0
 11
25.39312314342533
 21
278.9085624721849
 31
0.0
  0
HATCH
  5
3EA1
330
2F25
100
AcDbEntity
  8
APL Border
100
AcDbHatch
 10
0.0
 20
0.0
 30
0.0
210
0.0
220
0.0
230
1.0
  2
SOLID
 70
     1
 71
     0
 91
        1
 92
        7
 72
     0
 73
     1
 93
       12
 10
41.50635182876453
 20
269.7882982112
 10
43.10825670458837
 20
268.3198854083616
 10
43.84414652821283
 20
268.3198854083617
 10
41.70908137065771
 20
270.2770284694537
 10
41.30139560538464
 20
270.2770284694539
 10
39.98954949707832
 20
269.0219041150577
 10
38.6689323588048
 20
270.2770284694539
 10
37.9437745816731
 20
270.2770284694537
 10
37.9437745816731
 20
268.3198854083617
 10
38.43306034694615
 20
268.3198854083617
 10
38.43306034694615
 20
269.8267189276591
 10
39.98954949707832
 20
268.3198854083617
 97
        0
 75
     0
 76
     1
 47
0.0349609142003669
 98
        1
 10
40.03819199599138
 20
268.7398234870959
1001
ACAD
1010
0.0
1020
0.0
1030
0.0
  0
LINE
  5
3EA2
330
2F25
100
AcDbEntity
  8
APL Border
100
AcDbLine
 10
43.10825670458837
 20
268.3198854083617
 30
0.0
 11
43.84414652821283
 21
268.3198854083617
 31
0.0
  0
LINE
  5
3EA3
330
2F25
100
AcDbEntity
  8
APL Border
100
AcDbLine
 10
41.30139560538464
 20
270.2770284694538
 30
0.0
 11
41.70908137065771
 21
270.2770284694538
 31
0.0
  0
LINE
  5
3EA4
330
2F25
100
AcDbEntity
  8
APL Border
100
AcDbLine
 10
39.98954949707832
 20
269.0219041150577
 30
0.0
 11
41.30139560538464
 21
270.2770284694538
 31
0.0
  0
LINE
  5
3EA5
330
2F25
100
AcDbEntity
  8
APL Border
100
AcDbLine
 10
38.6689323588048
 20
270.2770284694538
 30
0.0
 11
39.98954949707832
 21
269.0219041150577
 31
0.0
  0
LINE
  5
3EA6
330
2F25
100
AcDbEntity
  8
APL Border
100
AcDbLine
 10
37.9437745816731
 20
270.2770284694538
 30
0.0
 11
38.6689323588048
 21
270.2770284694538
 31
0.0
  0
LINE
  5
3EA7
330
2F25
100
AcDbEntity
  8
APL Border
  6
Continuous
100
AcDbLine
 10
37.9437745816731
 20
268.3198854083617
 30
0.0
 11
37.9437745816731
 21
270.2770284694538
 31
0.0
  0
LINE
  5
3EA8
330
2F25
100
AcDbEntity
  8
APL Border
  6
Continuous
100
AcDbLine
 10
38.43306034694615
 20
268.3198854083617
 30
0.0
 11
37.9437745816731
 21
268.3198854083617
 31
0.0
  0
LINE
  5
3EA9
330
2F25
100
AcDbEntity
  8
APL Border
  6
Continuous
100
AcDbLine
 10
38.43306034694615
 20
268.3198854083617
 30
0.0
 11
38.43306034694615
 21
269.8267189276591
 31
0.0
  0
LINE
  5
3EAA
330
2F25
100
AcDbEntity
  8
APL Border
  6
Continuous
100
AcDbLine
 10
39.98954949707832
 20
268.3198854083617
 30
0.0
 11
38.43306050613546
 21
269.8267187735482
 31
0.0
  0
LINE
  5
3EAB
330
2F25
100
AcDbEntity
  8
APL Border
  6
Continuous
100
AcDbLine
 10
39.98954949707832
 20
268.3198854083617
 30
0.0
 11
41.50635182876453
 21
269.7882982112001
 31
0.0
  0
HATCH
  5
3EAC
330
2F25
100
AcDbEntity
  8
APL Border
100
AcDbHatch
 10
0.0
 20
0.0
 30
0.0
210
0.0
220
0.0
230
1.0
  2
SOLID
 70
     1
 71
     1
 91
        2
 92
        1
 93
        4
 72
     1
 10
28.61232618838437
 20
270.2770284694538
 11
29.10161195365743
 21
270.2770284694538
 72
     1
 10
29.10161195365743
 20
270.2770284694538
 11
29.10161195365743
 21
268.3198854083617
 72
     1
 10
29.10161195365743
 20
268.3198854083617
 11
28.61232618838437
 21
268.3198854083617
 72
     1
 10
28.61232618838437
 20
268.3198854083617
 11
28.61232618838437
 21
270.2770284694538
 97
        4
330
3EAD
330
3EAE
330
3EAF
330
3EB0
 92
        1
 93
        8
 72
     1
 10
25.40272788104108
 20
270.2770284694538
 11
25.89201364631413
 21
270.2770284694538
 72
     1
 10
25.89201364631413
 20
270.2770284694538
 11
25.89201364631413
 21
269.5430998215442
 72
     1
 10
25.89201364631413
 20
269.5430998215442
 11
28.563397611857
 21
269.5430998215442
 72
     1
 10
28.563397611857
 20
269.5430998215442
 11
28.2067349331744
 21
269.1761354975895
 72
     1
 10
28.2067349331744
 20
269.1761354975895
 11
25.89201364631413
 21
269.1761354975895
 72
     1
 10
25.89201364631413
 20
269.1761354975895
 11
25.89201364631413
 21
268.3198854083617
 72
     1
 10
25.89201364631413
 20
268.3198854083617
 11
25.40272788104108
 21
268.3198854083617
 72
     1
 10
25.40272788104108
 20
268.3198854083617
 11
25.40272788104108
 21
270.2770284694538
 97
        8
330
3EB1
330
3EB2
330
3EB3
330
3EB4
330
3EB5
330
3EB6
330
3EB7
330
3EB8
 75
     0
 76
     1
 98
        1
 10
3.780109021975022
 20
262.081925249687
  0
LINE
  5
3EAD
102
{ACAD_REACTORS
330
3EAC
102
}
330
2F25
100
AcDbEntity
  8
APL Border
  6
Continuous
 62
     7
100
AcDbLine
 10
28.61232618838437
 20
270.2770284694538
 30
0.0
 11
29.10161195365743
 21
270.2770284694538
 31
0.0
  0
LINE
  5
3EAE
102
{ACAD_REACTORS
330
3EAC
102
}
330
2F25
100
AcDbEntity
  8
APL Border
  6
Continuous
 62
     7
100
AcDbLine
 10
29.10161195365743
 20
268.3198854083617
 30
0.0
 11
29.10161195365743
 21
270.2770284694538
 31
0.0
  0
LINE
  5
3EAF
102
{ACAD_REACTORS
330
3EAC
102
}
330
2F25
100
AcDbEntity
  8
APL Border
  6
Continuous
 62
     7
100
AcDbLine
 10
29.10161195365743
 20
268.3198854083617
 30
0.0
 11
28.61232618838437
 21
268.3198854083617
 31
0.0
  0
LINE
  5
3EB0
102
{ACAD_REACTORS
330
3EAC
102
}
330
2F25
100
AcDbEntity
  8
APL Border
  6
Continuous
 62
     7
100
AcDbLine
 10
28.61232618838437
 20
268.3198854083617
 30
0.0
 11
28.61232618838437
 21
270.2770284694538
 31
0.0
  0
LINE
  5
3EB1
102
{ACAD_REACTORS
330
3EAC
102
}
330
2F25
100
AcDbEntity
  8
APL Border
  6
Continuous
 62
     7
100
AcDbLine
 10
25.40272788104108
 20
270.2770284694538
 30
0.0
 11
25.89201364631413
 21
270.2770284694538
 31
0.0
  0
LINE
  5
3EB2
102
{ACAD_REACTORS
330
3EAC
102
}
330
2F25
100
AcDbEntity
  8
APL Border
  6
Continuous
 62
     7
100
AcDbLine
 10
25.89201364631413
 20
270.2770284694538
 30
0.0
 11
25.89201364631413
 21
269.5430998215442
 31
0.0
  0
LINE
  5
3EB3
102
{ACAD_REACTORS
330
3EAC
102
}
330
2F25
100
AcDbEntity
  8
APL Border
  6
Continuous
 62
     7
100
AcDbLine
 10
25.89201364631413
 20
269.5430998215442
 30
0.0
 11
28.563397611857
 21
269.5430998215442
 31
0.0
  0
LINE
  5
3EB4
102
{ACAD_REACTORS
330
3EAC
102
}
330
2F25
100
AcDbEntity
  8
APL Border
  6
Continuous
 62
     7
100
AcDbLine
 10
28.2067349331744
 20
269.1761354975895
 30
0.0
 11
28.563397611857
 21
269.5430998215442
 31
0.0
  0
LINE
  5
3EB5
102
{ACAD_REACTORS
330
3EAC
102
}
330
2F25
100
AcDbEntity
  8
APL Border
  6
Continuous
 62
     7
100
AcDbLine
 10
25.89201364631413
 20
269.1761354975895
 30
0.0
 11
28.2067349331744
 21
269.1761354975895
 31
0.0
  0
LINE
  5
3EB6
102
{ACAD_REACTORS
330
3EAC
102
}
330
2F25
100
AcDbEntity
  8
APL Border
  6
Continuous
 62
     7
100
AcDbLine
 10
25.89201364631413
 20
269.1761354975895
 30
0.0
 11
25.89201364631413
 21
268.3198854083617
 31
0.0
  0
LINE
  5
3EB7
102
{ACAD_REACTORS
330
3EAC
102
}
330
2F25
100
AcDbEntity
  8
APL Border
  6
Continuous
 62
     7
100
AcDbLine
 10
25.89201364631413
 20
268.3198854083617
 30
0.0
 11
25.40272788104108
 21
268.3198854083617
 31
0.0
  0
LINE
  5
3EB8
102
{ACAD_REACTORS
330
3EAC
102
}
330
2F25
100
AcDbEntity
  8
APL Border
  6
Continuous
 62
     7
100
AcDbLine
 10
25.40272788104108
 20
270.2770284694538
 30
0.0
 11
25.40272788104108
 21
268.3198854083617
 31
0.0
  0
HATCH
  5
3EB9
330
2F25
100
AcDbEntity
  8
APL Border
100
AcDbHatch
 10
0.0
 20
0.0
 30
0.0
210
0.0
220
0.0
230
1.0
  2
SOLID
 70
     1
 71
     0
 91
        1
 92
        7
 72
     0
 73
     1
 93
       11
 10
34.48076537495444
 20
273.3042942785088
 10
19.27937602305144
 20
273.3042942785088
 10
17.222473173769
 20
271.4187999999999
 10
40.72327317376903
 20
271.4187999999999
 10
28.97287317376902
 20
282.1899999999999
 10
25.32152814281847
 20
278.8429337216286
 10
32.55241895375207
 20
278.8429337216286
 10
30.62407253254992
 20
277.0752828355266
 10
23.3931817216162
 20
277.0752828355266
 10
21.33627887233388
 20
275.1897885570177
 10
36.53766822423677
 20
275.1897885570177
 97
        0
 75
     0
 76
     1
 47
0.041571597216803
 98
        1
 10
36.50907326945662
 20
273.1916405440896
1001
ACAD
1010
0.0
1020
0.0
1030
0.0
  0
LINE
  5
3EBA
330
2F25
100
AcDbEntity
  8
APL Border
  6
Continuous
 62
     7
100
AcDbLine
 10
21.33627887233388
 20
275.1897885570177
 30
0.0
 11
36.53766822423677
 21
275.1897885570177
 31
0.0
  0
LINE
  5
3EBB
330
2F25
100
AcDbEntity
  8
APL Border
  6
Continuous
 62
     7
100
AcDbLine
 10
23.3931817216162
 20
277.0752828355266
 30
0.0
 11
30.62407253254992
 21
277.0752828355266
 31
0.0
  0
LINE
  5
3EBC
330
2F25
100
AcDbEntity
  8
APL Border
  6
Continuous
 62
     7
100
AcDbLine
 10
25.32152814281847
 20
278.8429337216286
 30
0.0
 11
32.55241895375207
 21
278.8429337216286
 31
0.0
  0
LINE
  5
3EBD
330
2F25
100
AcDbEntity
  8
APL Border
  6
Continuous
 62
     7
100
AcDbLine
 10
17.222473173769
 20
271.4187999999999
 30
0.0
 11
40.72327317376903
 21
271.4187999999999
 31
0.0
  0
LINE
  5
3EBE
330
2F25
100
AcDbEntity
  8
APL Border
  6
Continuous
 62
     7
100
AcDbLine
 10
19.27937602305144
 20
273.3042942785088
 30
0.0
 11
34.48076537495444
 21
273.3042942785088
 31
0.0
  0
HATCH
  5
3EBF
330
2F25
100
AcDbEntity
  8
APL Border
100
AcDbHatch
 10
0.0
 20
0.0
 30
0.0
210
0.0
220
0.0
230
1.0
  2
SOLID
 70
     1
 71
     0
 91
        1
 92
        7
 72
     0
 73
     1
 93
       11
 10
16.66437427323944
 20
268.8091711736347
 10
17.06469899028093
 20
269.1761354975895
 10
15.77158064937998
 20
269.1761354975895
 10
16.48130785951684
 20
269.8267187735482
 10
17.94584048373429
 20
268.3198854083617
 10
18.62815169512703
 20
268.3198854083617
 10
16.72595074215337
 20
270.2770284694539
 10
16.23666497688032
 20
270.2770284694539
 10
14.1015998193252
 20
268.3198854083617
 10
14.83748964294966
 20
268.3198854083617
 10
15.3712559323385
 20
268.8091711736347
 97
        0
 75
     0
 76
     1
 47
0.0418723060201972
 98
        1
 10
15.39024061988607
 20
268.959330021135
1001
ACAD
1010
0.0
1020
0.0
1030
0.0
  0
LINE
  5
3EC0
330
2F25
100
AcDbEntity
  8
APL Border
  6
Continuous
 62
     7
100
AcDbLine
 10
16.23666497688032
 20
270.2770284694538
 30
0.0
 11
16.72595074215337
 21
270.2770284694538
 31
0.0
  0
LINE
  5
3EC1
330
2F25
100
AcDbEntity
  8
APL Border
  6
Continuous
 62
     7
100
AcDbLine
 10
18.62815169512703
 20
268.3198854083617
 30
0.0
 11
16.72595074215337
 21
270.2770284694538
 31
0.0
  0
LINE
  5
3EC2
330
2F25
100
AcDbEntity
  8
APL Border
  6
Continuous
 62
     7
100
AcDbLine
 10
18.62815169512703
 20
268.3198854083617
 30
0.0
 11
17.94584048373429
 21
268.3198854083617
 31
0.0
  0
LINE
  5
3EC3
330
2F25
100
AcDbEntity
  8
APL Border
  6
Continuous
 62
     7
100
AcDbLine
 10
17.94584048373429
 20
268.3198854083617
 30
0.0
 11
16.48130785951684
 21
269.8267187735482
 31
0.0
  0
LINE
  5
3EC4
330
2F25
100
AcDbEntity
  8
APL Border
  6
Continuous
 62
     7
100
AcDbLine
 10
17.06469899028093
 20
269.1761354975895
 30
0.0
 11
15.77158064937998
 21
269.1761354975895
 31
0.0
  0
LINE
  5
3EC5
330
2F25
100
AcDbEntity
  8
APL Border
  6
Continuous
 62
     7
100
AcDbLine
 10
16.66437427323944
 20
268.8091711736347
 30
0.0
 11
15.3712559323385
 21
268.8091711736347
 31
0.0
  0
LINE
  5
3EC6
330
2F25
100
AcDbEntity
  8
APL Border
  6
Continuous
 62
     7
100
AcDbLine
 10
14.83748964294966
 20
268.3198854083617
 30
0.0
 11
14.1015998193252
 21
268.3198854083617
 31
0.0
  0
HATCH
  5
3EC7
330
2F25
100
AcDbEntity
  8
APL Border
100
AcDbHatch
 10
0.0
 20
0.0
 30
0.0
210
0.0
220
0.0
230
1.0
  2
SOLID
 70
     1
 71
     1
 91
        2
 92
        1
 93
        8
 72
     1
 10
24.56486087840358
 20
269.910064145499
 11
24.92152355708618
 21
270.2770284694538
 72
     1
 10
24.92152355708618
 20
270.2770284694538
 11
21.49652320017481
 21
270.2770284694538
 72
     1
 10
21.49652320017481
 20
270.2770284694538
 11
21.13986052149221
 21
269.910064145499
 72
     1
 10
21.13986052149221
 20
269.910064145499
 11
22.85236069994789
 21
269.910064145499
 72
     1
 10
22.85236069994789
 20
269.910064145499
 11
22.85236069994789
 21
268.3198854083617
 72
     1
 10
22.85236069994789
 20
268.3198854083617
 11
23.34164646522095
 21
268.3198854083617
 72
     1
 10
23.34164646522095
 20
268.3198854083617
 11
23.34164646522095
 21
269.910064145499
 72
     1
 10
23.34164646522095
 20
269.910064145499
 11
24.56486087840358
 21
269.910064145499
 97
        8
330
3EC8
330
3EC9
330
3ECA
330
3ECB
330
3ECC
330
3ECD
330
3ECE
330
3ECF
 92
       49
 93
        1
 72
     1
 10
21.85145081467408
 20
268.3198854083617
 11
22.20811349335668
 21
268.6868497323164
 97
        9
330
3EC8
330
3EC9
330
3ECA
330
3ECB
330
3ECC
330
3ECD
330
3ECE
330
3ECF
330
3ED0
 75
     0
 76
     1
 98
        1
 10
3.665869021974913
 20
262.081925249687
  0
LINE
  5
3EC8
102
{ACAD_REACTORS
330
3EC7
102
}
330
2F25
100
AcDbEntity
  8
APL Border
  6
Continuous
 62
     7
100
AcDbLine
 10
24.56486087840358
 20
269.910064145499
 30
0.0
 11
24.92152355708618
 21
270.2770284694538
 31
0.0
  0
LINE
  5
3EC9
102
{ACAD_REACTORS
330
3EC7
102
}
330
2F25
100
AcDbEntity
  8
APL Border
  6
Continuous
 62
     7
100
AcDbLine
 10
21.49652320017481
 20
270.2770284694538
 30
0.0
 11
24.92152355708618
 21
270.2770284694538
 31
0.0
  0
LINE
  5
3ECA
102
{ACAD_REACTORS
330
3EC7
102
}
330
2F25
100
AcDbEntity
  8
APL Border
  6
Continuous
 62
     7
100
AcDbLine
 10
21.13986052149221
 20
269.910064145499
 30
0.0
 11
21.49652320017481
 21
270.2770284694538
 31
0.0
  0
LINE
  5
3ECB
102
{ACAD_REACTORS
330
3EC7
102
}
330
2F25
100
AcDbEntity
  8
APL Border
  6
Continuous
 62
     7
100
AcDbLine
 10
21.13986052149221
 20
269.910064145499
 30
0.0
 11
22.85236069994789
 21
269.910064145499
 31
0.0
  0
LINE
  5
3ECC
102
{ACAD_REACTORS
330
3EC7
102
}
330
2F25
100
AcDbEntity
  8
APL Border
  6
Continuous
 62
     7
100
AcDbLine
 10
22.85236069994789
 20
268.3198854083617
 30
0.0
 11
22.85236069994789
 21
269.910064145499
 31
0.0
  0
LINE
  5
3ECD
102
{ACAD_REACTORS
330
3EC7
102
}
330
2F25
100
AcDbEntity
  8
APL Border
  6
Continuous
 62
     7
100
AcDbLine
 10
23.34164646522095
 20
268.3198854083617
 30
0.0
 11
22.85236069994789
 21
268.3198854083617
 31
0.0
  0
LINE
  5
3ECE
102
{ACAD_REACTORS
330
3EC7
102
}
330
2F25
100
AcDbEntity
  8
APL Border
  6
Continuous
 62
     7
100
AcDbLine
 10
23.34164646522095
 20
268.3198854083617
 30
0.0
 11
23.34164646522095
 21
269.910064145499
 31
0.0
  0
LINE
  5
3ECF
102
{ACAD_REACTORS
330
3EC7
102
}
330
2F25
100
AcDbEntity
  8
APL Border
  6
Continuous
 62
     7
100
AcDbLine
 10
23.34164646522095
 20
269.910064145499
 30
0.0
 11
24.56486087840358
 21
269.910064145499
 31
0.0
  0
LINE
  5
3ED0
102
{ACAD_REACTORS
330
3EC7
102
}
330
2F25
100
AcDbEntity
  8
APL Border
  6
Continuous
 62
     7
100
AcDbLine
 10
21.85145081467408
 20
268.3198854083617
 30
0.0
 11
22.20811349335668
 21
268.6868497323164
 31
0.0
  0
HATCH
  5
3ED1
330
2F25
100
AcDbEntity
  8
APL Border
100
AcDbHatch
 10
0.0
 20
0.0
 30
0.0
210
0.0
220
0.0
230
1.0
  2
SOLID
 70
     1
 71
     0
 91
        2
 92
        1
 93
        7
 72
     1
 10
18.78311313644531
 20
270.2770284694538
 11
19.27239890171836
 21
270.2770284694538
 72
     1
 10
19.27239890171836
 20
270.2770284694538
 11
19.27239890171836
 21
268.6868497323164
 72
     1
 10
19.27239890171836
 20
268.6868497323164
 11
22.20811349335668
 21
268.6868497323164
 72
     1
 10
22.20811349335668
 20
268.6868497323164
 11
21.85145081467408
 21
268.3198854083617
 72
     1
 10
21.85145081467408
 20
268.3198854083617
 11
19.12426874214168
 21
268.3198854083617
 72
     1
 10
19.12426874214157
 20
268.3198854083617
 11
18.78311313644519
 21
268.6708947617097
 72
     1
 10
18.78311313644531
 20
268.6708947617097
 11
18.78311313644531
 21
270.2770284694539
 97
        0
 92
       49
 93
        1
 72
     1
 10
21.10722052149231
 20
269.910064145499
 11
21.46388320017491
 21
270.2770284694539
 97
        0
 75
     0
 76
     1
 98
        1
 10
3.633229021975012
 20
262.081925249687
  0
LINE
  5
3ED2
330
2F25
100
AcDbEntity
  8
APL Border
  6
Continuous
 62
     7
100
AcDbLine
 10
18.78311313644531
 20
270.2770284694538
 30
0.0
 11
19.27239890171836
 21
270.2770284694538
 31
0.0
  0
LINE
  5
3ED3
330
2F25
100
AcDbEntity
  8
APL Border
  6
Continuous
 62
     7
100
AcDbLine
 10
19.27239890171836
 20
268.6868497323164
 30
0.0
 11
19.27239890171836
 21
270.2770284694538
 31
0.0
  0
LINE
  5
3ED4
330
2F25
100
AcDbEntity
  8
APL Border
  6
Continuous
 62
     7
100
AcDbLine
 10
22.20811349335668
 20
268.6868497323164
 30
0.0
 11
19.27239890171836
 21
268.6868497323164
 31
0.0
  0
LINE
  5
3ED5
330
2F25
100
AcDbEntity
  8
APL Border
  6
Continuous
 62
     7
100
AcDbLine
 10
21.85145081467408
 20
268.3198854083617
 30
0.0
 11
19.12426874214157
 21
268.3198854083617
 31
0.0
  0
LINE
  5
3ED6
330
2F25
100
AcDbEntity
  8
APL Border
  6
Continuous
 62
     7
100
AcDbLine
 10
18.78311313644531
 20
268.6708947617097
 30
0.0
 11
19.12426874214157
 21
268.3198854083617
 31
0.0
  0
LINE
  5
3ED7
330
2F25
100
AcDbEntity
  8
APL Border
  6
Continuous
 62
     7
100
AcDbLine
 10
18.78311313644531
 20
268.6708947617097
 30
0.0
 11
18.78311313644531
 21
270.2770284694538
 31
0.0
  0
HATCH
  5
3ED8
330
2F25
100
AcDbEntity
  8
APL Border
100
AcDbHatch
 10
0.0
 20
0.0
 30
0.0
210
0.0
220
0.0
230
1.0
  2
SOLID
 70
     1
 71
     1
 91
        1
 92
        1
 93
       14
 72
     1
 10
34.97119637019967
 20
269.5430998215442
 11
36.55041209367164
 21
268.3198854083617
 72
     1
 10
36.55041209367164
 20
268.3198854083617
 11
37.29060626571004
 21
268.3198854083617
 72
     1
 10
37.29060626571004
 20
268.3198854083617
 11
36.18515525927967
 21
269.1761354975895
 72
     1
 10
36.18515525927967
 20
269.1761354975895
 11
37.13100823114405
 21
269.1761354975895
 72
     1
 10
37.13100823114405
 20
269.1761354975895
 11
37.37565111378058
 21
269.420778380226
 72
     1
 10
37.37565111378058
 20
269.420778380226
 11
37.37565111378058
 21
270.0323855868173
 72
     1
 10
37.37565111378058
 20
270.0323855868173
 11
37.13100823114405
 21
270.2770284694538
 72
     1
 10
37.13100823114405
 20
270.2770284694538
 11
33.51974098147207
 21
270.2770284694538
 72
     1
 10
33.51974098147207
 20
270.2770284694538
 11
33.51974098147207
 21
268.3198854083617
 72
     1
 10
33.51974098147207
 20
268.3198854083617
 11
34.00902674674512
 21
268.3198854083617
 72
     1
 10
34.00902674674512
 20
268.3198854083617
 11
34.00902674674512
 21
269.910064145499
 72
     1
 10
34.00902674674512
 20
269.910064145499
 11
36.88636534850753
 21
269.910064145499
 72
     1
 10
36.88636534850753
 20
269.910064145499
 11
36.88636534850753
 21
269.5430998215442
 72
     1
 10
36.88636534850753
 20
269.5430998215442
 11
34.97119637019967
 21
269.5430998215442
 97
       14
330
3F0D
330
3EDE
330
3F0C
330
3EDD
330
3EDC
330
3EDB
330
3EDA
330
3ED9
330
3EE4
330
3EE3
330
3EE2
330
3EE1
330
3EE0
330
3EDF
 75
     0
 76
     1
 98
        1
 10
63.53956269429045
 20
133.0114089406007
1001
ACAD
1010
0.0
1020
0.0
1030
0.0
  0
LINE
  5
3ED9
102
{ACAD_REACTORS
330
3ED8
102
}
330
2F25
100
AcDbEntity
  8
APL Border
  6
Continuous
 62
     7
100
AcDbLine
 10
33.51974098147207
 20
270.2770284694538
 30
0.0
 11
37.13100823114405
 21
270.2770284694538
 31
0.0
  0
LINE
  5
3EDA
102
{ACAD_REACTORS
330
3ED8
102
}
330
2F25
100
AcDbEntity
  8
APL Border
  6
Continuous
 62
     7
100
AcDbLine
 10
37.37565111378058
 20
270.0323855868173
 30
0.0
 11
37.13100823114405
 21
270.2770284694538
 31
0.0
  0
LINE
  5
3EDB
102
{ACAD_REACTORS
330
3ED8
102
}
330
2F25
100
AcDbEntity
  8
APL Border
  6
Continuous
 62
     7
100
AcDbLine
 10
37.37565111378058
 20
269.420778380226
 30
0.0
 11
37.37565111378058
 21
270.0323855868173
 31
0.0
  0
LINE
  5
3EDC
102
{ACAD_REACTORS
330
3ED8
102
}
330
2F25
100
AcDbEntity
  8
APL Border
  6
Continuous
 62
     7
100
AcDbLine
 10
37.37565111378058
 20
269.420778380226
 30
0.0
 11
37.13100823114405
 21
269.1761354975895
 31
0.0
  0
LINE
  5
3EDD
102
{ACAD_REACTORS
330
3ED8
102
}
330
2F25
100
AcDbEntity
  8
APL Border
  6
Continuous
 62
     7
100
AcDbLine
 10
36.18515525927967
 20
269.1761354975895
 30
0.0
 11
37.13100823114405
 21
269.1761354975895
 31
0.0
  0
LINE
  5
3EDE
102
{ACAD_REACTORS
330
3ED8
102
}
330
2F25
100
AcDbEntity
  8
APL Border
  6
Continuous
 62
     7
100
AcDbLine
 10
37.29060626571004
 20
268.3198854083617
 30
0.0
 11
36.55041209367164
 21
268.3198854083617
 31
0.0
  0
LINE
  5
3EDF
102
{ACAD_REACTORS
330
3ED8
102
}
330
2F25
100
AcDbEntity
  8
APL Border
  6
Continuous
 62
     7
100
AcDbLine
 10
34.97119637019967
 20
269.5430998215442
 30
0.0
 11
36.88636534850753
 21
269.5430998215442
 31
0.0
  0
LINE
  5
3EE0
102
{ACAD_REACTORS
330
3ED8
102
}
330
2F25
100
AcDbEntity
  8
APL Border
  6
Continuous
 62
     7
100
AcDbLine
 10
36.88636534850753
 20
269.5430998215442
 30
0.0
 11
36.88636534850753
 21
269.910064145499
 31
0.0
  0
LINE
  5
3EE1
102
{ACAD_REACTORS
330
3ED8
102
}
330
2F25
100
AcDbEntity
  8
APL Border
  6
Continuous
 62
     7
100
AcDbLine
 10
34.00902674674512
 20
269.910064145499
 30
0.0
 11
36.88636534850753
 21
269.910064145499
 31
0.0
  0
LINE
  5
3EE2
102
{ACAD_REACTORS
330
3ED8
102
}
330
2F25
100
AcDbEntity
  8
APL Border
  6
Continuous
 62
     7
100
AcDbLine
 10
34.00902674674512
 20
268.3198854083617
 30
0.0
 11
34.00902674674512
 21
269.910064145499
 31
0.0
  0
LINE
  5
3EE3
102
{ACAD_REACTORS
330
3ED8
102
}
330
2F25
100
AcDbEntity
  8
APL Border
  6
Continuous
 62
     7
100
AcDbLine
 10
34.00902674674512
 20
268.3198854083617
 30
0.0
 11
33.51974098147207
 21
268.3198854083617
 31
0.0
  0
LINE
  5
3EE4
102
{ACAD_REACTORS
330
3ED8
102
}
330
2F25
100
AcDbEntity
  8
APL Border
  6
Continuous
 62
     7
100
AcDbLine
 10
33.51974098147207
 20
270.2770284694538
 30
0.0
 11
33.51974098147207
 21
268.3198854083617
 31
0.0
  0
HATCH
  5
3EE5
330
2F25
100
AcDbEntity
  8
APL Border
100
AcDbHatch
 10
0.0
 20
0.0
 30
0.0
210
0.0
220
0.0
230
1.0
  2
SOLID
 70
     1
 71
     1
 91
        1
 92
        1
 93
       14
 72
     1
 10
29.91245832718028
 20
270.2770284694538
 11
33.0385366575174
 21
270.2770284694538
 72
     1
 10
33.0385366575174
 20
270.2770284694538
 11
32.6818739788348
 21
269.910064145499
 72
     1
 10
32.6818739788348
 20
269.910064145499
 11
30.03477976849842
 21
269.910064145499
 72
     1
 10
30.03477976849842
 20
269.910064145499
 11
30.03477976849842
 21
269.5430998215442
 72
     1
 10
30.03477976849842
 20
269.5430998215442
 11
33.0385366575174
 21
269.5430998215442
 72
     1
 10
33.0385366575174
 20
269.5430998215442
 11
32.6818739788348
 21
269.1761354975895
 72
     1
 10
32.6818739788348
 20
269.1761354975895
 11
30.03477976849842
 21
269.1761354975895
 72
     1
 10
30.03477976849842
 20
269.1761354975895
 11
30.03477976849842
 21
268.6868497323164
 72
     1
 10
30.03477976849842
 20
268.6868497323164
 11
33.0385366575174
 21
268.6868497323164
 72
     1
 10
33.0385366575174
 20
268.6868497323164
 11
32.6818739788348
 21
268.3198854083617
 72
     1
 10
32.6818739788348
 20
268.3198854083617
 11
29.91245832718028
 21
268.3198854083617
 72
     1
 10
29.91245832718028
 20
268.3198854083617
 11
29.54549400322548
 21
268.6974489245474
 72
     1
 10
29.54549400322548
 20
268.6974489245474
 11
29.54549400322548
 21
269.8994649532681
 72
     1
 10
29.54549400322548
 20
269.8994649532681
 11
29.91245832718028
 21
270.2770284694538
 97
       14
330
3EE6
330
3EE7
330
3EE8
330
3EE9
330
3EEA
330
3EEB
330
3EEC
330
3EED
330
3EEE
330
3EEF
330
3EF0
330
3EF1
330
3EF2
330
3EF3
 75
     0
 76
     1
 98
        1
 10
4.008589021975012
 20
262.081925249687
  0
LINE
  5
3EE6
102
{ACAD_REACTORS
330
3EE5
102
}
330
2F25
100
AcDbEntity
  8
APL Border
  6
Continuous
 62
     7
100
AcDbLine
 10
29.91245832718028
 20
270.2770284694538
 30
0.0
 11
33.0385366575174
 21
270.2770284694538
 31
0.0
  0
LINE
  5
3EE7
102
{ACAD_REACTORS
330
3EE5
102
}
330
2F25
100
AcDbEntity
  8
APL Border
  6
Continuous
 62
     7
100
AcDbLine
 10
32.6818739788348
 20
269.910064145499
 30
0.0
 11
33.0385366575174
 21
270.2770284694538
 31
0.0
  0
LINE
  5
3EE8
102
{ACAD_REACTORS
330
3EE5
102
}
330
2F25
100
AcDbEntity
  8
APL Border
  6
Continuous
 62
     7
100
AcDbLine
 10
30.03477976849842
 20
269.910064145499
 30
0.0
 11
32.6818739788348
 21
269.910064145499
 31
0.0
  0
LINE
  5
3EE9
102
{ACAD_REACTORS
330
3EE5
102
}
330
2F25
100
AcDbEntity
  8
APL Border
  6
Continuous
 62
     7
100
AcDbLine
 10
30.03477976849842
 20
269.5430998215442
 30
0.0
 11
30.03477976849842
 21
269.910064145499
 31
0.0
  0
LINE
  5
3EEA
102
{ACAD_REACTORS
330
3EE5
102
}
330
2F25
100
AcDbEntity
  8
APL Border
  6
Continuous
 62
     7
100
AcDbLine
 10
30.03477976849842
 20
269.5430998215442
 30
0.0
 11
33.0385366575174
 21
269.5430998215442
 31
0.0
  0
LINE
  5
3EEB
102
{ACAD_REACTORS
330
3EE5
102
}
330
2F25
100
AcDbEntity
  8
APL Border
  6
Continuous
 62
     7
100
AcDbLine
 10
32.6818739788348
 20
269.1761354975895
 30
0.0
 11
33.0385366575174
 21
269.5430998215442
 31
0.0
  0
LINE
  5
3EEC
102
{ACAD_REACTORS
330
3EE5
102
}
330
2F25
100
AcDbEntity
  8
APL Border
  6
Continuous
 62
     7
100
AcDbLine
 10
30.03477976849842
 20
269.1761354975895
 30
0.0
 11
32.6818739788348
 21
269.1761354975895
 31
0.0
  0
LINE
  5
3EED
102
{ACAD_REACTORS
330
3EE5
102
}
330
2F25
100
AcDbEntity
  8
APL Border
  6
Continuous
 62
     7
100
AcDbLine
 10
30.03477976849842
 20
268.6868497323164
 30
0.0
 11
30.03477976849842
 21
269.1761354975895
 31
0.0
  0
LINE
  5
3EEE
102
{ACAD_REACTORS
330
3EE5
102
}
330
2F25
100
AcDbEntity
  8
APL Border
  6
Continuous
 62
     7
100
AcDbLine
 10
33.0385366575174
 20
268.6868497323164
 30
0.0
 11
30.03477976849842
 21
268.6868497323164
 31
0.0
  0
LINE
  5
3EEF
102
{ACAD_REACTORS
330
3EE5
102
}
330
2F25
100
AcDbEntity
  8
APL Border
  6
Continuous
 62
     7
100
AcDbLine
 10
32.6818739788348
 20
268.3198854083617
 30
0.0
 11
33.0385366575174
 21
268.6868497323164
 31
0.0
  0
LINE
  5
3EF0
102
{ACAD_REACTORS
330
3EE5
102
}
330
2F25
100
AcDbEntity
  8
APL Border
  6
Continuous
 62
     7
100
AcDbLine
 10
32.6818739788348
 20
268.3198854083617
 30
0.0
 11
29.91245832718028
 21
268.3198854083617
 31
0.0
  0
LINE
  5
3EF1
102
{ACAD_REACTORS
330
3EE5
102
}
330
2F25
100
AcDbEntity
  8
APL Border
  6
Continuous
 62
     7
100
AcDbLine
 10
29.91245832718028
 20
268.3198854083617
 30
0.0
 11
29.54549400322548
 21
268.6974489245474
 31
0.0
  0
LINE
  5
3EF2
102
{ACAD_REACTORS
330
3EE5
102
}
330
2F25
100
AcDbEntity
  8
APL Border
  6
Continuous
 62
     7
100
AcDbLine
 10
29.54549400322548
 20
268.6974489245474
 30
0.0
 11
29.54549400322548
 21
269.8994649532681
 31
0.0
  0
LINE
  5
3EF3
102
{ACAD_REACTORS
330
3EE5
102
}
330
2F25
100
AcDbEntity
  8
APL Border
  6
Continuous
 62
     7
100
AcDbLine
 10
29.91245832718028
 20
270.2770284694538
 30
0.0
 11
29.54549400322548
 21
269.8994649532681
 31
0.0
  0
MTEXT
  5
3EF4
330
2F25
100
AcDbEntity
  8
APL Border
100
AcDbMText
 10
12.68667987708409
 20
266.896725027583
 30
0.0
 40
1.7952
 41
30.95767261408979
 71
     1
 72
     5
  1
{\fHelvetica|b1|i0|c0|p34;W}
  7
Arial-Bold
 73
     1
 44
1.0
1001
ACAD
1000
ACAD_MTEXT_DEFINED_HEIGHT_BEGIN
1070
    46
1040
0.0
1000
ACAD_MTEXT_DEFINED_HEIGHT_END
1000
MTEXTBEGIN
1070
    73
1070
     1
1070
    44
1040
1.0
1070
    74
1070
     0
1000
MTEXTEND
  0
LINE
  5
3EF5
330
2F25
100
AcDbEntity
  8
APL Border
  6
Continuous
 62
     7
100
AcDbLine
 10
23.3931817216162
 20
277.0752828355266
 30
0.0
 11
21.33627887233388
 21
275.1897885570177
 31
0.0
  0
LINE
  5
3EF6
330
2F25
100
AcDbEntity
  8
APL Border
  6
Continuous
 62
     7
100
AcDbLine
 10
19.27937602305133
 20
273.3042942785088
 30
0.0
 11
17.222473173769
 21
271.4187999999999
 31
0.0
  0
LINE
  5
3EF7
330
2F25
100
AcDbEntity
  8
APL Border
  6
Continuous
 62
     7
100
AcDbLine
 10
36.53766822423677
 20
275.1897885570177
 30
0.0
 11
34.48076537495444
 21
273.3042942785088
 31
0.0
  0
LINE
  5
3EF8
330
2F25
100
AcDbEntity
  8
APL Border
  6
Continuous
 62
     7
100
AcDbLine
 10
32.55241895375207
 20
278.8429337216286
 30
0.0
 11
30.62407253254992
 21
277.0752828355266
 31
0.0
  0
MTEXT
  5
3EF9
330
2F25
100
AcDbEntity
  8
APL Border
100
AcDbMText
 10
43.66452458209642
 20
266.896725027583
 30
0.0
 40
1.7952
 41
30.95767261408979
 71
     1
 72
     5
  1
{\fHelvetica|b1|i0|c0|p34;S}
  7
Arial-Bold
 73
     1
 44
1.0
1001
ACAD
1000
ACAD_MTEXT_DEFINED_HEIGHT_BEGIN
1070
    46
1040
0.0
1000
ACAD_MTEXT_DEFINED_HEIGHT_END
1000
MTEXTBEGIN
1070
    73
1070
     1
1070
    44
1040
1.0
1070
    74
1070
     0
1000
MTEXTEND
  0
MTEXT
  5
3EFA
330
2F25
100
AcDbEntity
  8
APL Border
100
AcDbMText
 10
15.95904586148572
 20
266.896725027583
 30
0.0
 40
1.7952
 41
30.95767261408979
 71
     1
 72
     5
  1
{\fHelvetica|b1|i0|c0|p34;I}
  7
Arial-Bold
 73
     1
 44
1.0
1001
ACAD
1000
ACAD_MTEXT_DEFINED_HEIGHT_BEGIN
1070
    46
1040
0.0
1000
ACAD_MTEXT_DEFINED_HEIGHT_END
1000
MTEXTBEGIN
1070
    73
1070
     1
1070
    44
1040
1.0
1070
    74
1070
     0
1000
MTEXTEND
  0
MTEXT
  5
3EFB
330
2F25
100
AcDbEntity
  8
APL Border
100
AcDbMText
 10
17.39325722266858
 20
266.896725027583
 30
0.0
 40
1.7952
 41
30.95767261408979
 71
     1
 72
     5
  1
{\fHelvetica|b1|i0|c0|p34;N}
  7
Arial-Bold
 73
     1
 44
1.0
1001
ACAD
1000
ACAD_MTEXT_DEFINED_HEIGHT_BEGIN
1070
    46
1040
0.0
1000
ACAD_MTEXT_DEFINED_HEIGHT_END
1000
MTEXTBEGIN
1070
    73
1070
     1
1070
    44
1040
1.0
1070
    74
1070
     0
1000
MTEXTEND
  0
MTEXT
  5
3EFC
330
2F25
100
AcDbEntity
  8
APL Border
100
AcDbMText
 10
19.92877707096613
 20
266.896725027583
 30
0.0
 40
1.7952
 41
30.95767261408979
 71
     1
 72
     5
  1
{\fHelvetica|b1|i0|c0|p34;D}
  7
Arial-Bold
 73
     1
 44
1.0
1001
ACAD
1000
ACAD_MTEXT_DEFINED_HEIGHT_BEGIN
1070
    46
1040
0.0
1000
ACAD_MTEXT_DEFINED_HEIGHT_END
1000
MTEXTBEGIN
1070
    73
1070
     1
1070
    44
1040
1.0
1070
    74
1070
     0
1000
MTEXTEND
  0
MTEXT
  5
3EFD
330
2F25
100
AcDbEntity
  8
APL Border
100
AcDbMText
 10
22.2432390043773
 20
266.896725027583
 30
0.0
 40
1.7952
 41
30.95767261408979
 71
     1
 72
     5
  1
{\fHelvetica|b1|i0|c0|p34;O}
  7
Arial-Bold
 73
     1
 44
1.0
1001
ACAD
1000
ACAD_MTEXT_DEFINED_HEIGHT_BEGIN
1070
    46
1040
0.0
1000
ACAD_MTEXT_DEFINED_HEIGHT_END
1000
MTEXTBEGIN
1070
    73
1070
     1
1070
    44
1040
1.0
1070
    74
1070
     0
1000
MTEXTEND
  0
MTEXT
  5
3EFE
330
2F25
100
AcDbEntity
  8
APL Border
100
AcDbMText
 10
24.56166150770548
 20
266.896725027583
 30
0.0
 40
1.7952
 41
30.95767261408979
 71
     1
 72
     5
  1
{\fHelvetica|b1|i0|c0|p34;W}
  7
Arial-Bold
 73
     1
 44
1.0
1001
ACAD
1000
ACAD_MTEXT_DEFINED_HEIGHT_BEGIN
1070
    46
1040
0.0
1000
ACAD_MTEXT_DEFINED_HEIGHT_END
1000
MTEXTBEGIN
1070
    73
1070
     1
1070
    44
1040
1.0
1070
    74
1070
     0
1000
MTEXTEND
  0
MTEXT
  5
3EFF
330
2F25
100
AcDbEntity
  8
APL Border
100
AcDbMText
 10
29.41761804134137
 20
266.896725027583
 30
0.0
 40
1.7952
 41
30.95767261408979
 71
     1
 72
     5
  1
{\fHelvetica|b1|i0|c0|p34;S}
  7
Arial-Bold
 73
     1
 44
1.0
1001
ACAD
1000
ACAD_MTEXT_DEFINED_HEIGHT_BEGIN
1070
    46
1040
0.0
1000
ACAD_MTEXT_DEFINED_HEIGHT_END
1000
MTEXTBEGIN
1070
    73
1070
     1
1070
    44
1040
1.0
1070
    74
1070
     0
1000
MTEXTEND
  0
MTEXT
  5
3F00
330
2F25
100
AcDbEntity
  8
APL Border
100
AcDbMText
 10
31.60050227170791
 20
266.896725027583
 30
0.0
 40
1.7952
 41
30.95767261408979
 71
     1
 72
     5
  1
{\fHelvetica|b1|i0|c0|p34;Y}
  7
Arial-Bold
 73
     1
 44
1.0
1001
ACAD
1000
ACAD_MTEXT_DEFINED_HEIGHT_BEGIN
1070
    46
1040
0.0
1000
ACAD_MTEXT_DEFINED_HEIGHT_END
1000
MTEXTBEGIN
1070
    73
1070
     1
1070
    44
1040
1.0
1070
    74
1070
     0
1000
MTEXTEND
  0
MTEXT
  5
3F01
330
2F25
100
AcDbEntity
  8
APL Border
100
AcDbMText
 10
34.07962733623299
 20
266.896725027583
 30
0.0
 40
1.7952
 41
30.95767261408979
 71
     1
 72
     5
  1
{\fHelvetica|b1|i0|c0|p34;S}
  7
Arial-Bold
 73
     1
 44
1.0
1001
ACAD
1000
ACAD_MTEXT_DEFINED_HEIGHT_BEGIN
1070
    46
1040
0.0
1000
ACAD_MTEXT_DEFINED_HEIGHT_END
1000
MTEXTBEGIN
1070
    73
1070
     1
1070
    44
1040
1.0
1070
    74
1070
     0
1000
MTEXTEND
  0
MTEXT
  5
3F02
330
2F25
100
AcDbEntity
  8
APL Border
100
AcDbMText
 10
36.46221134543578
 20
266.896725027583
 30
0.0
 40
1.7952
 41
30.95767261408979
 71
     1
 72
     5
  1
{\fHelvetica|b1|i0|c0|p34;T}
  7
Arial-Bold
 73
     1
 44
1.0
1001
ACAD
1000
ACAD_MTEXT_DEFINED_HEIGHT_BEGIN
1070
    46
1040
0.0
1000
ACAD_MTEXT_DEFINED_HEIGHT_END
1000
MTEXTBEGIN
1070
    73
1070
     1
1070
    44
1040
1.0
1070
    74
1070
     0
1000
MTEXTEND
  0
MTEXT
  5
3F03
330
2F25
100
AcDbEntity
  8
APL Border
100
AcDbMText
 10
38.68108723506362
 20
266.896725027583
 30
0.0
 40
1.7952
 41
30.95767261408979
 71
     1
 72
     5
  1
{\fHelvetica|b1|i0|c0|p34;E}
  7
Arial-Bold
 73
     1
 44
1.0
1001
ACAD
1000
ACAD_MTEXT_DEFINED_HEIGHT_BEGIN
1070
    46
1040
0.0
1000
ACAD_MTEXT_DEFINED_HEIGHT_END
1000
MTEXTBEGIN
1070
    73
1070
     1
1070
    44
1040
1.0
1070
    74
1070
     0
1000
MTEXTEND
  0
MTEXT
  5
3F04
330
2F25
100
AcDbEntity
  8
APL Border
100
AcDbMText
 10
41.0235011705131
 20
266.896725027583
 30
0.0
 40
1.7952
 41
30.95767261408979
 71
     1
 72
     5
  1
{\fHelvetica|b1|i0|c0|p34;M}
  7
Arial-Bold
 73
     1
 44
1.0
1001
ACAD
1000
ACAD_MTEXT_DEFINED_HEIGHT_BEGIN
1070
    46
1040
0.0
1000
ACAD_MTEXT_DEFINED_HEIGHT_END
1000
MTEXTBEGIN
1070
    73
1070
     1
1070
    44
1040
1.0
1070
    74
1070
     0
1000
MTEXTEND
  0
LINE
  5
3F05
330
2F25
100
AcDbEntity
  8
APL Border
  6
Continuous
 62
     7
100
AcDbLine
 10
41.70908137065771
 20
270.2770284694538
 30
0.0
 11
43.84414652821283
 21
268.3198854083617
 31
0.0
  0
LINE
  5
3F06
330
2F25
100
AcDbEntity
  8
APL Border
  6
Continuous
 62
     7
100
AcDbLine
 10
41.50635182876453
 20
269.7882982112001
 30
0.0
 11
43.10825670458837
 21
268.3198854083617
 31
0.0
  0
LINE
  5
3F07
330
2F25
100
AcDbEntity
  8
APL Border
  6
Continuous
 62
     7
100
AcDbLine
 10
16.23666497688032
 20
270.2770284694538
 30
0.0
 11
14.1015998193252
 21
268.3198854083617
 31
0.0
  0
LINE
  5
3F08
330
2F25
100
AcDbEntity
  8
APL Border
  6
Continuous
 62
     7
100
AcDbLine
 10
16.48130785951684
 20
269.8267187735482
 30
0.0
 11
15.77158064937998
 21
269.1761354975895
 31
0.0
  0
LINE
  5
3F09
330
2F25
100
AcDbEntity
  8
APL Border
  6
Continuous
 62
     7
100
AcDbLine
 10
15.3712559323385
 20
268.8091711736347
 30
0.0
 11
14.83748964294966
 21
268.3198854083617
 31
0.0
  0
LINE
  5
3F0A
330
2F25
100
AcDbEntity
  8
APL Border
  6
Continuous
 62
     7
100
AcDbLine
 10
17.06469899028093
 20
269.1761354975895
 30
0.0
 11
16.66437427323944
 21
268.8091711736347
 31
0.0
  0
LINE
  5
3F0B
330
2F25
100
AcDbEntity
  8
APL Border
  6
Continuous
 62
     7
100
AcDbLine
 10
28.97287317376902
 20
282.1899999999999
 30
0.0
 11
40.72327317376903
 21
271.4187999999999
 31
0.0
  0
LINE
  5
3F0C
102
{ACAD_REACTORS
330
3ED8
102
}
330
2F25
100
AcDbEntity
  8
APL Border
  6
Continuous
 62
     7
100
AcDbLine
 10
36.18515525927967
 20
269.1761354975895
 30
0.0
 11
37.29060626571004
 21
268.3198854083617
 31
0.0
  0
LINE
  5
3F0D
102
{ACAD_REACTORS
330
3ED8
102
}
330
2F25
100
AcDbEntity
  8
APL Border
  6
Continuous
 62
     7
100
AcDbLine
 10
34.97119637019967
 20
269.5430998215442
 30
0.0
 11
36.55041209367164
 21
268.3198854083617
 31
0.0
  0
ENDBLK
  5
2F27
330
2F25
100
AcDbEntity
  8
0
100
AcDbBlockEnd
  0
BLOCK
  5
2FA2
330
2FA1
100
AcDbEntity
  8
0
100
AcDbBlockBegin
  2
08025
 70
     0
 10
0.0
 20
0.0
 30
0.0
  3
08025
  1
08025.dwg
  0
LWPOLYLINE
  5
422B
330
2FA1
100
AcDbEntity
  8
APL Joinery
  6
Continuous
100
AcDbPolyline
 90
       71
 70
     1
 43
0.0
 10
-5.976415094338976
 20
75.74503062088307
 42
-1.0
 10
-7.123584905659339
 20
76.86037873873407
 42
2.366997536942897
 10
-9.776415094338592
 20
76.86037873873384
 42
-0.9999999999999996
 10
-10.92358490565921
 20
75.74503062088247
 42
-0.1380297893446888
 10
-11.81481481481364
 20
77.38808054099871
 42
0.8944271909998759
 10
-12.99999999999966
 20
77.25557280899869
 10
-13.0
 20
73.19999999999983
 42
-0.4142135623731034
 10
-14.29999999999927
 20
71.8999999999998
 10
-16.75
 20
71.89999999999963
 42
-0.4142135623730951
 10
-17.0
 20
72.14999999999964
 10
-17.0
 20
73.94999999999981
 42
-0.9999999999999998
 10
-16.0
 20
73.94999999999981
 10
-16.0
 20
73.19999999999982
 10
-14.5
 20
73.19999999999982
 10
-14.5
 20
78.69999999999982
 10
-16.0
 20
78.69999999999982
 10
-16.0
 20
77.94999999999982
 42
-0.9999999999999998
 10
-17.0
 20
77.94999999999982
 10
-17.0
 20
79.75
 42
-0.4142135623730951
 10
-16.75
 20
80.0
 10
-15.29999999999927
 20
80.0
 10
-15.29999999999927
 20
81.75
 42
-0.4142135623730951
 10
-15.04999999999927
 20
82.0
 10
-0.5
 20
82.0
 42
-0.4142135623730951
 10
0.0
 20
81.5
 10
0.0
 20
0.25
 42
-0.4142135623730951
 10
-0.25
 20
0.0
 10
-1.75
 20
0.0
 42
-0.4142135623730951
 10
-2.0
 20
0.25
 10
-2.0
 20
3.0
 10
-2.716506350946133
 20
4.241025403784078
 42
-0.5773502691899033
 10
-2.5
 20
4.616025403784078
 10
-2.0
 20
4.616025403784078
 10
-2.0
 20
15.0
 42
0.4142135623730951
 10
-3.0
 20
16.0
 10
-45.0
 20
16.0
 42
0.4142135623730951
 10
-46.0
 20
15.0
 10
-46.0
 20
4.616025403784078
 10
-45.49999999999999
 20
4.616025403784078
 42
-0.5773502691899033
 10
-45.28349364905387
 20
4.241025403784078
 10
-46.0
 20
3.0
 10
-46.0
 20
0.25
 42
-0.4142135623730951
 10
-46.25
 20
0.0
 10
-47.75
 20
0.0
 42
-0.4142135623730951
 10
-48.0
 20
0.25
 10
-48.0
 20
62.75
 42
-0.4142135623730951
 10
-47.75
 20
62.99999999999977
 10
-46.97474487139152
 20
62.99999999999977
 42
-0.3563939586925993
 10
-45.50505102572162
 20
61.79999999999978
 42
-0.4744978678080451
 10
-45.75
 20
61.49999999999977
 10
-46.5
 20
61.49999999999977
 10
-46.5
 20
58.49999999999977
 10
-46.19999999999982
 20
58.49999999999977
 10
-46.19999999999959
 20
54.9999999999998
 42
0.4142135623731365
 10
-45.99999999999954
 20
54.79999999999995
 10
-34.04999999999973
 20
54.79999999999995
 42
0.4142135623730951
 10
-33.79999999999973
 20
55.04999999999995
 10
-33.79999999999973
 20
58.69999999999959
 42
-0.4142135623730951
 10
-33.30000000000018
 20
59.19999999999982
 10
-27.0
 20
59.19999999999982
 42
0.4142135623730951
 10
-26.5
 20
59.69999999999981
 10
-26.5
 20
61.5
 42
0.4142135623730951
 10
-27.0
 20
62.0
 10
-29.5
 20
62.0
 42
-0.9999999999999998
 10
-29.5
 20
63.0
 10
-4.0
 20
63.0
 42
0.4142135623730951
 10
-2.0
 20
65.0
 10
-2.0
 20
79.0
 42
0.4142135623730951
 10
-3.0
 20
80.0
 10
-4.737857761345367
 20
80.0
 42
0.5204832016756438
 10
-5.207749183959784
 20
79.32911392405056
 42
-0.2875912244633886
  0
LWPOLYLINE
  5
422C
330
2FA1
100
AcDbEntity
  8
APL Joinery
  6
Continuous
100
AcDbPolyline
 90
       38
 70
     1
 43
0.0
 10
-21.20500000000003
 20
52.38007812612234
 42
-1.000000000000035
 10
-22.49500000000033
 20
53.63542668329647
 42
2.368487253623623
 10
-25.50499999999999
 20
53.63542668329679
 42
-0.9999999999999998
 10
-26.7949999999997
 20
52.38007812612203
 42
-0.294049235910349
 10
-27.63300981702219
 20
56.51818181818175
 42
0.5279300905746681
 10
-28.09878030638401
 20
57.19999999999981
 10
-31.29999999999973
 20
57.19999999999981
 42
0.4142135623730953
 10
-31.79999999999973
 20
56.69999999999959
 10
-31.79999999999973
 20
55.04999999999916
 42
-0.4142135623730951
 10
-34.04999999999973
 20
52.79999999999915
 10
-35.83785776134539
 20
52.79999999999915
 42
0.5204832016756554
 10
-36.30774918395978
 20
52.12911392404979
 42
-0.2875912244633451
 10
-37.07641509433859
 20
48.54503062088269
 42
-0.9999999999999447
 10
-38.22358490566007
 20
49.66037873873442
 42
2.366997536942683
 10
-40.87641509433962
 20
49.6603787387341
 42
-0.9999999999999996
 10
-42.02358490566015
 20
48.54503062088284
 42
-0.2875912244633512
 10
-42.79225081603982
 20
52.12911392405
 42
0.5204832016754871
 10
-43.26214223865429
 20
52.79999999999995
 10
-45.0
 20
52.79999999999995
 42
0.4142135623730951
 10
-46.0
 20
51.79999999999996
 10
-46.0
 20
19.0
 42
0.4142135623730951
 10
-45.0
 20
18.0
 10
-28.0987803063835
 20
18.0
 42
0.5279300905750312
 10
-27.633009817022
 20
18.68181818181804
 42
-0.2940492359103961
 10
-26.79499999999963
 20
22.81992187387788
 42
-0.999999999999995
 10
-25.50500000000003
 20
21.56457331670345
 42
2.368487253623622
 10
-22.49499999999944
 20
21.56457331670337
 42
-0.9999999999999998
 10
-21.20500000000003
 20
22.81992187387796
 42
-0.2940492359103895
 10
-20.36699018297821
 20
18.68181818181819
 42
0.5279300905750869
 10
-19.90121969361644
 20
18.00000000000003
 10
-3.0
 20
18.0
 42
0.4142135623730951
 10
-2.0
 20
19.0
 10
-2.0
 20
60.0
 42
0.4142135623730951
 10
-3.0
 20
61.0
 10
-24.0
 20
61.0
 42
0.4142135623730951
 10
-24.5
 20
60.5
 10
-24.5
 20
59.50000000000091
 42
0.4142135623733615
 10
-23.99999999999999
 20
59.00000000000045
 42
-0.6632671881071989
  0
LWPOLYLINE
  5
422D
330
2FA1
100
AcDbEntity
  8
APL Joinery
  6
Continuous
100
AcDbPolyline
 90
        2
 70
     0
 43
0.0
 10
-46.19999999999982
 20
58.49999999999977
 10
-46.5
 20
58.49999999999977
  0
HATCH
  5
422E
330
2FA1
100
AcDbEntity
  8
APL Hatch
100
AcDbHatch
 10
0.0
 20
0.0
 30
0.0
210
0.0
220
0.0
230
1.0
  2
SOLID
 70
     1
 71
     0
 91
        3
 92
       16
 93
       38
 72
     2
 10
-21.8500000000002
 20
53.00775240470938
 40
0.8999999999999918
 50
44.22004442766737
 51
224.220044427671
 73
     0
 72
     2
 10
-24.0
 20
55.10000000000001
 40
2.099999999999763
 50
315.7799555723104
 51
584.2200444276774
 73
     1
 72
     2
 10
-26.14999999999984
 20
53.00775240470941
 40
0.8999999999999982
 50
315.7799555723034
 51
495.7799555723034
 73
     0
 72
     2
 10
-23.99999999999955
 20
55.10000000000042
 40
3.900000000000371
 50
135.779955572314
 51
201.323686263488
 73
     0
 72
     2
 10
-28.09878030638424
 20
56.69999999999967
 40
0.5000000000001489
 50
338.6763137365396
 51
449.9999999999739
 73
     1
 72
     1
 10
-28.09878030638401
 20
57.19999999999981
 11
-31.29999999999973
 21
57.19999999999981
 72
     2
 10
-31.29999999999962
 20
56.6999999999997
 40
0.5000000000001137
 50
90.00000000001303
 51
180.000000000013
 73
     1
 72
     1
 10
-31.79999999999973
 20
56.69999999999959
 11
-31.79999999999973
 21
55.04999999999916
 72
     2
 10
-34.04999999999973
 20
55.04999999999916
 40
2.25
 50
360.0
 51
450.0
 73
     0
 72
     1
 10
-34.04999999999973
 20
52.79999999999915
 11
-35.83785776134539
 21
52.79999999999915
 72
     2
 10
-35.83785776134542
 20
52.29999999999922
 40
0.4999999999999432
 50
89.99999999999674
 51
199.9848799707318
 73
     1
 72
     2
 10
-39.54999999999883
 20
50.94999999999886
 40
3.449999999999511
 50
340.0151200292695
 51
404.1942037229234
 73
     0
 72
     2
 10
-37.6499999999993
 20
49.10270467980859
 40
0.8000000000004362
 50
44.19420372292659
 51
224.1942037229201
 73
     0
 72
     2
 10
-39.55
 20
50.9499999999999
 40
1.850000000000208
 50
315.8057962770787
 51
584.1942037229356
 73
     1
 72
     2
 10
-41.44999999999988
 20
49.10270467980847
 40
0.7999999999999274
 50
315.8057962770656
 51
495.8057962770651
 73
     0
 72
     2
 10
-39.55000000000037
 20
50.94999999999972
 40
3.449999999999667
 50
135.8057962770628
 51
199.9848799707181
 73
     0
 72
     2
 10
-43.26214223865456
 20
52.2999999999996
 40
0.5000000000003546
 50
340.0151200292636
 51
449.999999999969
 73
     1
 72
     1
 10
-43.26214223865429
 20
52.79999999999995
 11
-45.0
 21
52.79999999999995
 72
     2
 10
-45.0
 20
51.79999999999996
 40
1.0
 50
90.0
 51
180.0
 73
     1
 72
     1
 10
-46.0
 20
51.79999999999996
 11
-46.0
 21
19.0
 72
     2
 10
-45.0
 20
19.0
 40
1.0
 50
180.0
 51
270.0
 73
     1
 72
     1
 10
-45.0
 20
18.0
 11
-28.0987803063835
 21
18.0
 72
     2
 10
-28.0987803063836
 20
18.49999999999982
 40
0.4999999999998224
 50
270.000000000011
 51
381.3236862635102
 73
     1
 72
     2
 10
-23.99999999999994
 20
20.09999999999965
 40
3.899999999999941
 50
158.6763137365051
 51
224.2200444276891
 73
     0
 72
     2
 10
-26.14999999999983
 20
22.19224759529066
 40
0.8999999999998459
 50
224.2200444276918
 51
404.2200444276912
 73
     0
 72
     2
 10
-23.99999999999977
 20
20.09999999999958
 40
2.100000000000411
 50
135.7799555723148
 51
404.220044427682
 73
     1
 72
     2
 10
-21.84999999999974
 20
22.19224759529067
 40
0.8999999999998367
 50
135.7799555723003
 51
315.7799555723006
 73
     0
 72
     2
 10
-24.00000000000003
 20
20.10000000000017
 40
3.899999999999854
 50
315.7799555723187
 51
381.3236862635013
 73
     0
 72
     2
 10
-19.90121969361648
 20
18.49999999999998
 40
0.4999999999999444
 50
158.6763137364954
 51
270.0000000000049
 73
     1
 72
     1
 10
-19.90121969361644
 20
18.00000000000003
 11
-3.0
 21
18.0
 72
     2
 10
-3.0
 20
19.0
 40
1.0
 50
270.0
 51
360.0
 73
     1
 72
     1
 10
-2.0
 20
19.0
 11
-2.0
 21
60.0
 72
     2
 10
-3.0
 20
60.0
 40
1.0
 50
0.0
 51
90.0
 73
     1
 72
     1
 10
-3.0
 20
61.0
 11
-24.0
 21
61.0
 72
     2
 10
-24.0
 20
60.5
 40
0.5
 50
90.0
 51
180.0
 73
     1
 72
     1
 10
-24.5
 20
60.5
 11
-24.5
 21
59.50000000000091
 72
     2
 10
-24.0
 20
59.50000000000045
 40
0.5000000000000036
 50
179.9999999999479
 51
270.0000000000004
 73
     1
 72
     2
 10
-23.99999999999971
 20
55.10000000000054
 40
3.899999999999906
 50
269.9999999999958
 51
404.2200444276889
 73
     0
 97
        0
 92
        1
 93
       71
 72
     2
 10
-6.549999999999158
 20
76.30270467980857
 40
0.7999999999997759
 50
44.19420372293214
 51
224.1942037229322
 73
     0
 72
     2
 10
-8.449999999999075
 20
78.14999999999961
 40
1.850000000000109
 50
315.805796277073
 51
584.1942037229367
 73
     1
 72
     2
 10
-10.3499999999989
 20
76.30270467980816
 40
0.7999999999999951
 50
315.8057962770647
 51
495.8057962770648
 73
     0
 72
     2
 10
-8.449999999998937
 20
78.1499999999994
 40
3.450000000000063
 50
135.8057962770678
 51
167.2412595831016
 73
     0
 72
     2
 10
-12.39999999999924
 20
77.25557280899863
 40
0.6000000000004224
 50
12.7587404168854
 51
179.9999999999945
 73
     1
 72
     1
 10
-12.99999999999966
 20
77.25557280899869
 11
-13.0
 21
73.19999999999983
 72
     2
 10
-14.29999999999963
 20
73.19999999999943
 40
1.299999999999631
 50
359.9999999999824
 51
449.9999999999841
 73
     0
 72
     1
 10
-14.29999999999927
 20
71.8999999999998
 11
-16.75
 21
71.89999999999963
 72
     2
 10
-16.75
 20
72.14999999999964
 40
0.25
 50
90.0
 51
180.0
 73
     0
 72
     1
 10
-17.0
 20
72.14999999999964
 11
-17.0
 21
73.94999999999981
 72
     2
 10
-16.5
 20
73.94999999999981
 40
0.5
 50
180.0
 51
360.0
 73
     0
 72
     1
 10
-16.0
 20
73.94999999999981
 11
-16.0
 21
73.19999999999982
 72
     1
 10
-16.0
 20
73.19999999999982
 11
-14.5
 21
73.19999999999982
 72
     1
 10
-14.5
 20
73.19999999999982
 11
-14.5
 21
78.69999999999982
 72
     1
 10
-14.5
 20
78.69999999999982
 11
-16.0
 21
78.69999999999982
 72
     1
 10
-16.0
 20
78.69999999999982
 11
-16.0
 21
77.94999999999982
 72
     2
 10
-16.5
 20
77.94999999999982
 40
0.5
 50
360.0
 51
540.0
 73
     0
 72
     1
 10
-17.0
 20
77.94999999999982
 11
-17.0
 21
79.75
 72
     2
 10
-16.75
 20
79.75
 40
0.25
 50
180.0
 51
270.0
 73
     0
 72
     1
 10
-16.75
 20
80.0
 11
-15.29999999999927
 21
80.0
 72
     1
 10
-15.29999999999927
 20
80.0
 11
-15.29999999999927
 21
81.75
 72
     2
 10
-15.04999999999927
 20
81.75
 40
0.25
 50
180.0
 51
270.0
 73
     0
 72
     1
 10
-15.04999999999927
 20
82.0
 11
-0.5
 21
82.0
 72
     2
 10
-0.5
 20
81.5
 40
0.5
 50
270.0
 51
360.0
 73
     0
 72
     1
 10
0.0
 20
81.5
 11
0.0
 21
0.25
 72
     2
 10
-0.25
 20
0.25
 40
0.25
 50
360.0
 51
450.0
 73
     0
 72
     1
 10
-0.25
 20
0.0
 11
-1.75
 21
0.0
 72
     2
 10
-1.75
 20
0.25
 40
0.25
 50
90.0
 51
180.0
 73
     0
 72
     1
 10
-2.0
 20
0.25
 11
-2.0
 21
3.0
 72
     1
 10
-2.0
 20
3.0
 11
-2.716506350946133
 21
4.241025403784078
 72
     2
 10
-2.500000000000115
 20
4.366025403784131
 40
0.2499999999999467
 50
149.9999999999788
 51
270.0000000000265
 73
     0
 72
     1
 10
-2.5
 20
4.616025403784078
 11
-2.0
 21
4.616025403784078
 72
     1
 10
-2.0
 20
4.616025403784078
 11
-2.0
 21
15.0
 72
     2
 10
-3.0
 20
15.0
 40
1.0
 50
0.0
 51
90.0
 73
     1
 72
     1
 10
-3.0
 20
16.0
 11
-45.0
 21
16.0
 72
     2
 10
-45.0
 20
15.0
 40
1.0
 50
90.0
 51
180.0
 73
     1
 72
     1
 10
-46.0
 20
15.0
 11
-46.0
 21
4.616025403784078
 72
     1
 10
-46.0
 20
4.616025403784078
 11
-45.49999999999999
 21
4.616025403784078
 72
     2
 10
-45.49999999999989
 20
4.366025403784131
 40
0.2499999999999467
 50
269.9999999999739
 51
390.0000000000209
 73
     0
 72
     1
 10
-45.28349364905387
 20
4.241025403784078
 11
-46.0
 21
3.0
 72
     1
 10
-46.0
 20
3.0
 11
-46.0
 21
0.25
 72
     2
 10
-46.25
 20
0.25
 40
0.25
 50
360.0
 51
450.0
 73
     0
 72
     1
 10
-46.25
 20
0.0
 11
-47.75
 21
0.0
 72
     2
 10
-47.75
 20
0.25
 40
0.25
 50
90.0
 51
180.0
 73
     0
 72
     1
 10
-48.0
 20
0.25
 11
-48.0
 21
62.75
 72
     2
 10
-47.75000000000011
 20
62.74999999999988
 40
0.2499999999998863
 50
180.000000000026
 51
270.000000000026
 73
     0
 72
     1
 10
-47.75
 20
62.99999999999977
 11
-46.97474487139152
 21
62.99999999999977
 72
     2
 10
-46.97474487139152
 20
61.49999999999979
 40
1.499999999999985
 50
270.0
 51
348.4630409671845
 73
     0
 72
     2
 10
-45.74999999999999
 20
61.74999999999982
 40
0.2500000000000405
 50
348.4630409671937
 51
450.0000000000016
 73
     0
 72
     1
 10
-45.75
 20
61.49999999999977
 11
-46.5
 21
61.49999999999977
 72
     1
 10
-46.5
 20
61.49999999999977
 11
-46.5
 21
58.49999999999977
 72
     1
 10
-46.5
 20
58.49999999999977
 11
-46.19999999999982
 21
58.49999999999977
 72
     1
 10
-46.19999999999982
 20
58.49999999999977
 11
-46.19999999999959
 21
54.9999999999998
 72
     2
 10
-45.99999999999965
 20
54.99999999999989
 40
0.1999999999999318
 50
180.0000000000244
 51
270.0000000000326
 73
     1
 72
     1
 10
-45.99999999999954
 20
54.79999999999995
 11
-34.04999999999973
 21
54.79999999999995
 72
     2
 10
-34.04999999999973
 20
55.04999999999995
 40
0.25
 50
270.0
 51
360.0
 73
     1
 72
     1
 10
-33.79999999999973
 20
55.04999999999995
 11
-33.79999999999973
 21
58.69999999999959
 72
     2
 10
-33.29999999999984
 20
58.69999999999993
 40
0.4999999999998864
 50
179.9999999999609
 51
269.9999999999609
 73
     0
 72
     1
 10
-33.30000000000018
 20
59.19999999999982
 11
-27.0
 21
59.19999999999982
 72
     2
 10
-27.0
 20
59.69999999999981
 40
0.5
 50
270.0
 51
360.0
 73
     1
 72
     1
 10
-26.5
 20
59.69999999999981
 11
-26.5
 21
61.5
 72
     2
 10
-27.0
 20
61.5
 40
0.5
 50
0.0
 51
90.0
 73
     1
 72
     1
 10
-27.0
 20
62.0
 11
-29.5
 21
62.0
 72
     2
 10
-29.5
 20
62.5
 40
0.5
 50
90.0
 51
270.0
 73
     0
 72
     1
 10
-29.5
 20
63.0
 11
-4.0
 21
63.0
 72
     2
 10
-4.0
 20
65.0
 40
2.0
 50
270.0
 51
360.0
 73
     1
 72
     1
 10
-2.0
 20
65.0
 11
-2.0
 21
79.0
 72
     2
 10
-3.0
 20
79.0
 40
1.0
 50
0.0
 51
90.0
 73
     1
 72
     1
 10
-3.0
 20
80.0
 11
-4.737857761345367
 21
80.0
 72
     2
 10
-4.737857761345374
 20
79.5
 40
0.5
 50
89.9999999999992
 51
199.9848799707316
 73
     1
 72
     2
 10
-8.449999999998823
 20
78.14999999999963
 40
3.449999999999505
 50
340.0151200292695
 51
404.1942037229326
 73
     0
 97
        0
 92
       49
 93
        2
 72
     2
 10
-8.450000000000816
 20
78.15000000000171
 40
10.30000000000014
 50
219.8497603995988
 51
220.578211739637
 73
     1
 72
     1
 10
-46.19999999999982
 20
58.49999999999977
 11
-46.5
 21
58.49999999999977
 97
        0
 75
     0
 76
     1
 98
        1
 10
0.0
 20
0.0
  0
ENDBLK
  5
2FA3
330
2FA1
100
AcDbEntity
  8
0
100
AcDbBlockEnd
  0
BLOCK
  5
2FBA
330
2FB9
100
AcDbEntity
  8
0
100
AcDbBlockBegin
  2
08004
 70
     0
 10
0.0
 20
0.0
 30
0.0
  3
08004
  1
08004.dwg
  0
LWPOLYLINE
  5
4230
102
{ACAD_REACTORS
330
4232
102
}
330
2FB9
100
AcDbEntity
  8
APL Joinery
  6
Continuous
100
AcDbPolyline
 90
       84
 70
     1
 43
0.0
 10
0.365505767468477
 20
5.384615384612235
 42
-0.0048309960569738
 10
0.0000000000008527
 20
6.787032781469122
 10
0.0000000000014921
 20
11.74999999999998
 42
-0.414213562373095
 10
0.2500000000014779
 20
11.99999999999997
 10
1.750000000001492
 20
11.99999999999998
 42
-0.4142135623730951
 10
2.000000000001477
 20
11.74999999999997
 10
2.000000000001477
 20
8.099999999998516
 10
5.929108770945845
 20
8.099999999998487
 10
5.929108770945845
 20
14.49999999999998
 42
0.4142135623730951
 10
5.429108770945845
 20
14.99999999999994
 10
5.000000000001477
 20
14.99999999999998
 42
-0.4142135623730951
 10
3.000000000001477
 20
16.99999999999997
 10
3.000000000001477
 20
24.60000000000034
 10
3.400000000001114
 20
24.99999999999997
 10
3.000000000001477
 20
25.40000000000006
 10
3.000000000001506
 20
32.99999999999997
 42
-0.4142135623730951
 10
5.000000000001506
 20
34.99999999999995
 10
5.429108770945873
 20
34.99999999999997
 42
0.4142135623730951
 10
5.929108770945873
 20
35.49999999999994
 10
5.929108770945873
 20
41.90000000000139
 10
2.000000000001506
 20
41.90000000000142
 10
2.000000000001506
 20
38.24999999999997
 42
-0.4142135623730951
 10
1.750000000001506
 20
37.99999999999997
 10
0.2500000000015063
 20
37.99999999999997
 42
-0.4142135623730951
 10
0.0000000000015064
 20
38.24999999999997
 10
0.000000000001279
 20
43.21296721853253
 42
-0.004830996056968
 10
0.3655057674684206
 20
44.61538461538757
 42
-0.3386692097310372
 10
0.6068040311816106
 20
44.80000000000288
 10
2.079108770940052
 20
44.80000000000288
 42
-0.4142135623730951
 10
2.329108770940052
 20
44.55000000000288
 10
2.329108770940052
 20
43.90000000000142
 10
5.929108770945873
 20
43.9000000000014
 10
5.929108770945873
 20
47.99999999999994
 10
2.329108770940052
 20
47.99999999999997
 10
2.329108770940052
 20
47.35000000000215
 42
-0.4142135623730951
 10
2.079108770940052
 20
47.10000000000215
 10
1.424486495394859
 20
47.10000000000215
 42
-0.5062176410645378
 10
1.185922955642581
 20
47.42474916388272
 42
-0.0084581898357935
 10
1.985406388121106
 20
49.83277591973243
 42
-0.3184880486124246
 10
2.221304983098804
 20
49.99999999999997
 10
52.37499999999968
 20
49.99999999999994
 42
-0.9999999999999998
 10
52.37499999999968
 20
49.24999999999994
 10
52.00000000000151
 20
49.24999999999994
 10
52.00000000000151
 20
47.97474487139147
 42
-0.3563939586926118
 10
50.80000000000146
 20
46.50505102572163
 42
-0.4744978678080236
 10
50.5000000000015
 20
46.74999999999994
 10
50.5000000000015
 20
48.49999999999994
 10
48.20000000000042
 20
48.49999999999994
 10
48.20000000000042
 20
27.99999999999997
 42
0.4142135623730951
 10
48.70000000000039
 20
27.49999999999995
 10
50.5000000000015
 20
27.49999999999995
 42
0.4142135623730951
 10
51.00000000000147
 20
27.99999999999994
 10
51.0000000000015
 20
30.49999999999994
 42
-0.9999999999999998
 10
52.00000000000148
 20
30.49999999999994
 10
52.00000000000148
 20
25.99999999999994
 10
51.00000000000057
 20
24.99999999999995
 10
52.00000000000148
 20
23.99999999999995
 10
52.00000000000151
 20
19.49999999999995
 42
-1.0
 10
51.00000000000147
 20
19.49999999999994
 10
51.0000000000015
 20
21.99999999999994
 42
0.4142135623730951
 10
50.50000000000148
 20
22.49999999999994
 10
48.70000000000041
 20
22.49999999999997
 42
0.4142135623730951
 10
48.20000000000039
 20
21.99999999999994
 10
48.20000000000039
 20
1.499999999999943
 10
50.50000000000148
 20
1.499999999999943
 10
50.50000000000148
 20
3.249999999999957
 42
-0.4744978678080925
 10
50.80000000000147
 20
3.494948974278351
 42
-0.3563939586926026
 10
52.00000000000148
 20
2.025255128608421
 10
51.99999999999966
 20
0.7499999999999432
 10
52.37499999999966
 20
0.7499999999999574
 42
-0.9999999999999998
 10
52.37499999999966
 20
-0.0000000000000568
 10
2.221304983098775
 20
0.0000000000000142
 42
-0.3184880486124629
 10
1.98540638812112
 20
0.1672240802674452
 42
-0.0084581898358004
 10
1.18592295564224
 20
2.575250836118228
 42
-0.506217641064572
 10
1.42448649539483
 20
2.899999999997817
 10
2.079108770940024
 20
2.899999999997803
 42
-0.4142135623730951
 10
2.329108770940024
 20
2.649999999997788
 10
2.329108770940024
 20
1.999999999999971
 10
5.929108770945845
 20
1.999999999999943
 10
5.929108770945845
 20
6.099999999998487
 10
2.329108770940024
 20
6.099999999998516
 10
2.329108770940038
 20
5.449999999997046
 42
-0.4142135623730951
 10
2.079108770940024
 20
5.199999999997032
 10
0.6068040311815964
 20
5.199999999997132
 42
-0.3386692097310517
  0
LWPOLYLINE
  5
4231
102
{ACAD_REACTORS
330
4232
102
}
330
2FB9
100
AcDbEntity
  8
APL Joinery
  6
Continuous
100
AcDbPolyline
 90
       43
 70
     1
 43
0.0
 10
32.20000000000039
 20
2.299999999999942
 42
0.4142135623730951
 10
32.00000000000038
 20
2.499999999999943
 10
30.40000000000039
 20
2.499999999999943
 42
0.4142135623730951
 10
30.20000000000039
 20
2.299999999999942
 10
30.20000000000039
 20
1.999999999999943
 10
20.00000000000148
 20
1.999999999999957
 10
20.00000000000148
 20
2.299999999999957
 42
0.4142135623730951
 10
19.80000000000148
 20
2.499999999999957
 10
18.20000000000147
 20
2.499999999999957
 42
0.4142135623730951
 10
18.00000000000148
 20
2.299999999999957
 10
18.00000000000148
 20
1.999999999999975
 10
8.929108770945845
 20
1.999999999999985
 42
-0.414213562373095
 10
7.929108770945845
 20
2.999999999999943
 10
7.929108770945845
 20
14.99999999999998
 42
0.4142135623730951
 10
5.929108770945845
 20
16.99999999999994
 10
5.500000000001477
 20
16.99999999999998
 42
-0.4142135623730951
 10
5.000000000001477
 20
17.49999999999994
 10
5.000000000001506
 20
32.49999999999997
 42
-0.4142135623730951
 10
5.500000000001506
 20
32.99999999999994
 10
5.929108770945873
 20
32.99999999999997
 42
0.4142135623730951
 10
7.929108770945873
 20
34.99999999999995
 10
7.929108770945873
 20
46.99999999999997
 42
-0.4142135623730951
 10
8.929108770945873
 20
47.99999999999994
 10
18.00000000000148
 20
47.99999999999997
 10
18.00000000000148
 20
47.69999999999997
 42
0.4142135623730951
 10
18.20000000000147
 20
47.49999999999997
 10
19.80000000000148
 20
47.49999999999997
 42
0.4142135623730951
 10
20.00000000000148
 20
47.69999999999997
 10
20.00000000000148
 20
47.99999999999997
 10
30.20000000000039
 20
47.99999999999994
 10
30.20000000000039
 20
47.69999999999995
 42
0.4142135623730951
 10
30.40000000000039
 20
47.49999999999994
 10
32.00000000000038
 20
47.49999999999994
 42
0.4142135623730951
 10
32.20000000000039
 20
47.69999999999995
 10
32.20000000000039
 20
47.99999999999994
 10
45.20000000000041
 20
47.99999999999997
 42
-0.4142135623730951
 10
46.20000000000041
 20
46.99999999999994
 10
46.20000000000039
 20
25.99999999999994
 10
47.20000000000129
 20
24.99999999999995
 10
46.20000000000039
 20
23.99999999999995
 10
46.20000000000039
 20
2.999999999999957
 42
-0.4142135623730951
 10
45.20000000000038
 20
1.999999999999943
 10
32.20000000000039
 20
1.999999999999943
  0
HATCH
  5
4232
330
2FB9
100
AcDbEntity
  8
APL Hatch
100
AcDbHatch
 10
0.0
 20
0.0
 30
0.0
210
0.0
220
0.0
230
1.0
  2
SOLID
 70
     1
 71
     1
 91
        2
 92
        7
 72
     1
 73
     1
 93
       84
 10
52.0000000000015
 20
49.24999999999993
 42
0.0
 10
52.37499999999969
 20
49.24999999999994
 42
1.0
 10
52.37499999999968
 20
49.99999999999994
 42
0.0
 10
2.221304983098811
 20
49.99999999999997
 42
0.3184880486124549
 10
1.985406388121116
 20
49.83277591973238
 42
0.0084581898357951
 10
1.185922955642431
 20
47.42474916388222
 42
0.5062176410645379
 10
1.424486495395386
 20
47.10000000000215
 42
0.0
 10
2.079108770940052
 20
47.10000000000215
 42
0.4142135623730951
 10
2.329108770940052
 20
47.35000000000215
 42
0.0
 10
2.329108770940052
 20
47.99999999999998
 42
0.0
 10
5.929108770945873
 20
47.99999999999993
 42
0.0
 10
5.929108770945873
 20
43.9000000000014
 42
0.0
 10
2.329108770940052
 20
43.90000000000142
 42
0.0
 10
2.329108770940052
 20
44.55000000000288
 42
0.4142135623730951
 10
2.079108770940052
 20
44.80000000000288
 42
0.0
 10
0.6068040311816044
 20
44.80000000000288
 42
0.3386692097311101
 10
0.3655057674683926
 20
44.61538461538751
 42
0.0048309960569677
 10
0.000000000001279
 20
43.21296721853257
 42
0.0
 10
0.0000000000015064
 20
38.24999999999996
 42
0.4142135623730784
 10
0.2500000000015063
 20
37.99999999999997
 42
0.0
 10
1.750000000001506
 20
37.99999999999997
 42
0.4142135623730951
 10
2.000000000001506
 20
38.24999999999997
 42
0.0
 10
2.000000000001506
 20
41.90000000000142
 42
0.0
 10
5.929108770945873
 20
41.90000000000139
 42
0.0
 10
5.929108770945873
 20
35.49999999999996
 42
-0.4142135623730758
 10
5.42910877094592
 20
34.99999999999997
 42
0.0
 10
5.000000000001359
 20
34.99999999999995
 42
0.4142135623730747
 10
3.000000000001506
 20
32.99999999999997
 42
0.0
 10
3.000000000001477
 20
25.40000000000006
 42
0.0
 10
3.400000000001113
 20
24.99999999999997
 42
0.0
 10
3.000000000001478
 20
24.60000000000034
 42
0.0
 10
3.000000000001477
 20
16.99999999999998
 42
0.414213562373066
 10
5.000000000001271
 20
14.99999999999998
 42
0.0
 10
5.429108770945916
 20
14.99999999999994
 42
-0.414213562373066
 10
5.929108770945845
 20
14.49999999999996
 42
0.0
 10
5.929108770945845
 20
8.099999999998487
 42
0.0
 10
2.000000000001477
 20
8.099999999998514
 42
0.0
 10
2.000000000001477
 20
11.74999999999998
 42
0.4142135623730978
 10
1.750000000001475
 20
11.99999999999998
 42
0.0
 10
0.2500000000014756
 20
11.99999999999997
 42
0.4142135623730547
 10
0.0000000000014921
 20
11.75000000000002
 42
0.0
 10
0.0000000000008384
 20
6.787032781469125
 42
0.0048309960569733
 10
0.365505767468441
 20
5.384615384612388
 42
0.3386692097310819
 10
0.6068040311814707
 20
5.199999999997132
 42
0.0
 10
2.079108770940007
 20
5.199999999997032
 42
0.4142135623731209
 10
2.329108770940038
 20
5.449999999997052
 42
0.0
 10
2.329108770940024
 20
6.099999999998517
 42
0.0
 10
5.929108770945845
 20
6.099999999998487
 42
0.0
 10
5.929108770945845
 20
1.999999999999943
 42
0.0
 10
2.329108770940024
 20
1.999999999999971
 42
0.0
 10
2.329108770940024
 20
2.649999999997795
 42
0.4142135623730887
 10
2.079108770940022
 20
2.899999999997803
 42
0.0
 10
1.424486495394828
 20
2.899999999997817
 42
0.5062176410645563
 10
1.185922955642221
 20
2.57525083611825
 42
0.0084581898358002
 10
1.985406388121093
 20
0.1672240802675126
 42
0.3184880486124652
 10
2.221304983098702
 20
0.0000000000000142
 42
0.0
 10
52.37499999999966
 20
-0.0000000000000568
 42
1.0
 10
52.37499999999965
 20
0.7499999999999574
 42
0.0
 10
51.99999999999967
 20
0.7499999999999431
 42
0.0
 10
52.00000000000148
 20
2.025255128606301
 42
0.3563939586929925
 10
50.80000000000151
 20
3.494948974278342
 42
0.4744978678080872
 10
50.50000000000148
 20
3.250000000000004
 42
0.0
 10
50.50000000000148
 20
1.499999999999943
 42
0.0
 10
48.20000000000039
 20
1.499999999999943
 42
0.0
 10
48.20000000000039
 20
21.99999999999994
 42
-0.4142135623730993
 10
48.70000000000042
 20
22.49999999999997
 42
0.0
 10
50.50000000000149
 20
22.49999999999994
 42
-0.4142135623730951
 10
51.0000000000015
 20
21.99999999999992
 42
0.0
 10
51.00000000000147
 20
19.49999999999995
 42
1.0
 10
52.00000000000151
 20
19.49999999999996
 42
0.0
 10
52.00000000000148
 20
23.99999999999995
 42
0.0
 10
51.00000000000056
 20
24.99999999999994
 42
0.0
 10
52.00000000000148
 20
25.99999999999994
 42
0.0
 10
52.00000000000148
 20
30.49999999999994
 42
1.0
 10
51.0000000000015
 20
30.49999999999995
 42
0.0
 10
51.00000000000147
 20
27.99999999999992
 42
-0.4142135623730909
 10
50.50000000000149
 20
27.49999999999995
 42
0.0
 10
48.70000000000041
 20
27.49999999999995
 42
-0.4142135623730951
 10
48.20000000000042
 20
27.99999999999994
 42
0.0
 10
48.20000000000042
 20
48.49999999999994
 42
0.0
 10
50.50000000000151
 20
48.49999999999994
 42
0.0
 10
50.5000000000015
 20
46.74999999999995
 42
0.474497867808066
 10
50.80000000000149
 20
46.50505102572163
 42
0.3563939586926115
 10
52.00000000000151
 20
47.9747448713915
 42
0.0
 97
        1
330
4230
 92
       22
 72
     1
 73
     1
 93
       43
 10
45.20000000000039
 20
47.99999999999997
 42
-0.4142135623730972
 10
46.20000000000041
 20
46.99999999999995
 42
0.0
 10
46.20000000000039
 20
25.99999999999995
 42
0.0
 10
47.2000000000013
 20
24.99999999999995
 42
0.0
 10
46.20000000000039
 20
23.99999999999994
 42
0.0
 10
46.20000000000039
 20
2.99999999999995
 42
-0.4142135623730951
 10
45.20000000000037
 20
1.999999999999943
 42
0.0
 10
32.20000000000039
 20
1.999999999999943
 42
0.0
 10
32.20000000000039
 20
2.299999999999941
 42
0.414213562373097
 10
32.00000000000038
 20
2.499999999999943
 42
0.0
 10
30.40000000000039
 20
2.499999999999943
 42
0.4142135623730996
 10
30.20000000000039
 20
2.299999999999943
 42
0.0
 10
30.20000000000039
 20
1.999999999999943
 42
0.0
 10
20.00000000000147
 20
1.999999999999957
 42
0.0
 10
20.00000000000148
 20
2.299999999999955
 42
0.4142135623731031
 10
19.80000000000147
 20
2.499999999999957
 42
0.0
 10
18.20000000000148
 20
2.499999999999957
 42
0.4142135623730996
 10
18.00000000000148
 20
2.299999999999957
 42
0.0
 10
18.00000000000147
 20
1.999999999999975
 42
0.0
 10
8.929108770945822
 20
1.999999999999985
 42
-0.4142135623730945
 10
7.929108770945845
 20
2.999999999999964
 42
0.0
 10
7.929108770945845
 20
14.99999999999996
 42
0.414213562373066
 10
5.929108770946065
 20
16.99999999999994
 42
0.0
 10
5.500000000001406
 20
16.99999999999998
 42
-0.414213562373066
 10
5.000000000001477
 20
17.49999999999996
 42
0.0
 10
5.000000000001506
 20
32.49999999999996
 42
-0.4142135623730758
 10
5.500000000001459
 20
32.99999999999994
 42
0.0
 10
5.92910877094602
 20
32.99999999999997
 42
0.4142135623730758
 10
7.929108770945873
 20
34.99999999999996
 42
0.0
 10
7.929108770945873
 20
46.99999999999995
 42
-0.4142135623730942
 10
8.929108770945855
 20
47.99999999999994
 42
0.0
 10
18.00000000000148
 20
47.99999999999997
 42
0.0
 10
18.00000000000148
 20
47.69999999999997
 42
0.4142135623731004
 10
18.20000000000148
 20
47.49999999999997
 42
0.0
 10
19.80000000000147
 20
47.49999999999997
 42
0.4142135623731004
 10
20.00000000000148
 20
47.69999999999997
 42
0.0
 10
20.00000000000148
 20
47.99999999999997
 42
0.0
 10
30.20000000000039
 20
47.99999999999994
 42
0.0
 10
30.20000000000039
 20
47.69999999999995
 42
0.4142135623731004
 10
30.40000000000039
 20
47.49999999999994
 42
0.0
 10
32.00000000000038
 20
47.49999999999994
 42
0.4142135623730951
 10
32.20000000000039
 20
47.69999999999995
 42
0.0
 10
32.20000000000039
 20
47.99999999999994
 42
0.0
 97
        1
330
4231
 75
     0
 76
     1
 47
0.0745762021893057
 98
        2
 10
38.29087476670682
 20
48.8480931635857
 10
38.29087476670682
 20
48.8480931635857
  0
ENDBLK
  5
2FBB
330
2FB9
100
AcDbEntity
  8
0
100
AcDbBlockEnd
  0
BLOCK
  5
2FC5
330
2FC4
100
AcDbEntity
  8
0
100
AcDbBlockBegin
  2
08022glaze
 70
     0
 10
0.0
 20
0.0
 30
0.0
  3
08022glaze
  1

  0
INSERT
  5
3BE3
330
2FC4
100
AcDbEntity
  8
APL Joinery
100
AcDbBlockReference
  2
08022
 10
0.0
 20
0.0
 30
0.0
 41
-1.0
 50
180.0
1001
AcDbBlockRepETag
1070
     1
1071
        0
1005
3BE3
  0
INSERT
  5
3BE4
330
2FC4
100
AcDbEntity
  8
APL Joinery
100
AcDbBlockReference
  2
9010312l
 10
32.70000000435539
 20
-16.99999999999988
 30
0.0
 50
180.0
1001
AcDbBlockRepETag
1070
     1
1071
        1
1005
3BE4
  0
INSERT
  5
3BE5
330
2FC4
100
AcDbEntity
  8
APL Joinery
100
AcDbBlockReference
  2
6Glass
 10
35.50000000435529
 20
-18.99999999999977
 30
0.0
1001
AcDbBlockRepETag
1070
     1
1071
        2
1005
3BE5
  0
INSERT
  5
3BE6
330
2FC4
100
AcDbEntity
  8
APL Joinery
100
AcDbBlockReference
  2
9010260R
 10
15.30000000435552
 20
-17.0
 30
0.0
 50
180.0
1001
AcDbBlockRepETag
1070
     1
1071
        3
1005
3BE6
  0
ENDBLK
  5
2FC6
330
2FC4
100
AcDbEntity
  8
0
100
AcDbBlockEnd
  0
BLOCK
  5
2FCD
330
2FCC
100
AcDbEntity
  8
0
100
AcDbBlockBegin
  2
08021glaze
 70
     0
 10
0.0
 20
0.0
 30
0.0
  3
08021glaze
  1

  0
INSERT
  5
3BEE
330
2FCC
100
AcDbEntity
  8
APL Joinery
100
AcDbBlockReference
  2
08021
 10
0.0
 20
0.0
 30
0.0
1001
AcDbBlockRepETag
1070
     1
1071
        0
1005
3BEE
  0
INSERT
  5
3BEF
330
2FCC
100
AcDbEntity
  8
APL Joinery
100
AcDbBlockReference
  2
9010312l
 10
32.70000000435539
 20
16.99999999999988
 30
0.0
 41
-1.0
1001
AcDbBlockRepETag
1070
     1
1071
        1
1005
3BEF
  0
INSERT
  5
3BF0
330
2FCC
100
AcDbEntity
  8
APL Joinery
100
AcDbBlockReference
  2
6Glass
 10
35.50000000435529
 20
18.99999999999977
 30
0.0
 41
-1.0
 50
180.0
1001
AcDbBlockRepETag
1070
     1
1071
        2
1005
3BF0
  0
INSERT
  5
3BF1
330
2FCC
100
AcDbEntity
  8
APL Joinery
100
AcDbBlockReference
  2
9010260R
 10
15.30000000435552
 20
17.0
 30
0.0
 41
-1.0
1001
AcDbBlockRepETag
1070
     1
1071
        3
1005
3BF1
  0
ENDBLK
  5
2FCE
330
2FCC
100
AcDbEntity
  8
0
100
AcDbBlockEnd
  0
BLOCK
  5
3092
330
3089
100
AcDbEntity
  8
0
100
AcDbBlockBegin
  2
altherm a4 SM attributes (3)
 70
     2
 10
0.0
 20
0.0
 30
0.0
  3
altherm a4 SM attributes (3)
  1

  0
ATTDEF
  5
308A
330
3089
100
AcDbEntity
  8
APL Border
100
AcDbText
 10
52.85074634753801
 20
277.1900000000007
 30
0.0
 40
3.6
  1
Drawing Title Line 1
  7
Arial-Bold
100
AcDbAttributeDefinition
  3
Drawing Title Line 1
  2
DRAWINGTITLE_1
 70
     0
  0
ATTDEF
  5
308B
330
3089
100
AcDbEntity
  8
APL Border
100
AcDbText
 10
52.85074634753801
 20
271.1900000000007
 30
0.0
 40
3.6
  1
Drawing Title Line 2
  7
Arial-Bold
100
AcDbAttributeDefinition
  3
Drawing Title Line 2
  2
DRAWINGTITLE_2
 70
     0
  0
ATTDEF
  5
308C
330
3089
100
AcDbEntity
  8
APL Border
100
AcDbText
 10
52.85074634753801
 20
265.1900000000007
 30
0.0
 40
3.0
  1
Drawing Title Line 3
  7
Arial-Regular
100
AcDbAttributeDefinition
  3
Drawing Title Line 3
  2
DRAWINGTITLE_3
 70
     0
  0
ATTDEF
  5
308D
330
3089
100
AcDbEntity
  8
APL Border
100
AcDbText
 10
67.85074634753795
 20
258.19
 30
0.0
 40
2.399999999999999
  1
AW123-456
  7
Arial-Regular
100
AcDbAttributeDefinition
  3
CAD Reference
  2
AW123-456
 70
     0
  0
ATTDEF
  5
308E
330
3089
100
AcDbEntity
  8
APL Border
100
AcDbText
 10
100.3507463475379
 20
258.19
 30
0.0
 40
2.399999999999999
  1
1:2
  7
Arial-Regular
100
AcDbAttributeDefinition
  3
Scale
  2
1:2
 70
     0
  0
ATTDEF
  5
308F
330
3089
100
AcDbEntity
  8
APL Border
100
AcDbText
 10
119.3507463475379
 20
258.19
 30
0.0
 40
2.399999999999999
  1
06.06.02
  7
Arial-Regular
100
AcDbAttributeDefinition
  3
Date
  2
06.06.02
 70
     0
  0
ATTDEF
  5
3090
330
3089
100
AcDbEntity
  8
APL Border
100
AcDbText
 10
11.59500000000001
 20
1.189999999999997
 30
0.0
 40
4.5
  1
1.2.34
  7
Arial-Bold
100
AcDbAttributeDefinition
  3
Page Number (Left)
  2
1.2.34
 70
     0
  0
ATTDEF
  5
3091
330
3089
100
AcDbEntity
  8
APL Border
100
AcDbText
 10
172.1168281036835
 20
1.189999999999997
 30
0.0
 40
4.5
  1
1.2.34
  7
Arial-Bold
 72
     2
 11
189.595
 21
1.189999999999997
 31
0.0
100
AcDbAttributeDefinition
  3
Page Number (Right)
  2
1.2.34
 70
     0
  0
ENDBLK
  5
3093
330
3089
100
AcDbEntity
  8
0
100
AcDbBlockEnd
  0
BLOCK
  5
30CC
330
30CB
100
AcDbEntity
  8
0
100
AcDbBlockBegin
  2
08024
 70
     0
 10
0.0
 20
0.0
 30
0.0
  3
08024
  1
08024.dwg
  0
LWPOLYLINE
  5
4235
102
{ACAD_REACTORS
330
4236
102
}
330
30CB
100
AcDbEntity
  8
APL Joinery
  6
Continuous
100
AcDbPolyline
 90
       40
 70
     1
 43
0.0
 10
2.073223304703276
 20
-2.133883476492311
 10
3.173223304703242
 20
-3.233883476489548
 42
0.6681786379193478
 10
3.600000000000306
 20
-3.057106781193393
 10
3.600000000000306
 20
-1.100000000000189
 10
15.90999999999866
 20
-1.100000000000417
 42
-0.4142135623730951
 10
16.40999999999862
 20
-1.600000000000431
 42
0.414213562373195
 10
17.50999999999857
 20
-2.6999999999997
 10
18.65004950616254
 20
-2.699999999999729
 42
3.927182716063912
 10
18.65004950616316
 20
-1.59999999999945
 10
17.50999999999868
 20
-1.600000000000814
 42
0.414213562372829
 10
15.90999999999889
 20
-0.0000000000007923
 10
4.699999999999988
 20
-0.0000000000002238
 10
4.700000000000038
 20
0.0198364968875957
 42
0.3814371313442931
 10
3.72424057796347
 20
1.112797739927518
 42
-0.3886847959560829
 10
1.950769923104132
 20
3.150488954916941
 10
1.950769923104083
 20
7.900002040453632
 42
-0.4142135623730937
 10
2.950769923104069
 20
8.900002040453646
 10
3.750039940743285
 20
8.900002040453674
 42
0.4142135623730951
 10
4.000039940743285
 20
9.150002040453674
 10
4.000039940743285
 20
10.95000204045366
 42
0.9999999999999998
 10
3.000039940743285
 20
10.95000204045366
 10
3.000039940743285
 20
10.20000204045365
 10
1.500039940743171
 20
10.20000204045365
 10
1.500039940743171
 20
15.70000204045365
 10
3.000039940743285
 20
15.70000204045365
 10
3.000039940743285
 20
14.95000204045366
 42
0.9999999999999998
 10
4.000039940743285
 20
14.95000204045366
 10
4.000039940743285
 20
16.75000204045367
 42
0.4142135623730951
 10
3.750039940743285
 20
17.00000204045367
 10
2.300039940743239
 20
17.00000204045367
 10
2.300039940743239
 20
18.75000204045367
 42
0.4142135623730951
 10
2.050039940743239
 20
19.00000204045367
 10
0.2500000000000071
 20
19.00000204045365
 42
0.414213562373094
 10
0.000000000000008
 20
18.75000204045365
 10
0.0
 20
0.287867965644697
 42
0.4142135623730951
 10
0.2878679656441249
 20
0.0000000000001172
 10
2.249999999999943
 20
0.000000000000913
 42
-0.4142135623730951
 10
2.499999999999943
 20
-0.2499999999990869
 10
2.499999999999943
 20
-1.353553390602424
 10
2.073223304703738
 20
-1.780330085899489
 42
0.4142135623730831
  0
HATCH
  5
4236
330
30CB
100
AcDbEntity
  8
APL Hatch
100
AcDbHatch
 10
0.0
 20
0.0
 30
0.0
210
0.0
220
0.0
230
1.0
  2
SOLID
 70
     1
 71
     1
 91
        1
 92
        1
 93
       40
 72
     1
 10
2.073223304703276
 20
-2.133883476492311
 11
3.173223304703242
 21
-3.233883476489548
 72
     2
 10
3.350000000000199
 20
-3.05710678119308
 40
0.2500000000001072
 50
224.9999999999206
 51
359.9999999999283
 73
     1
 72
     1
 10
3.600000000000306
 20
-3.057106781193393
 11
3.600000000000306
 21
-1.100000000000189
 72
     1
 10
3.600000000000306
 20
-1.100000000000189
 11
15.90999999999866
 21
-1.100000000000417
 72
     2
 10
15.90999999999863
 20
-1.600000000000402
 40
0.4999999999999858
 50
270.0000000000033
 51
360.0000000000032
 73
     0
 72
     2
 10
17.50999999999804
 20
-1.600000000000277
 40
1.099999999999422
 50
180.000000000008
 51
270.0000000000276
 73
     1
 72
     1
 10
17.50999999999857
 20
-2.6999999999997
 11
18.65004950616254
 21
-2.699999999999729
 72
     2
 10
19.65999999999875
 20
-2.15000000000015
 40
1.149999999999797
 50
208.5718781422904
 51
511.428121857646
 73
     1
 72
     1
 10
18.65004950616316
 20
-1.59999999999945
 11
17.50999999999868
 21
-1.600000000000814
 72
     2
 10
15.90999999999804
 20
-1.600000000001428
 40
1.600000000000635
 50
0.0000000000219538
 51
89.99999999996992
 73
     1
 72
     1
 10
15.90999999999889
 20
-0.0000000000007923
 11
4.699999999999988
 21
-0.0000000000002238
 72
     1
 10
4.699999999999988
 20
-0.0000000000002238
 11
4.700000000000038
 21
0.0198364968875957
 72
     2
 10
3.600000000000025
 20
0.0198364968876124
 40
1.100000000000012
 50
359.9999999999992
 51
443.514833546125
 73
     1
 72
     2
 10
3.950132537897039
 20
3.10000000000008
 40
2.000000000000031
 50
96.48516645387577
 51
181.4465556865123
 73
     0
 72
     1
 10
1.950769923104132
 20
3.150488954916941
 11
1.950769923104083
 21
7.900002040453632
 72
     2
 10
2.950769923104085
 20
7.900002040453643
 40
1.000000000000002
 50
179.9999999999993
 51
269.9999999999991
 73
     0
 72
     1
 10
2.950769923104069
 20
8.900002040453646
 11
3.750039940743285
 21
8.900002040453674
 72
     2
 10
3.750039940743285
 20
9.150002040453674
 40
0.25
 50
270.0
 51
360.0
 73
     1
 72
     1
 10
4.000039940743285
 20
9.150002040453674
 11
4.000039940743285
 21
10.95000204045366
 72
     2
 10
3.500039940743285
 20
10.95000204045366
 40
0.5
 50
0.0
 51
180.0
 73
     1
 72
     1
 10
3.000039940743285
 20
10.95000204045366
 11
3.000039940743285
 21
10.20000204045365
 72
     1
 10
3.000039940743285
 20
10.20000204045365
 11
1.500039940743171
 21
10.20000204045365
 72
     1
 10
1.500039940743171
 20
10.20000204045365
 11
1.500039940743171
 21
15.70000204045365
 72
     1
 10
1.500039940743171
 20
15.70000204045365
 11
3.000039940743285
 21
15.70000204045365
 72
     1
 10
3.000039940743285
 20
15.70000204045365
 11
3.000039940743285
 21
14.95000204045366
 72
     2
 10
3.500039940743285
 20
14.95000204045366
 40
0.5
 50
180.0
 51
360.0
 73
     1
 72
     1
 10
4.000039940743285
 20
14.95000204045366
 11
4.000039940743285
 21
16.75000204045367
 72
     2
 10
3.750039940743285
 20
16.75000204045367
 40
0.25
 50
0.0
 51
90.0
 73
     1
 72
     1
 10
3.750039940743285
 20
17.00000204045367
 11
2.300039940743239
 21
17.00000204045367
 72
     1
 10
2.300039940743239
 20
17.00000204045367
 11
2.300039940743239
 21
18.75000204045367
 72
     2
 10
2.050039940743239
 20
18.75000204045367
 40
0.25
 50
0.0
 51
90.0
 73
     1
 72
     1
 10
2.050039940743239
 20
19.00000204045367
 11
0.2500000000000071
 21
19.00000204045365
 72
     2
 10
0.250000000000008
 20
18.75000204045365
 40
0.25
 50
90.00000000000019
 51
180.0
 73
     1
 72
     1
 10
0.000000000000008
 20
18.75000204045365
 11
0.0
 21
0.287867965644697
 72
     2
 10
0.2878679656443523
 20
0.2878679656444695
 40
0.2878679656443523
 50
179.9999999999547
 51
269.9999999999548
 73
     1
 72
     1
 10
0.2878679656441249
 20
0.0000000000001172
 11
2.249999999999943
 21
0.000000000000913
 72
     2
 10
2.249999999999943
 20
-0.2499999999990869
 40
0.25
 50
270.0
 51
360.0
 73
     0
 72
     1
 10
2.499999999999943
 20
-0.2499999999990869
 11
2.499999999999943
 21
-1.353553390602424
 72
     1
 10
2.499999999999943
 20
-1.353553390602424
 11
2.073223304703738
 21
-1.780330085899489
 72
     2
 10
2.249999999999925
 20
-1.957106781196131
 40
0.2499999999996855
 50
134.9999999999263
 51
224.999999999924
 73
     1
 97
        1
330
4235
 75
     0
 76
     1
 98
        1
 10
0.0
 20
0.0
  0
ENDBLK
  5
30CD
330
30CB
100
AcDbEntity
  8
0
100
AcDbBlockEnd
  0
BLOCK
  5
30D9
330
30D4
100
AcDbEntity
  8
0
100
AcDbBlockBegin
  2
20mm igu
 70
     0
 10
0.0
 20
0.0
 30
0.0
  3
20mm igu
  1

  0
LINE
  5
30D5
330
30D4
100
AcDbEntity
  8
APL Joinery
 62
     7
100
AcDbLine
 10
-10.29999999999995
 20
6.000000000000028
 30
0.0
 11
-18.29999999999995
 21
6.000000000000028
 31
0.0
  0
LINE
  5
30D6
330
30D4
100
AcDbEntity
  8
APL Joinery
 62
     7
100
AcDbLine
 10
-10.29999999999995
 20
12.00000000000003
 30
0.0
 11
-18.29999999999995
 21
12.00000000000003
 31
0.0
  0
INSERT
  5
30D7
330
30D4
100
AcDbEntity
  8
APL Joinery
100
AcDbBlockReference
  2
6Glass
 10
-30.7999999999999
 20
18.9999999999998
 30
0.0
 50
180.0
  0
INSERT
  5
30D8
330
30D4
100
AcDbEntity
  8
APL Joinery
100
AcDbBlockReference
  2
6Glass
 10
-16.7999999999999
 20
18.9999999999998
 30
0.0
 50
180.0
  0
ENDBLK
  5
30DA
330
30D4
100
AcDbEntity
  8
0
100
AcDbBlockEnd
  0
BLOCK
  5
30E2
330
30E1
100
AcDbEntity
  8
0
100
AcDbBlockBegin
  2
9010250L
 70
     0
 10
121.7743665915091
 20
118.4609762649905
 30
0.0
  3
9010250L
  1
9010250L.dwg
  0
LWPOLYLINE
  5
4239
330
30E1
100
AcDbEntity
  8
APL Joinery
  6
Continuous
 62
   252
100
AcDbPolyline
 90
       35
 70
   129
 43
0.0
 10
128.2214041892004
 20
113.237162025908
 42
0.4340964952257526
 10
127.8564264353586
 20
113.2516672307586
 42
-0.1536145893906839
 10
126.1665848234194
 20
112.3836279395214
 42
-0.4648333009751577
 10
125.8743665871533
 20
112.6300373965773
 10
125.8743665871533
 20
113.8094047359767
 42
-0.2915390373815183
 10
126.1631670868723
 20
114.2626097349353
 42
0.122912838877769
 10
128.3370962921861
 20
116.0230618678046
 42
0.3152263475814818
 10
128.3643015296608
 20
116.8050726870086
 10
128.3054542116656
 20
116.895689610204
 42
0.3630140704661038
 10
127.9375672903661
 20
117.0088437804028
 42
-0.1219902707494916
 10
126.1935750224063
 20
116.0026940736885
 42
-0.4989702342470917
 10
125.8743665871533
 20
116.2429235316861
 10
125.8743665871534
 20
117.2881686513476
 42
-0.3136800272017972
 10
126.2005910348754
 20
117.7569991723576
 42
0.1785411124350255
 10
128.4109533989318
 20
119.6504102703136
 42
0.1279718777770435
 10
128.4743665871533
 20
119.8941149189789
 10
128.4743665871533
 20
121.1878456480732
 42
0.4607623830565047
 10
128.1854567012142
 20
121.4347991270448
 10
121.9854567055696
 20
120.4579297439621
 42
0.3941429072290372
 10
121.7753179169858
 20
120.1891873293035
 10
121.9265167932934
 20
118.4609762649903
 10
123.4743665871533
 20
118.4609762649903
 10
123.4743665871533
 20
115.5609762649902
 10
122.9743665871533
 20
115.5609762649902
 42
0.5486826681767417
 10
122.7478103958356
 20
115.2052772007768
 10
123.9743665871533
 20
112.5762671786926
 10
123.9743665871533
 20
112.0965836934555
 10
123.710969127532
 20
112.0965836934555
 42
0.5773502691896264
 10
123.5060653169642
 20
111.7416798828875
 10
124.600199612073
 20
109.8465836934555
 42
0.2487009021145858
 10
124.997156080752
 20
109.597885439953
 42
0.3109226116934106
 10
125.8972608716131
 20
110.2877394163853
 42
-0.2088596723963019
 10
126.1629196373118
 20
110.5871267326566
 42
0.1426663047989766
 10
128.4040654372803
 20
112.5394783919284
 42
0.3321417186747404
 10
128.3666167137426
 20
113.0688908313857
  0
ENDBLK
  5
30E3
330
30E1
100
AcDbEntity
  8
0
100
AcDbBlockEnd
  0
BLOCK
  5
30E7
330
30E6
100
AcDbEntity
  8
0
100
AcDbBlockBegin
  2
08024glaze
 70
     0
 10
0.0
 20
0.0
 30
0.0
  3
08024glaze
  1

  0
INSERT
  5
3BF9
330
30E6
100
AcDbEntity
  8
APL Joinery
100
AcDbBlockReference
  2
20mm igu
 10
-0.0000000000000568
 20
33.30003994509855
 30
0.0
 41
-1.0
 50
270.0
1001
AcDbBlockRepETag
1070
     1
1071
        0
1005
3BF9
  0
INSERT
  5
3BFA
330
30E6
100
AcDbEntity
  8
APL Joinery
100
AcDbBlockReference
  2
08024
 10
0.0
 20
0.0
 30
0.0
 41
-1.0
 50
270.0
1001
AcDbBlockRepETag
1070
     1
1071
        1
1005
3BFA
  0
INSERT
  5
3BFB
330
30E6
100
AcDbEntity
  8
APL Joinery
100
AcDbBlockReference
  2
9010312l
 10
17.00000204045369
 20
32.70000000435557
 30
0.0
 50
270.0
1001
AcDbBlockRepETag
1070
     1
1071
        2
1005
3BFB
  0
INSERT
  5
3BFC
330
30E6
100
AcDbEntity
  8
APL Joinery
100
AcDbBlockReference
  2
9010250L
 10
17.00000000000011
 20
2.300039945099034
 30
0.0
 41
-1.0
 50
270.0
1001
AcDbBlockRepETag
1070
     1
1071
        3
1005
3BFC
  0
ENDBLK
  5
30E8
330
30E6
100
AcDbEntity
  8
0
100
AcDbBlockEnd
  0
BLOCK
  5
3442
330
3441
100
AcDbEntity
  8
0
100
AcDbBlockBegin
  2
08060
 70
     0
 10
0.0
 20
0.0
 30
0.0
  3
08060
  1
I:\DWG Master BLocks\08060.dwg
  0
LWPOLYLINE
  5
423C
102
{ACAD_REACTORS
330
423E
102
}
330
3441
100
AcDbEntity
  8
APL Joinery
  6
Continuous
100
AcDbPolyline
 90
       78
 70
     1
 43
0.0
 10
2.716506441404304
 20
4.24102563763432
 42
0.5773502691901973
 10
2.50000009050376
 20
4.616025637634322
 10
2.000000090504215
 20
4.616025637634322
 10
2.000000090504215
 20
37.00000023383433
 42
-0.4142135623730951
 10
3.000000090504215
 20
38.00000023383433
 10
45.00000009050433
 20
38.00000023383433
 42
-0.4142135623730951
 10
46.00000009050432
 20
37.00000023383433
 10
46.00000009050432
 20
4.616025637634322
 10
45.50000009050478
 20
4.616025637634322
 42
0.5773502691902004
 10
45.28349373950431
 20
4.241025637634322
 10
46.00000009050432
 20
3.000000233834327
 10
46.00000009050432
 20
0.2500002338343279
 42
0.4142135623730951
 10
46.25000009050433
 20
0.0000002338343279
 10
47.75000009050432
 20
0.0000002338343279
 42
0.4142135623730951
 10
48.00000009050433
 20
0.2500002338343279
 10
48.00000009050433
 20
118.5000002338343
 42
0.4142135623730951
 10
47.50000009050433
 20
119.0000002338343
 10
32.95000009050426
 20
119.0000002338343
 42
0.4142135623730951
 10
32.70000009050426
 20
118.7500002338343
 10
32.70000009050426
 20
117.0000002338343
 10
31.25000009050422
 20
117.0000002338343
 42
0.4142135623730951
 10
31.00000009050422
 20
116.7500002338343
 10
31.00000009050422
 20
114.9500002338343
 42
0.9999999999999998
 10
32.00000009050422
 20
114.9500002338343
 10
32.00000009050422
 20
115.7000002338343
 10
33.50000009050433
 20
115.7000002338343
 10
33.50000009050433
 20
110.2000002338343
 10
32.00000009050422
 20
110.2000002338343
 10
32.00000009050422
 20
110.9500002338343
 42
0.9999999999999998
 10
31.00000009050422
 20
110.9500002338343
 10
31.00000009050422
 20
109.1500002338343
 42
0.4142135623730951
 10
31.25000009050422
 20
108.9000002338343
 10
33.70000009050425
 20
108.9000002338343
 42
0.4142135623731046
 10
35.00000009050433
 20
110.2000002338343
 10
35.00000009050433
 20
114.2555730428343
 42
-0.8944271909998079
 10
36.18518527568967
 20
114.3880807748335
 42
0.1380297893445362
 10
37.07641518484365
 20
112.745030854709
 42
0.9999999999999589
 10
38.223584996164
 20
113.8603789725695
 42
-0.4357933229586278
 10
38.36071437622143
 20
116.5670745049206
 42
0.2216708542867743
 10
38.45000009050688
 20
116.7585710280411
 10
38.45000009050688
 20
116.997295554019
 42
-0.2751860725536734
 10
40.65000009050787
 20
116.9972955540204
 10
40.65000009050786
 20
116.7585710280432
 42
0.2216708542871808
 10
40.73928580479361
 20
116.5670745049224
 42
-0.435793322961291
 10
40.87641518484359
 20
113.8603789725596
 42
0.9999999999999781
 10
42.02358499616589
 20
112.7450308547188
 42
0.2875912244630845
 10
42.79225090648975
 20
116.3291141578851
 42
-0.5204832016754491
 10
43.26214232910428
 20
117.0000002338343
 10
45.00000009050433
 20
117.0000002338343
 42
-0.4142135623730951
 10
46.00000009050432
 20
116.0000002338343
 10
46.00000009050432
 20
102.0000002338343
 42
-0.4142135623730951
 10
44.00000009050432
 20
100.0000002338343
 10
18.50000009050421
 20
100.0000002338343
 42
0.9999999999999998
 10
18.50000009050421
 20
99.00000023383434
 10
21.00000009050422
 20
99.00000023383434
 42
-0.4142135623730951
 10
21.50000009050422
 20
98.50000023383433
 10
21.50000009050422
 20
97.70000023383431
 42
-0.4142135623730951
 10
20.00000009050422
 20
96.20000023383433
 10
14.70000009050426
 20
96.20000023383433
 42
0.4142135623730951
 10
14.20000009050426
 20
95.70000023383432
 10
14.20000009050426
 20
92.05000023383433
 42
-0.4142135623730951
 10
13.95000009050426
 20
91.80000023383433
 10
2.000000090504215
 20
91.80000023383433
 42
-0.4142135623730118
 10
1.800000090504227
 20
92.00000023383433
 10
1.800000090504279
 20
95.25000023383434
 42
0.4142135623730961
 10
1.550000090504279
 20
95.50000023383434
 10
1.500000090504215
 20
95.50000023383432
 10
1.500000090504215
 20
98.50000023383433
 10
2.250000090504215
 20
98.50000023383433
 42
0.474497867807973
 10
2.494949064782535
 20
98.80000023383425
 42
0.3563939586926799
 10
1.025255219104281
 20
100.0000002338343
 10
0.2500000905042157
 20
100.0000002338343
 42
0.4142135623730951
 10
0.0000000905042157
 20
99.75000023383433
 10
0.0000000905042157
 20
0.2500002338343279
 42
0.4142135623730951
 10
0.2500000905042156
 20
0.0000002338343279
 10
1.750000090504215
 20
0.0000002338343279
 42
0.4142135623730951
 10
2.000000090504215
 20
0.2500002338343279
 10
2.000000090504215
 20
3.000000233834327
  0
LWPOLYLINE
  5
423D
102
{ACAD_REACTORS
330
423E
102
}
330
3441
100
AcDbEntity
  8
APL Joinery
  6
Continuous
100
AcDbPolyline
 90
       52
 70
     1
 43
0.0
 10
10.92358499616154
 20
85.54503085471882
 42
-0.9999999999999756
 10
9.776415184839287
 20
86.66037897255966
 42
0.4357933229612831
 10
9.639285804789256
 20
89.36707450492241
 42
-0.2216708542871708
 10
9.550000090503509
 20
89.55857102804321
 10
9.550000090503511
 20
89.7972955540205
 42
0.2751860725536727
 10
7.350000090502534
 20
89.79729555401904
 10
7.350000090502533
 20
89.55857102804115
 42
-0.2216708542867702
 10
7.260714376217057
 20
89.36707450492063
 42
0.4357933229586294
 10
7.123584996159658
 20
86.66037897256948
 42
-0.9999999999999753
 10
5.976415184839268
 20
85.54503085470903
 42
-0.2875912244630766
 10
5.207749274459786
 20
89.12911415788366
 42
0.5204832016754516
 10
4.737857851799901
 20
89.80000023383434
 10
3.000000090504215
 20
89.80000023383434
 42
0.4142135623730951
 10
2.000000090504215
 20
88.80000023383434
 10
2.000000090504215
 20
41.50000023383433
 42
0.4142135623730951
 10
3.000000090504215
 20
40.50000023383432
 10
20.11973552598683
 20
40.50000018083347
 10
20.11973553399332
 20
40.50000018083347
 42
0.6226718666060426
 10
20.91162629399651
 20
42.11066295538378
 42
-0.3731760821528771
 10
21.20500025800988
 20
47.21216965000695
 42
-0.9999999999999943
 10
22.49500025800951
 20
45.95682109283298
 42
0.4062616689884817
 10
22.49500025800992
 20
43.02767445942598
 42
-0.164835510849597
 10
22.74370783457984
 20
42.50623938067062
 42
0.289734776515985
 10
25.25629268143987
 20
42.50623938067056
 42
-0.1648355108495696
 10
25.50500025800959
 20
43.02767445942598
 42
0.4062616689884833
 10
25.50500025800916
 20
45.95682109283252
 42
-0.9999999999999998
 10
26.79500025800965
 20
47.21216965000738
 42
-0.3731760821528768
 10
27.08837422202252
 20
42.11066295538375
 42
0.6226718666060896
 10
27.88026498202578
 20
40.50000018083347
 10
45.00000009050433
 20
40.50000023383432
 42
0.4142135623730951
 10
46.00000009050432
 20
41.50000023383433
 10
46.00000009050432
 20
97.00000023383433
 42
0.4142135623730951
 10
45.00000009050433
 20
98.00000023383432
 10
26.65592478820435
 20
98.00000023383432
 42
0.7190391214360917
 10
26.35411516346274
 20
97.10136387019781
 42
-0.4509422221058406
 10
26.79500009050341
 20
91.27207835995552
 42
-0.9999999999999888
 10
25.50500009050449
 20
92.52742691712176
 42
0.40626147443424
 10
25.5050002580096
 20
95.45657355053327
 42
-0.1648355108495689
 10
25.25629268143986
 20
95.97800862928869
 42
0.2897347765159864
 10
22.74370783457984
 20
95.97800862928862
 42
-0.1648355108495965
 10
22.49500025801019
 20
95.45657355053327
 42
0.4062614744342402
 10
22.49500042551531
 20
92.52742691712176
 10
22.49500009050463
 20
92.52742691713034
 42
-0.9999999999999941
 10
21.20500009050444
 20
91.27207835994694
 42
-0.1781941694399857
 10
20.10859762497057
 20
93.73318205201773
 42
0.394892904749646
 10
19.60969987290429
 20
94.20000023383432
 10
16.70000009050426
 20
94.20000023383432
 42
0.4142135623730951
 10
16.20000009050426
 20
93.70000023383431
 10
16.20000009050426
 20
92.05000023383433
 42
-0.4142135623730951
 10
13.95000009050426
 20
89.80000023383434
 10
12.16214232909993
 20
89.80000023383434
 42
0.5204832016754404
 10
11.69225090648539
 20
89.12911415788519
 42
-0.2875912244630881
  0
HATCH
  5
423E
330
3441
100
AcDbEntity
  8
APL Hatch
100
AcDbHatch
 10
0.0
 20
0.0
 30
0.0
210
0.0
220
0.0
230
1.0
  2
SOLID
 70
     1
 71
     1
 91
        2
 92
        1
 93
       78
 72
     2
 10
2.500000090481191
 20
4.366025637647599
 40
0.2499999999867235
 50
329.9999999947293
 51
449.9999999948275
 73
     1
 72
     1
 10
2.50000009050376
 20
4.616025637634322
 11
2.000000090504215
 21
4.616025637634322
 72
     1
 10
2.000000090504215
 20
4.616025637634322
 11
2.000000090504215
 21
37.00000023383433
 72
     2
 10
3.000000090504215
 20
37.00000023383433
 40
1.0
 50
180.0
 51
270.0
 73
     0
 72
     1
 10
3.000000090504215
 20
38.00000023383433
 11
45.00000009050433
 21
38.00000023383433
 72
     2
 10
45.00000009050433
 20
37.00000023383433
 40
1.0
 50
270.0
 51
360.0
 73
     0
 72
     1
 10
46.00000009050432
 20
37.00000023383433
 11
46.00000009050432
 21
4.616025637634322
 72
     1
 10
46.00000009050432
 20
4.616025637634322
 11
45.50000009050478
 21
4.616025637634322
 72
     2
 10
45.50000009047738
 20
4.366025637618752
 40
0.2500000000155698
 50
89.99999999372072
 51
209.9999999938195
 73
     1
 72
     1
 10
45.28349373950431
 20
4.241025637634322
 11
46.00000009050432
 21
3.000000233834327
 72
     1
 10
46.00000009050432
 20
3.000000233834327
 11
46.00000009050432
 21
0.2500002338343279
 72
     2
 10
46.25000009050433
 20
0.2500002338343279
 40
0.25
 50
180.0
 51
270.0
 73
     1
 72
     1
 10
46.25000009050433
 20
0.0000002338343279
 11
47.75000009050432
 21
0.0000002338343279
 72
     2
 10
47.75000009050432
 20
0.2500002338343279
 40
0.25
 50
270.0
 51
360.0
 73
     1
 72
     1
 10
48.00000009050433
 20
0.2500002338343279
 11
48.00000009050433
 21
118.5000002338343
 72
     2
 10
47.50000009050433
 20
118.5000002338343
 40
0.5
 50
0.0
 51
90.0
 73
     1
 72
     1
 10
47.50000009050433
 20
119.0000002338343
 11
32.95000009050426
 21
119.0000002338343
 72
     2
 10
32.95000009050426
 20
118.7500002338343
 40
0.25
 50
90.0
 51
180.0
 73
     1
 72
     1
 10
32.70000009050426
 20
118.7500002338343
 11
32.70000009050426
 21
117.0000002338343
 72
     1
 10
32.70000009050426
 20
117.0000002338343
 11
31.25000009050422
 21
117.0000002338343
 72
     2
 10
31.25000009050422
 20
116.7500002338343
 40
0.25
 50
90.0
 51
180.0
 73
     1
 72
     1
 10
31.00000009050422
 20
116.7500002338343
 11
31.00000009050422
 21
114.9500002338343
 72
     2
 10
31.50000009050422
 20
114.9500002338343
 40
0.5
 50
180.0
 51
360.0
 73
     1
 72
     1
 10
32.00000009050422
 20
114.9500002338343
 11
32.00000009050422
 21
115.7000002338343
 72
     1
 10
32.00000009050422
 20
115.7000002338343
 11
33.50000009050433
 21
115.7000002338343
 72
     1
 10
33.50000009050433
 20
115.7000002338343
 11
33.50000009050433
 21
110.2000002338343
 72
     1
 10
33.50000009050433
 20
110.2000002338343
 11
32.00000009050422
 21
110.2000002338343
 72
     1
 10
32.00000009050422
 20
110.2000002338343
 11
32.00000009050422
 21
110.9500002338343
 72
     2
 10
31.50000009050422
 20
110.9500002338343
 40
0.5
 50
0.0
 51
180.0
 73
     1
 72
     1
 10
31.00000009050422
 20
110.9500002338343
 11
31.00000009050422
 21
109.1500002338343
 72
     2
 10
31.25000009050422
 20
109.1500002338343
 40
0.25
 50
180.0
 51
270.0
 73
     1
 72
     1
 10
31.25000009050422
 20
108.9000002338343
 11
33.70000009050425
 21
108.9000002338343
 72
     2
 10
33.70000009050431
 20
110.2000002338343
 40
1.300000000000025
 50
269.9999999999975
 51
359.9999999999994
 73
     1
 72
     1
 10
35.00000009050433
 20
110.2000002338343
 11
35.00000009050433
 21
114.2555730428343
 72
     2
 10
35.60000009050437
 20
114.2555730428338
 40
0.600000000000037
 50
180.0000000000448
 51
347.2412595831455
 73
     0
 72
     2
 10
39.5500000905222
 20
115.1500002338311
 40
3.450000000016756
 50
192.7587404167826
 51
224.1942037227821
 73
     1
 72
     2
 10
37.65000009050381
 20
113.3027049136392
 40
0.8000000000030802
 50
224.194203723179
 51
404.1942037231743
 73
     1
 72
     2
 10
39.5500000905086
 20
115.1500002338289
 40
1.849999999999335
 50
135.8057962773135
 51
229.9947991150637
 73
     0
 72
     2
 10
38.20000009050689
 20
116.7585710280411
 40
0.2499999999999938
 50
310.0052008849355
 51
360.0
 73
     1
 72
     1
 10
38.45000009050688
 20
116.7585710280411
 11
38.45000009050688
 21
116.997295554019
 72
     2
 10
39.55000009050859
 20
115.1500002338289
 40
2.149999999999999
 50
239.2276752320019
 51
300.7723247679227
 73
     0
 72
     1
 10
40.65000009050787
 20
116.9972955540204
 11
40.65000009050786
 21
116.7585710280432
 72
     2
 10
40.90000009050784
 20
116.7585710280432
 40
0.2499999999999858
 50
180.0000000000032
 51
229.9947991151558
 73
     1
 72
     2
 10
39.5500000905086
 20
115.1500002338289
 40
1.849999999999339
 50
310.0052008848493
 51
404.1942037231124
 73
     0
 72
     2
 10
41.45000009050476
 20
113.3027049136392
 40
0.7999999999968989
 50
135.8057962773799
 51
315.8057962773775
 73
     1
 72
     2
 10
39.55000009047578
 20
115.1500002337915
 40
3.449999999990563
 50
315.8057962779411
 51
379.98487997154
 73
     1
 72
     2
 10
43.26214232910428
 20
116.5000002338343
 40
0.5000000000000062
 50
160.0151200293018
 51
270.0
 73
     0
 72
     1
 10
43.26214232910428
 20
117.0000002338343
 11
45.00000009050433
 21
117.0000002338343
 72
     2
 10
45.00000009050433
 20
116.0000002338343
 40
1.0
 50
270.0
 51
360.0
 73
     0
 72
     1
 10
46.00000009050432
 20
116.0000002338343
 11
46.00000009050432
 21
102.0000002338343
 72
     2
 10
44.00000009050432
 20
102.0000002338343
 40
2.0
 50
360.0
 51
450.0
 73
     0
 72
     1
 10
44.00000009050432
 20
100.0000002338343
 11
18.50000009050421
 21
100.0000002338343
 72
     2
 10
18.50000009050421
 20
99.50000023383433
 40
0.5
 50
90.0
 51
270.0
 73
     1
 72
     1
 10
18.50000009050421
 20
99.00000023383434
 11
21.00000009050422
 21
99.00000023383434
 72
     2
 10
21.00000009050422
 20
98.50000023383433
 40
0.5
 50
270.0
 51
360.0
 73
     0
 72
     1
 10
21.50000009050422
 20
98.50000023383433
 11
21.50000009050422
 21
97.70000023383431
 72
     2
 10
20.00000009050422
 20
97.70000023383431
 40
1.5
 50
360.0
 51
450.0
 73
     0
 72
     1
 10
20.00000009050422
 20
96.20000023383433
 11
14.70000009050426
 21
96.20000023383433
 72
     2
 10
14.70000009050426
 20
95.70000023383432
 40
0.5
 50
90.0
 51
180.0
 73
     1
 72
     1
 10
14.20000009050426
 20
95.70000023383432
 11
14.20000009050426
 21
92.05000023383433
 72
     2
 10
13.95000009050426
 20
92.05000023383433
 40
0.25
 50
360.0
 51
450.0
 73
     0
 72
     1
 10
13.95000009050426
 20
91.80000023383433
 11
2.000000090504215
 21
91.80000023383433
 72
     2
 10
2.000000090504244
 20
92.00000023383436
 40
0.200000000000017
 50
90.00000000000815
 51
179.9999999999918
 73
     0
 72
     1
 10
1.800000090504227
 20
92.00000023383433
 11
1.800000090504279
 21
95.25000023383434
 72
     2
 10
1.55000009050428
 20
95.25000023383434
 40
0.2499999999999996
 50
0.0
 51
90.0000000000001
 73
     1
 72
     1
 10
1.550000090504279
 20
95.50000023383434
 11
1.500000090504215
 21
95.50000023383432
 72
     1
 10
1.500000090504215
 20
95.50000023383432
 11
1.500000090504215
 21
98.50000023383433
 72
     1
 10
1.500000090504215
 20
98.50000023383433
 11
2.250000090504215
 21
98.50000023383433
 72
     2
 10
2.250000090504203
 20
98.75000023383433
 40
0.25
 50
270.0000000000027
 51
371.5369590327982
 73
     1
 72
     2
 10
1.02525521910862
 20
98.50000023382945
 40
1.50000000000489
 50
11.53695903296505
 51
90.00000000016576
 73
     1
 72
     1
 10
1.025255219104281
 20
100.0000002338343
 11
0.2500000905042157
 21
100.0000002338343
 72
     2
 10
0.2500000905042157
 20
99.75000023383433
 40
0.25
 50
90.0
 51
180.0
 73
     1
 72
     1
 10
0.0000000905042157
 20
99.75000023383433
 11
0.0000000905042157
 21
0.2500002338343279
 72
     2
 10
0.2500000905042157
 20
0.2500002338343279
 40
0.25
 50
180.0
 51
270.0
 73
     1
 72
     1
 10
0.2500000905042156
 20
0.0000002338343279
 11
1.750000090504215
 21
0.0000002338343279
 72
     2
 10
1.750000090504215
 20
0.2500002338343279
 40
0.25
 50
270.0
 51
360.0
 73
     1
 72
     1
 10
2.000000090504215
 20
0.2500002338343279
 11
2.000000090504215
 21
3.000000233834327
 72
     1
 10
2.000000090504215
 20
3.000000233834327
 11
2.716506441404304
 21
4.24102563763432
 97
        1
330
423C
 92
       16
 93
       52
 72
     2
 10
10.35000009050043
 20
86.10270491363925
 40
0.7999999999969166
 50
44.19420372262589
 51
224.1942037226229
 73
     0
 72
     2
 10
8.450000090504241
 20
87.95000023382891
 40
1.849999999999332
 50
315.8057962768893
 51
409.9947991151507
 73
     1
 72
     2
 10
9.800000090503505
 20
89.55857102804321
 40
0.2499999999999961
 50
130.00520088485
 51
180.0
 73
     0
 72
     1
 10
9.550000090503509
 20
89.55857102804321
 11
9.550000090503511
 21
89.7972955540205
 72
     2
 10
8.450000090504239
 20
87.95000023382895
 40
2.149999999999998
 50
59.22767523207737
 51
120.7723247679981
 73
     1
 72
     1
 10
7.350000090502534
 20
89.79729555401904
 11
7.350000090502533
 21
89.55857102804115
 72
     2
 10
7.100000090502551
 20
89.5585710280412
 40
0.2499999999999813
 50
0.0000000000097707
 51
49.99479911507141
 73
     0
 72
     2
 10
8.45000009050425
 20
87.95000023382895
 40
1.849999999999354
 50
130.0052008849368
 51
224.1942037226872
 73
     1
 72
     2
 10
6.550000090499448
 20
86.10270491363927
 40
0.8000000000030844
 50
315.8057962768269
 51
495.8057962768239
 73
     0
 72
     2
 10
8.450000090508329
 20
87.95000023383019
 40
3.450000000009315
 50
135.8057962771191
 51
199.9848799707163
 73
     0
 72
     2
 10
4.737857851822059
 20
89.3000002338177
 40
0.50000000001664
 50
340.0151200318405
 51
450.000000002539
 73
     1
 72
     1
 10
4.737857851799901
 20
89.80000023383434
 11
3.000000090504215
 21
89.80000023383434
 72
     2
 10
3.000000090504215
 20
88.80000023383434
 40
1.0
 50
90.0
 51
180.0
 73
     1
 72
     1
 10
2.000000090504215
 20
88.80000023383434
 11
2.000000090504215
 21
41.50000023383433
 72
     2
 10
3.000000090504215
 20
41.50000023383433
 40
1.0
 50
180.0
 51
270.0
 73
     1
 72
     1
 10
3.000000090504215
 20
40.50000023383432
 11
20.11973552598683
 21
40.50000018083347
 72
     1
 10
20.11973552598683
 20
40.50000018083347
 11
20.11973553399332
 21
40.50000018083347
 72
     2
 10
20.11973553399321
 20
41.50000018083349
 40
1.000000000000028
 50
270.0000000000065
 51
397.63744132234
 73
     1
 72
     2
 10
24.00000025800951
 20
44.49224777612902
 40
3.899999999999686
 50
142.3625586776714
 51
224.2200444276865
 73
     0
 72
     2
 10
21.85000025800969
 20
46.58449537141996
 40
0.8999999999996951
 50
224.2200444276807
 51
404.22004442768
 73
     0
 72
     2
 10
24.00000025800976
 20
44.49224777612969
 40
2.100000000000005
 50
135.7799555723262
 51
224.2200444276897
 73
     1
 72
     2
 10
21.85000025800965
 20
42.40000018083921
 40
0.8999999999998722
 50
315.7799555723492
 51
353.2207959830101
 73
     0
 72
     2
 10
24.0000002580099
 20
44.49224777612994
 40
2.350000000000568
 50
237.6837186148229
 51
302.3162813851748
 73
     1
 72
     2
 10
26.15000025801016
 20
42.40000018083941
 40
0.8999999999999504
 50
186.7792040169733
 51
224.2200444276281
 73
     0
 72
     2
 10
24.00000025800957
 20
44.49224777612903
 40
2.099999999999669
 50
315.7799555723265
 51
404.2200444276903
 73
     1
 72
     2
 10
26.15000025800941
 20
46.58449537141995
 40
0.9000000000003129
 50
135.7799555723184
 51
315.7799555723185
 73
     0
 72
     2
 10
24.00000025800949
 20
44.49224777612951
 40
3.90000000000002
 50
315.7799555723196
 51
397.6374413223346
 73
     0
 72
     2
 10
27.88026498202578
 20
41.50000018083346
 40
0.9999999999999984
 50
142.3625586776587
 51
270.0
 73
     1
 72
     1
 10
27.88026498202578
 20
40.50000018083347
 11
45.00000009050433
 21
40.50000023383432
 72
     2
 10
45.00000009050433
 20
41.50000023383433
 40
1.0
 50
270.0
 51
360.0
 73
     1
 72
     1
 10
46.00000009050432
 20
41.50000023383433
 11
46.00000009050432
 21
97.00000023383433
 72
     2
 10
45.00000009050433
 20
97.00000023383433
 40
1.0
 50
0.0
 51
90.0
 73
     1
 72
     1
 10
45.00000009050433
 20
98.00000023383432
 11
26.65592478820435
 21
98.00000023383432
 72
     2
 10
26.65592478820432
 20
97.50000023383433
 40
0.5
 50
89.99999999999714
 51
232.8704505589972
 73
     1
 72
     2
 10
24.00000009049201
 20
93.99200023382226
 40
3.900000000000328
 50
307.1295494407483
 51
404.2200444274482
 73
     0
 72
     2
 10
26.15000009050396
 20
91.89975263853865
 40
0.8999999999967471
 50
44.22004442752061
 51
224.2200444275198
 73
     0
 72
     2
 10
23.99999916858739
 20
93.99200031989195
 40
2.100000720731582
 50
315.7799714317424
 51
404.2200220152665
 73
     1
 72
     2
 10
26.15000025801017
 20
96.08424782911987
 40
0.8999999999999648
 50
135.7799555723707
 51
173.2207959830254
 73
     0
 72
     2
 10
24.0000002580099
 20
93.99200023382931
 40
2.350000000000556
 50
57.68371861482531
 51
122.3162813851772
 73
     1
 72
     2
 10
21.8500002580098
 20
96.08424782911964
 40
0.8999999999996822
 50
6.779204016965834
 51
44.22004442762661
 73
     0
 72
     2
 10
24.0000013474324
 20
93.99200031989195
 40
2.100000720731578
 50
135.7799779847334
 51
224.2200285682577
 73
     1
 72
     1
 10
22.49500042551531
 20
92.52742691712176
 11
22.49500009050463
 21
92.52742691713034
 72
     2
 10
21.85000009050453
 20
91.89975263853865
 40
0.9000000000031869
 50
315.7799555721171
 51
495.7799555721162
 73
     0
 72
     2
 10
24.00000009051562
 20
93.99200023382931
 40
3.900000000011067
 50
135.7799555723849
 51
176.1948471640845
 73
     0
 72
     2
 10
19.60969987294263
 20
93.70000023379523
 40
0.5000000000390785
 50
3.80515284039623
 51
90.00000000439396
 73
     1
 72
     1
 10
19.60969987290429
 20
94.20000023383432
 11
16.70000009050426
 21
94.20000023383432
 72
     2
 10
16.70000009050426
 20
93.70000023383431
 40
0.5
 50
90.0
 51
180.0
 73
     1
 72
     1
 10
16.20000009050426
 20
93.70000023383431
 11
16.20000009050426
 21
92.05000023383433
 72
     2
 10
13.95000009050426
 20
92.05000023383433
 40
2.25
 50
360.0
 51
450.0
 73
     0
 72
     1
 10
13.95000009050426
 20
89.80000023383434
 11
12.16214232909993
 21
89.80000023383434
 72
     2
 10
12.16214232909992
 20
89.30000023383433
 40
0.5
 50
89.99999999999857
 51
199.9848799706949
 73
     1
 72
     2
 10
8.450000090471387
 20
87.95000023379145
 40
3.449999999990615
 50
340.0151200284591
 51
404.1942037220588
 73
     0
 97
        1
330
423D
 75
     0
 76
     1
 98
        1
 10
0.0
 20
0.0
  0
ENDBLK
  5
3443
330
3441
100
AcDbEntity
  8
0
100
AcDbBlockEnd
  0
BLOCK
  5
3703
330
36EA
100
AcDbEntity
  8
0
100
AcDbBlockBegin
  2
hinges
 70
     0
 10
0.0
 20
0.0
 30
0.0
  3
hinges
  1

  0
LINE
  5
36EB
330
36EA
100
AcDbEntity
  8
APL Joinery
  6
Continuous
 62
     8
100
AcDbLine
 10
84.63951451392949
 20
-68.93513635125282
 30
0.0
 11
79.88951450988134
 21
-68.93513627433685
 31
0.0
  0
ARC
  5
36EC
330
36EA
100
AcDbEntity
  8
APL Joinery
  6
Continuous
 62
     8
100
AcDbCircle
 10
75.88951450988133
 20
-80.03513623385378
 30
-0.0000000000052481
 40
9.000000000000012
100
AcDbArc
 50
94.30122230466089
 51
0.0
  0
ARC
  5
36ED
330
36EA
100
AcDbEntity
  8
APL Joinery
  6
Continuous
 62
     8
100
AcDbCircle
 10
75.88951450988133
 20
-80.03513623385378
 30
-0.0000000000052481
 40
9.000000000000012
100
AcDbArc
 50
180.0
 51
85.6987776953391
  0
LINE
  5
36EE
330
36EA
100
AcDbEntity
  8
APL Joinery
  6
Continuous
 62
     8
100
AcDbLine
 10
79.88951450988134
 20
-68.93513627433685
 30
0.0
 11
79.88951450988134
 21
-35.53513623385379
 31
0.0
  0
LINE
  5
36EF
330
36EA
100
AcDbEntity
  8
APL Joinery
  6
Continuous
 62
     8
100
AcDbLine
 10
76.13951450988134
 20
-35.53513623385379
 30
0.0
 11
76.13951450988134
 21
-70.06330089626408
 31
0.0
  0
LINE
  5
36F0
330
36EA
100
AcDbEntity
  8
APL Joinery
  6
Continuous
 62
     8
100
AcDbLine
 10
71.88951450988134
 20
-68.93513627433685
 30
0.0
 11
71.88951450988134
 21
-35.53513623385379
 31
0.0
  0
LINE
  5
36F1
330
36EA
100
AcDbEntity
  8
APL Joinery
  6
Continuous
 62
     8
100
AcDbLine
 10
75.63951450988134
 20
-35.53513623385379
 30
0.0
 11
75.63951450988134
 21
-70.06330089626408
 31
0.0
  0
LINE
  5
36F2
330
36EA
100
AcDbEntity
  8
APL Joinery
  6
Continuous
 62
     8
100
AcDbLine
 10
66.88951450988134
 20
-80.03513623385378
 30
0.0
 11
66.88951450988134
 21
-69.18513635125282
 31
0.0
  0
CIRCLE
  5
36F3
330
36EA
100
AcDbEntity
  8
APL Joinery
  6
Continuous
 62
     8
100
AcDbCircle
 10
75.88951450988133
 20
-80.03513623385378
 30
-0.0000000000052481
 40
5.0
  0
CIRCLE
  5
36F4
330
36EA
100
AcDbEntity
  8
APL Joinery
  6
Continuous
 62
     8
100
AcDbCircle
 10
75.88951450988133
 20
-80.03513623385378
 30
-0.0000000000052481
 40
5.0
  0
ARC
  5
36F5
330
36EA
100
AcDbEntity
  8
APL Joinery
  6
Continuous
 62
     8
100
AcDbCircle
 10
75.13951450988134
 20
-70.06330089626408
 30
-0.0000000000052481
 40
1.000000000000017
100
AcDbArc
 50
274.3012223046609
 51
0.0
  0
ARC
  5
36F6
330
36EA
100
AcDbEntity
  8
APL Joinery
  6
Continuous
 62
     8
100
AcDbCircle
 10
76.63951450988133
 20
-70.06330089626408
 30
-0.0000000000052481
 40
1.000000000000017
100
AcDbArc
 50
180.0
 51
265.6987776953391
  0
ARC
  5
36F7
330
36EA
100
AcDbEntity
  8
APL Joinery
  6
Continuous
 62
     8
100
AcDbCircle
 10
67.13951450988133
 20
-69.18513635125282
 30
-0.0000000000052481
 40
0.25
100
AcDbArc
 50
90.00000092777014
 51
180.0
  0
LINE
  5
36F8
330
36EA
100
AcDbEntity
  8
APL Joinery
  6
Continuous
 62
     8
100
AcDbLine
 10
67.13951450583317
 20
-68.93513635125282
 30
0.0
 11
71.88951450988134
 21
-68.93513627433685
 31
0.0
  0
ARC
  5
36F9
330
36EA
100
AcDbEntity
  8
APL Joinery
  6
Continuous
 62
     8
100
AcDbCircle
 10
79.38951450988134
 20
-35.53513623385379
 30
-0.0000000000052481
 40
0.5000000000001137
100
AcDbArc
 50
0.0
 51
90.0
  0
ARC
  5
36FA
330
36EA
100
AcDbEntity
  8
APL Joinery
  6
Continuous
 62
     8
100
AcDbCircle
 10
76.63951450988133
 20
-35.53513623385379
 30
-0.0000000000052481
 40
0.5
100
AcDbArc
 50
90.0
 51
180.0
  0
ARC
  5
36FB
330
36EA
100
AcDbEntity
  8
APL Joinery
  6
Continuous
 62
     8
100
AcDbCircle
 10
75.13951450988134
 20
-35.53513623385379
 30
-0.0000000000052481
 40
0.5
100
AcDbArc
 50
0.0
 51
90.0
  0
ARC
  5
36FC
330
36EA
100
AcDbEntity
  8
APL Joinery
  6
Continuous
 62
     8
100
AcDbCircle
 10
72.38951450988134
 20
-35.53513623385379
 30
-0.0000000000052481
 40
0.5000000000001137
100
AcDbArc
 50
90.0
 51
180.0
  0
LINE
  5
36FD
330
36EA
100
AcDbEntity
  8
APL Joinery
  6
Continuous
 62
     8
100
AcDbLine
 10
79.38951450988134
 20
-35.03513623385379
 30
0.0
 11
76.63951450988133
 21
-35.03513623385379
 31
0.0
  0
LINE
  5
36FE
330
36EA
100
AcDbEntity
  8
APL Joinery
  6
Continuous
 62
     8
100
AcDbLine
 10
72.38951450988134
 20
-35.03513623385379
 30
0.0
 11
75.13951450988134
 21
-35.03513623385379
 31
0.0
  0
LINE
  5
36FF
330
36EA
100
AcDbEntity
  8
APL Joinery
  6
Continuous
 62
     8
100
AcDbLine
 10
84.88951450988134
 20
-80.03513623385378
 30
0.0
 11
84.88951450988134
 21
-69.18513635125282
 31
0.0
  0
ARC
  5
3700
330
36EA
100
AcDbEntity
  8
APL Joinery
  6
Continuous
 62
     8
100
AcDbCircle
 10
84.63951450988133
 20
-69.18513635125282
 30
-0.0000000000052481
 40
0.25
100
AcDbArc
 50
0.0
 51
89.99999907217775
  0
ENDBLK
  5
3704
330
36EA
100
AcDbEntity
  8
0
100
AcDbBlockEnd
  0
ENDSEC
  0
SECTION
  2
ENTITIES
  0
INSERT
  5
26AD
330
1F
100
AcDbEntity
  8
APL Joinery
100
AcDbBlockReference
  2
08001
 10
36.00719620859991
 20
153.0000001108873
 30
0.0
  0
INSERT
  5
26E7
330
1F
100
AcDbEntity
  8
APL Joinery
100
AcDbBlockReference
  2
08001
 10
36.00719620859991
 20
437.0000001108865
 30
0.0
 41
-1.0
 50
180.0
  0
INSERT
  5
26F2
330
1F
100
AcDbEntity
  8
APL Joinery
100
AcDbBlockReference
  2
9010317
 10
93.00719620859991
 20
394.0000001108867
 30
0.0
 50
270.0
  0
INSERT
  5
26FB
330
1F
100
AcDbEntity
  8
APL Joinery
100
AcDbBlockReference
  2
19mmliner
 10
86.0071962085999
 20
179.0000001108869
 30
0.0
  0
INSERT
  5
281A
330
1F
100
AcDbEntity
  8
APL Joinery
100
AcDbBlockReference
  2
19mmliner
 10
86.0071962085999
 20
411.000000110887
 30
0.0
 41
-1.0
 50
180.0
  0
TEXT
  5
283A
330
1F
100
AcDbEntity
  8
APL Notes
100
AcDbText
 10
9.725218354406479
 20
429.780357558245
 30
0.0
 40
5.0
  1
08001
  7
Arial-Bold
100
AcDbText
  0
TEXT
  5
2859
330
1F
100
AcDbEntity
  8
APL Notes
100
AcDbText
 10
10.72521835440648
 20
359.780357558245
 30
0.0
 40
5.0
  1
08025
  7
Arial-Bold
100
AcDbText
  0
TEXT
  5
285A
330
1F
100
AcDbEntity
  8
APL Notes
100
AcDbText
 10
10.72521835440648
 20
329.6637685474864
 30
0.0
 40
5.0
  1
08022
  7
Arial-Bold
100
AcDbText
  0
TEXT
  5
285B
330
1F
100
AcDbEntity
  8
APL Notes
100
AcDbText
 10
10.72521835440648
 20
295.2196426635288
 30
0.0
 40
5.0
  1
08021
  7
Arial-Bold
100
AcDbText
  0
TEXT
  5
285C
330
1F
100
AcDbEntity
  8
APL Notes
100
AcDbText
 10
10.72521835440648
 20
225.2196426635288
 30
0.0
 40
5.0
  1
08060
  7
Arial-Bold
100
AcDbText
  0
TEXT
  5
285D
330
1F
100
AcDbEntity
  8
APL Notes
100
AcDbText
 10
9.725218354406479
 20
155.2196426635288
 30
0.0
 40
5.0
  1
08001
  7
Arial-Bold
100
AcDbText
  0
INSERT
  5
287F
330
1F
100
AcDbEntity
  8
APL Joinery
100
AcDbBlockReference
  2
08022
 10
222.4999991921523
 20
78.75000011087667
 30
0.0
 41
-1.0
 50
90.0
  0
TEXT
  5
28A2
330
1F
100
AcDbEntity
  8
APL Notes
100
AcDbText
 10
227.681811787485
 20
22.73158407958752
 30
0.0
 40
5.0
  1
08004
  7
Arial-Bold
100
AcDbText
  0
TEXT
  5
28A7
330
1F
100
AcDbEntity
  8
APL Notes
100
AcDbText
 10
202.5486034377657
 20
22.73158407958752
 30
0.0
 40
5.0
  1
08022
  7
Arial-Bold
100
AcDbText
  0
INSERT
  5
28D2
330
1F
100
AcDbEntity
  8
APL Joinery
100
AcDbBlockReference
  2
08001
 10
307.4999991921501
 20
34.25000011087681
 30
0.0
 50
90.0
  0
INSERT
  5
28D3
330
1F
100
AcDbEntity
  8
APL Joinery
100
AcDbBlockReference
  2
19mmliner
 10
281.4999991921504
 20
84.2500001108768
 30
0.0
 50
90.0
  0
INSERT
  5
28D4
330
1F
100
AcDbEntity
  8
APL Joinery
100
AcDbBlockReference
  2
9010317
 10
264.4999991921501
 20
91.25000011087681
 30
0.0
 41
-1.0
  0
TEXT
  5
28D8
330
1F
100
AcDbEntity
  8
APL Notes
100
AcDbText
 10
302.2638834945889
 20
22.73158407958752
 30
0.0
 40
5.0
  1
08001
  7
Arial-Bold
100
AcDbText
  0
TEXT
  5
2DD7
330
1F
100
AcDbEntity
  8
APL Notes
100
AcDbText
 10
160.8940123122751
 20
22.91550537509113
 30
0.0
 40
5.0
  1
08022
  7
Arial-Bold
100
AcDbText
  0
INSERT
  5
2DDA
330
1F
100
AcDbEntity
  8
APL Joinery
100
AcDbBlockReference
  2
08022
 10
160.4999991921506
 20
78.75000011087665
 30
0.0
 50
270.0
  0
TEXT
  5
2DE6
330
1F
100
AcDbEntity
  8
APL Notes
100
AcDbText
 10
130.2711596605498
 20
22.91550537509113
 30
0.0
 40
5.0
  1
08006
  7
Arial-Bold
100
AcDbText
  0
TEXT
  5
2DE7
330
1F
100
AcDbEntity
  8
APL Notes
100
AcDbText
 10
74.36802308023505
 20
22.91550537509113
 30
0.0
 40
5.0
  1
08005
  7
Arial-Bold
100
AcDbText
  0
LINE
  5
2E2A
330
1F
100
AcDbEntity
  8
APL Notes
  6
Continuous
 62
     2
100
AcDbLine
 10
322.1397509134752
 20
438.8826619981275
 30
0.0
 11
281.8897509134754
 21
438.8826619981275
 31
0.0
  0
LINE
  5
2E2B
330
1F
100
AcDbEntity
  8
APL Notes
  6
Continuous
 62
     2
100
AcDbLine
 10
322.1397509134752
 20
336.3826619981282
 30
0.0
 11
281.8897509134754
 21
336.3826619981282
 31
0.0
  0
LINE
  5
2E2C
330
1F
100
AcDbEntity
  8
APL Notes
  6
Continuous
 62
     2
100
AcDbLine
 10
326.3897509134747
 20
328.8826619981282
 30
0.0
 11
228.8897509134759
 21
328.8826619981282
 31
0.0
  0
LINE
  5
2E2D
330
1F
100
AcDbEntity
  8
APL Notes
  6
Continuous
 62
     2
100
AcDbLine
 10
326.3897509134747
 20
446.3826619981276
 30
0.0
 11
228.8897509134759
 21
446.3826619981276
 31
0.0
  0
LINE
  5
2E2E
330
1F
100
AcDbEntity
  8
APL Notes
  6
Continuous
 62
     2
100
AcDbLine
 10
330.1397509134747
 20
325.1326619981282
 30
0.0
 11
225.1397509134759
 21
325.1326619981282
 31
0.0
  0
LINE
  5
2E2F
330
1F
100
AcDbEntity
  8
APL Notes
  6
Continuous
 62
     2
100
AcDbLine
 10
330.1397509134747
 20
450.1326619981276
 30
0.0
 11
225.1397509134759
 21
450.1326619981276
 31
0.0
  0
LINE
  5
2E30
330
1F
100
AcDbEntity
  8
APL Notes
  6
Continuous
 62
     8
100
AcDbLine
 10
307.5839594601941
 20
393.2900136638309
 30
0.0
 11
341.99999919215
 21
393.2900136638309
 31
0.0
  0
LINE
  5
2E31
330
1F
100
AcDbEntity
  8
APL Notes
  6
Continuous
 62
     8
100
AcDbLine
 10
328.8897509134747
 20
326.3826619981282
 30
0.0
 11
226.3897509134759
 21
326.3826619981282
 31
0.0
  0
LINE
  5
2E32
330
1F
100
AcDbEntity
  8
APL Notes
  6
Continuous
 62
     8
100
AcDbLine
 10
328.8897509134747
 20
448.8826619981276
 30
0.0
 11
226.3897509134759
 21
448.8826619981276
 31
0.0
  0
LINE
  5
2E34
330
1F
100
AcDbEntity
  8
APL Notes
  6
DASHED
 62
     7
 48
20.0
100
AcDbLine
 10
326.3897509134747
 20
387.6326619981276
 30
0.0
 11
277.6397509134759
 21
328.8826619981282
 31
0.0
  0
LINE
  5
2E35
330
1F
100
AcDbEntity
  8
APL Notes
  6
DASHED
 62
     7
 48
20.0
100
AcDbLine
 10
277.6397509134759
 20
446.3826619981276
 30
0.0
 11
326.3897509134747
 21
387.6326619981276
 31
0.0
  0
LINE
  5
2E36
330
1F
100
AcDbEntity
  8
APL Notes
  6
Continuous
 62
     2
100
AcDbLine
 10
233.1397509134754
 20
328.8826619981282
 30
0.0
 11
233.1397509134754
 21
446.3826619981276
 31
0.0
  0
LINE
  5
2E37
330
1F
100
AcDbEntity
  8
APL Notes
  6
Continuous
 62
     2
100
AcDbLine
 10
273.3897509134751
 20
328.8826619981282
 30
0.0
 11
273.3897509134751
 21
446.3826619981276
 31
0.0
  0
LINE
  5
2E38
330
1F
100
AcDbEntity
  8
APL Notes
  6
Continuous
 62
     2
100
AcDbLine
 10
281.8897509134754
 20
328.8826619981282
 30
0.0
 11
281.8897509134754
 21
446.3826619981276
 31
0.0
  0
LINE
  5
2E39
330
1F
100
AcDbEntity
  8
APL Notes
  6
Continuous
 62
     2
100
AcDbLine
 10
228.8897509134759
 20
328.8826619981282
 30
0.0
 11
228.8897509134759
 21
446.3826619981276
 31
0.0
  0
LINE
  5
2E3A
330
1F
100
AcDbEntity
  8
APL Notes
  6
Continuous
 62
     2
100
AcDbLine
 10
225.1397509134759
 20
325.1326619981282
 30
0.0
 11
225.1397509134759
 21
450.1326619981276
 31
0.0
  0
LINE
  5
2E3B
330
1F
100
AcDbEntity
  8
APL Notes
  6
Continuous
 62
     2
100
AcDbLine
 10
277.6397509134759
 20
328.8826619981282
 30
0.0
 11
277.6397509134759
 21
446.3826619981276
 31
0.0
  0
LINE
  5
2E3C
330
1F
100
AcDbEntity
  8
APL Notes
  6
Continuous
 62
     8
100
AcDbLine
 10
226.3897509134759
 20
326.3826619981282
 30
0.0
 11
226.3897509134759
 21
448.8826619981276
 31
0.0
  0
LINE
  5
2E3D
330
1F
100
AcDbEntity
  8
APL Notes
  6
DASHED
 62
     7
 48
20.0
100
AcDbLine
 10
277.6397509134759
 20
446.3826619981276
 30
0.0
 11
228.8897509134759
 21
387.6326619981276
 31
0.0
  0
LINE
  5
2E3E
330
1F
100
AcDbEntity
  8
APL Notes
  6
Continuous
 62
     2
100
AcDbLine
 10
273.3897509134751
 20
336.3826619981282
 30
0.0
 11
233.1397509134754
 21
336.3826619981282
 31
0.0
  0
LINE
  5
2E3F
330
1F
100
AcDbEntity
  8
APL Notes
  6
DASHED
 62
     7
 48
20.0
100
AcDbLine
 10
228.8897509134759
 20
387.6326619981276
 30
0.0
 11
277.6397509134759
 21
328.8826619981282
 31
0.0
  0
LINE
  5
2E40
330
1F
100
AcDbEntity
  8
APL Notes
  6
Continuous
 62
     8
100
AcDbLine
 10
228.8897509134759
 20
328.8826619981282
 30
0.0
 11
225.1397509134759
 21
325.1326619981282
 31
0.0
  0
LINE
  5
2E41
330
1F
100
AcDbEntity
  8
APL Notes
  6
Continuous
 62
     8
100
AcDbLine
 10
290.3204909998331
 20
393.1046022809269
 30
0.0
 11
260.6000196115431
 21
393.1046022809269
 31
0.0
  0
LEADER
  5
2E45
330
1F
100
AcDbEntity
  8
APL Notes
 62
     8
100
AcDbLeader
  3
ISO-25
 76
     2
 10
260.6000196115431
 20
372.517352997958
 30
0.0
 10
260.6000196115431
 20
393.1046022809269
 30
0.0
1001
ACAD
1000
DSTYLE
1002
{
1070
   147
1040
0.625
1070
    77
1070
     0
1002
}
  0
TEXT
  5
2E46
330
1F
100
AcDbEntity
  8
APL Notes
  6
Continuous
 62
     7
100
AcDbText
 10
258.5531650038015
 20
366.1437518233361
 30
0.0
 40
5.0
  1
B
  7
Arial-Bold
100
AcDbText
  0
LINE
  5
2E4A
330
1F
100
AcDbEntity
  8
APL Notes
  6
Continuous
 62
     2
100
AcDbLine
 10
273.3897509134751
 20
438.8826619981275
 30
0.0
 11
233.1397509134754
 21
438.8826619981275
 31
0.0
  0
LINE
  5
2E4B
330
1F
100
AcDbEntity
  8
APL Notes
  6
Continuous
 62
     8
100
AcDbLine
 10
228.8897509134759
 20
446.3826619981276
 30
0.0
 11
225.1397509134759
 21
450.1326619981276
 31
0.0
  0
LINE
  5
2E51
330
1F
100
AcDbEntity
  8
APL Notes
  6
Continuous
 62
     2
100
AcDbLine
 10
322.1397509134752
 20
328.8826619981282
 30
0.0
 11
322.1397509134752
 21
446.3826619981276
 31
0.0
  0
LINE
  5
2E52
330
1F
100
AcDbEntity
  8
APL Notes
  6
Continuous
 62
     2
100
AcDbLine
 10
326.3897509134747
 20
328.8826619981282
 30
0.0
 11
326.3897509134747
 21
446.3826619981276
 31
0.0
  0
LINE
  5
2E53
330
1F
100
AcDbEntity
  8
APL Notes
  6
Continuous
 62
     2
100
AcDbLine
 10
330.1397509134747
 20
325.1326619981282
 30
0.0
 11
330.1397509134747
 21
450.1326619981276
 31
0.0
  0
LINE
  5
2E54
330
1F
100
AcDbEntity
  8
APL Notes
  6
Continuous
 62
     8
100
AcDbLine
 10
328.8897509134747
 20
326.3826619981282
 30
0.0
 11
328.8897509134747
 21
448.8826619981276
 31
0.0
  0
LINE
  5
2E55
330
1F
100
AcDbEntity
  8
APL Notes
  6
Continuous
 62
     8
100
AcDbLine
 10
326.3897509134747
 20
328.8826619981282
 30
0.0
 11
330.1397509134747
 21
325.1326619981282
 31
0.0
  0
LEADER
  5
2E56
330
1F
100
AcDbEntity
  8
APL Notes
 62
     8
100
AcDbLeader
  3
ISO-25
 76
     2
 10
341.99999919215
 20
372.702764380862
 30
0.0
 10
341.99999919215
 20
393.2900136638309
 30
0.0
1001
ACAD
1000
DSTYLE
1002
{
1070
   147
1040
0.625
1070
    77
1070
     0
1002
}
  0
LINE
  5
2E58
330
1F
100
AcDbEntity
  8
APL Notes
  6
Continuous
 62
     8
100
AcDbLine
 10
326.3897509134747
 20
446.3826619981276
 30
0.0
 11
330.1397509134747
 21
450.1326619981276
 31
0.0
  0
LINE
  5
2E5A
330
1F
100
AcDbEntity
  8
APL Notes
  6
Continuous
 62
     8
100
AcDbLine
 10
247.2184168524641
 20
347.9857952736589
 30
0.0
 11
247.2184168524641
 21
318.2653238853689
 31
0.0
  0
LEADER
  5
2E5B
330
1F
100
AcDbEntity
  8
APL Notes
 62
     8
100
AcDbLeader
  3
ISO-25
 76
     2
 10
257.3222609320116
 20
318.2653238853689
 30
0.0
 10
247.2184168524641
 20
318.2653238853689
 30
0.0
211
0.0000000000000001
221
1.0
231
0.0
1001
ACAD
1000
DSTYLE
1002
{
1070
   147
1040
0.625
1070
    77
1070
     0
1002
}
  0
TEXT
  5
2E62
330
1F
100
AcDbEntity
  8
APL Notes
  6
Continuous
 62
     7
100
AcDbText
 10
258.3210248507124
 20
454.7211294915966
 30
0.0
 40
5.0
  1
A
  7
Arial-Bold
100
AcDbText
  0
LINE
  5
2E63
330
1F
100
AcDbEntity
  8
APL Notes
  6
Continuous
 62
     8
100
AcDbLine
 10
247.2184168524641
 20
427.2795287225969
 30
0.0
 11
247.2184168524641
 21
457.0000001108868
 31
0.0
  0
LEADER
  5
2E64
330
1F
100
AcDbEntity
  8
APL Notes
 62
     8
100
AcDbLeader
  3
ISO-25
 76
     2
 10
257.3222609320116
 20
457.0000001108868
 30
0.0
 10
247.2184168524641
 20
457.0000001108868
 30
0.0
211
0.0000000000000001
221
-1.0
231
0.0
210
0.0
220
0.0
230
-1.0
1001
ACAD
1000
DSTYLE
1002
{
1070
   147
1040
0.625
1070
    77
1070
     0
1002
}
  0
TEXT
  5
2E66
330
1F
100
AcDbEntity
  8
APL Notes
100
AcDbText
 10
105.0071962086
 20
311.0000001108868
 30
0.0
 40
5.0
  1
SECTION A-A
  7
Arial-Bold
100
AcDbText
  0
TEXT
  5
2E67
330
1F
100
AcDbEntity
  8
APL Notes
100
AcDbText
 10
167.9207474718712
 20
109.7500001108769
 30
0.0
 40
5.0
  1
SECTION B-B
  7
Arial-Bold
100
AcDbText
  0
INSERT
  5
2E6F
330
1F
100
AcDbEntity
  8
APL Joinery
100
AcDbBlockReference
  2
08005
 10
50.49999919214844
 20
29.75000011087676
 30
0.0
  0
INSERT
  5
2E75
330
1F
100
AcDbEntity
  8
APL Joinery
100
AcDbBlockReference
  2
08006
 10
88.49999919214843
 20
79.75000011087676
 30
0.0
  0
INSERT
  5
2E86
330
1F
100
AcDbEntity
  8
APL Joinery
100
AcDbBlockReference
  2
08015
 10
128.9999991921499
 20
226.971077988811
 30
0.0
  0
INSERT
  5
2E8D
330
1F
100
AcDbEntity
  8
APL Joinery
100
AcDbBlockReference
  2
08016
 10
209.9999991921499
 20
276.971077988811
 30
0.0
  0
INSERT
  5
2E91
330
1F
100
AcDbEntity
  8
APL Joinery
100
AcDbBlockReference
  2
08022
 10
322.9999991921495
 20
275.9710779888109
 30
0.0
 50
270.0
  0
TEXT
  5
2E93
330
1F
100
AcDbEntity
  8
APL Notes
100
AcDbText
 10
323.3940123122739
 20
220.1365832530254
 30
0.0
 40
5.0
  1
08024
  7
Arial-Bold
100
AcDbText
  0
INSERT
  5
2E94
330
1F
100
AcDbEntity
  8
APL Joinery
100
AcDbBlockReference
  2
08022
 10
128.9999991921509
 20
275.9710779888109
 30
0.0
 41
-1.0
 50
90.0
  0
TEXT
  5
2E97
330
1F
100
AcDbEntity
  8
APL Notes
100
AcDbText
 10
109.0486034377642
 20
219.9526619575217
 30
0.0
 40
5.0
  1
08022
  7
Arial-Bold
100
AcDbText
  0
TEXT
  5
2E9B
330
1F
100
AcDbEntity
  8
APL Notes
100
AcDbText
 10
166.0981629531603
 20
219.9526619575217
 30
0.0
 40
5.0
  1
08015
  7
Arial-Bold
100
AcDbText
  0
TEXT
  5
2E9C
330
1F
100
AcDbEntity
  8
APL Notes
100
AcDbText
 10
264.3815635848092
 20
219.9526619575217
 30
0.0
 40
5.0
  1
08016
  7
Arial-Bold
100
AcDbText
  0
INSERT
  5
2EAD
330
1F
100
AcDbEntity
  8
APL Joinery
100
AcDbBlockReference
  2
9010100
 10
96.54999919214862
 20
78.75000011087675
 30
0.0
 50
270.0
  0
INSERT
  5
2EAE
330
1F
100
AcDbEntity
  8
APL Joinery
100
AcDbBlockReference
  2
9010100
 10
114.4499991921491
 20
34.7500001108767
 30
0.0
 41
-1.0
 50
270.0
  0
INSERT
  5
2EB4
330
1F
100
AcDbEntity
  8
APL Joinery
100
AcDbBlockReference
  2
9010100
 10
218.0499991921493
 20
275.971077988811
 30
0.0
 50
270.0
  0
INSERT
  5
2EB5
330
1F
100
AcDbEntity
  8
APL Joinery
100
AcDbBlockReference
  2
9010100
 10
233.9499991921503
 20
231.971077988811
 30
0.0
 41
-1.0
 50
270.0
  0
TEXT
  5
2EB8
330
1F
100
AcDbEntity
  8
APL Notes
100
AcDbText
 10
174.0337645400356
 20
206.6233364800454
 30
0.0
 40
5.0
  1
93MM MEETING STILE OPTION
  7
Arial-Bold
 72
     1
 11
225.9999991921502
 21
205.1431181990085
 31
0.0
100
AcDbText
 73
     1
  0
INSERT
  5
2EE0
330
1F
100
AcDbEntity
  8
APL Joinery
100
AcDbBlockReference
  2
08022
 10
50.49999919214894
 20
78.75000011087665
 30
0.0
 41
-1.0
 50
90.0
  0
INSERT
  5
2FA6
330
1F
100
AcDbEntity
  8
APL Joinery
100
AcDbBlockReference
  2
08025
 10
82.0071962085999
 20
405.0000001108869
 30
0.0
 41
-1.0
 50
180.0
  0
TEXT
  5
2FA8
330
1F
100
AcDbEntity
  8
APL Notes
  6
Continuous
 62
     7
100
AcDbText
 10
258.3210248507124
 20
315.9864532660786
 30
0.0
 40
5.0
  1
A
  7
Arial-Bold
100
AcDbText
  0
TEXT
  5
2FA9
330
1F
100
AcDbEntity
  8
APL Notes
  6
Continuous
 62
     7
100
AcDbText
 10
339.9531445844084
 20
366.3291632062402
 30
0.0
 40
5.0
  1
B
  7
Arial-Bold
100
AcDbText
  0
INSERT
  5
2FBE
330
1F
100
AcDbEntity
  8
APL Joinery
100
AcDbBlockReference
  2
08004
 10
274.499999192152
 20
29.75000011087681
 30
0.0
 41
-1.0
  0
INSERT
  5
2FE5
330
1F
100
AcDbEntity
  8
APL Joinery
100
AcDbBlockReference
  2
08021glaze
 10
34.00719620859979
 20
285.0000001108869
 30
0.0
  0
INSERT
  5
2FEE
330
1F
100
AcDbEntity
  8
APL Joinery
100
AcDbBlockReference
  2
08022glaze
 10
34.00719620424434
 20
342.0000001108868
 30
0.0
  0
INSERT
  5
2FF0
330
1F
100
AcDbEntity
  8
APL Joinery
100
AcDbBlockReference
  2
08022glaze
 10
160.4999991921506
 20
30.7500001108768
 30
0.0
 50
90.0
  0
INSERT
  5
2FF1
330
1F
100
AcDbEntity
  8
APL Joinery
100
AcDbBlockReference
  2
08022glaze
 10
222.4999991921513
 20
30.75000010652109
 30
0.0
 41
-1.0
 50
270.0
  0
INSERT
  5
2FF4
330
1F
100
AcDbEntity
  8
APL Joinery
100
AcDbBlockReference
  2
08022glaze
 10
128.9999991921509
 20
227.971077988811
 30
0.0
 41
-1.0
 50
270.0
  0
POINT
  5
2FF6
330
1F
100
AcDbEntity
  8
0
100
AcDbPoint
 10
322.9999991921495
 20
227.971077988811
 30
0.0
  0
LWPOLYLINE
  5
3013
330
1F
100
AcDbEntity
  8
APL Notes
100
AcDbPolyline
 90
        4
 70
     1
 43
0.3
 10
215.9207474718712
 20
106.7500001108768
 10
215.9207474718712
 20
117.7500001108768
 10
164.9207474718712
 20
117.7500001108768
 10
164.9207474718712
 20
106.7500001108768
  0
LWPOLYLINE
  5
3014
330
1F
100
AcDbEntity
  8
APL Notes
100
AcDbPolyline
 90
        4
 70
     1
 43
0.3
 10
153.0071962086
 20
308.0000001108869
 10
153.0071962086
 20
319.0000001108868
 10
102.0071962086
 20
319.0000001108868
 10
102.0071962086
 20
308.0000001108869
  0
TEXT
  5
3063
330
1F
100
AcDbEntity
  8
APL Notes
100
AcDbText
 10
9.725218354406479
 20
422.780357558245
 30
0.0
 40
5.0
  1
Frame
  7
Arial-Regular
100
AcDbText
  0
TEXT
  5
3064
330
1F
100
AcDbEntity
  8
APL Notes
100
AcDbText
 10
10.72521835440648
 20
352.7803575582451
 30
0.0
 40
5.0
  1
Narrow
  7
Arial-Regular
100
AcDbText
  0
TEXT
  5
3065
330
1F
100
AcDbEntity
  8
APL Notes
100
AcDbText
 10
10.72521835440648
 20
345.780357558245
 30
0.0
 40
5.0
  1
Rail
  7
Arial-Regular
100
AcDbText
  0
TEXT
  5
3066
330
1F
100
AcDbEntity
  8
APL Notes
100
AcDbText
 10
10.72521835440648
 20
218.2196426635288
 30
0.0
 40
5.0
  1
Wide
  7
Arial-Regular
100
AcDbText
  0
TEXT
  5
3067
330
1F
100
AcDbEntity
  8
APL Notes
100
AcDbText
 10
10.72521835440648
 20
211.2196426635288
 30
0.0
 40
5.0
  1
Rail
  7
Arial-Regular
100
AcDbText
  0
TEXT
  5
3078
330
1F
100
AcDbEntity
  8
APL Notes
100
AcDbText
 10
140.7460177114573
 20
9.24426535217581
 30
0.0
 40
5.0
  1
50MM MEETING STILE OPTION
  7
Arial-Bold
 72
     1
 11
192.7122523635719
 21
7.764047071138975
 31
0.0
100
AcDbText
 73
     1
  0
TEXT
  5
30C6
330
1F
100
AcDbEntity
  8
APL Notes
100
AcDbText
 10
323.3940123122739
 20
278.8737855486075
 30
0.0
 40
5.0
  1
08022
  7
Arial-Bold
100
AcDbText
  0
INSERT
  5
30ED
330
1F
100
AcDbEntity
  8
APL Joinery
100
AcDbBlockReference
  2
08024glaze
 10
322.9999991921495
 20
227.971077988811
 30
0.0
  0
TEXT
  5
30EF
330
1F
100
AcDbEntity
  8
APL Notes
100
AcDbText
 10
323.3940123122739
 20
213.1365832530253
 30
0.0
 40
5.0
  1
27mm
  7
Arial-Regular
100
AcDbText
  0
TEXT
  5
30F0
330
1F
100
AcDbEntity
  8
APL Notes
100
AcDbText
 10
323.3940123122739
 20
206.1365832530253
 30
0.0
 40
5.0
  1
Bead
  7
Arial-Regular
100
AcDbText
  0
INSERT
  5
30F2
330
1F
100
AcDbEntity
  8
APL Joinery
100
AcDbBlockReference
  2
08024glaze
 10
50.49999919214795
 20
30.75000010652114
 30
0.0
 41
-1.0
  0
TEXT
  5
30F3
330
1F
100
AcDbEntity
  8
APL Notes
100
AcDbText
 10
31.70408352198049
 20
8.915505370735459
 30
0.0
 40
5.0
  1
Bead
  7
Arial-Regular
100
AcDbText
  0
TEXT
  5
30F4
330
1F
100
AcDbEntity
  8
APL Notes
100
AcDbText
 10
31.70408352198049
 20
15.91550537073546
 30
0.0
 40
5.0
  1
27mm
  7
Arial-Regular
100
AcDbText
  0
TEXT
  5
30F5
330
1F
100
AcDbEntity
  8
APL Notes
100
AcDbText
 10
31.70408352198049
 20
22.91550537073546
 30
0.0
 40
5.0
  1
08024
  7
Arial-Bold
100
AcDbText
  0
INSERT
  5
3153
330
1F
100
AcDbEntity
  8
APL Joinery
100
AcDbBlockReference
  2
9010317
 10
93.00719620859991
 20
196.0000001108872
 30
0.0
 41
-1.0
 50
270.0
  0
INSERT
  5
3446
330
1F
100
AcDbEntity
  8
APL Joinery
100
AcDbBlockReference
  2
08060
 10
34.00719620859979
 20
185.0000001108869
 30
0.0
  0
LWPOLYLINE
  5
369A
330
1F
100
AcDbEntity
  8
0
100
AcDbPolyline
 90
        4
 70
     1
 43
0.0
 10
-0.0000008078504834
 20
482.0000001108869
 10
-0.0000008078504834
 20
0.0000001108869583
 10
353.9999991921495
 20
0.0000001108869583
 10
353.9999991921495
 20
482.0000001108869
  0
INSERT
  5
3705
330
1F
100
AcDbEntity
  8
APL Joinery
100
AcDbBlockReference
  2
hinges
 10
199.6104846822692
 20
98.68513638521363
 30
0.0
  0
VIEWPORT
  5
2F22
102
{ACAD_XDICTIONARY
360
3D68
102
}
330
2F0A
100
AcDbEntity
 67
     1
  8
0
100
AcDbViewport
 10
99.91724538803101
 20
143.1184201240539
 30
0.0
 40
351.5521214087597
 41
299.2892926645698
 68
     1
 69
     1
 12
99.91724538803101
 22
143.1184201240539
 13
0.0
 23
0.0
 14
10.0
 24
10.0
 15
10.0
 25
10.0
 16
0.0
 26
0.0
 36
1.0
 17
0.0
 27
0.0
 37
0.0
 42
50.0
 43
0.0
 44
0.0
 45
299.2892926645698
 50
0.0
 51
0.0
 72
 20000
 90
    32800
  1

281
     0
 71
     1
 74
     0
110
0.0
120
0.0
130
0.0
111
1.0
121
0.0
131
0.0
112
0.0
122
1.0
132
0.0
 79
     0
146
0.0
  0
VIEWPORT
  5
2F24
102
{ACAD_XDICTIONARY
360
3D6A
102
}
330
2F0A
100
AcDbEntity
 67
     1
  8
0
100
AcDbViewport
 10
100.595
 20
133.19
 30
0.0
 40
178.0
 41
246.0
 68
     2
 69
     2
 12
177.0000008406407
 22
241.0000023554427
 13
0.0
 23
0.0
 14
10.0
 24
10.0
 15
10.0
 25
10.0
 16
0.0
 26
0.0
 36
1.0
 17
0.0
 27
0.0
 37
0.0
 42
50.0
 43
0.0
 44
0.0
 45
492.0
 50
0.0
 51
0.0
 72
 20000
 90
    36960
  1

281
     0
 71
     1
 74
     0
110
0.0
120
0.0
130
0.0
111
1.0
121
0.0
131
0.0
112
0.0
122
1.0
132
0.0
 79
     0
146
0.0
  0
INSERT
  5
2F29
330
2F0A
100
AcDbEntity
 67
     1
  8
APL Border
100
AcDbBlockReference
  2
altherm a4 SM border
 10
0.0
 20
0.0
 30
0.0
  0
INSERT
  5
3094
330
2F0A
100
AcDbEntity
 67
     1
  8
APL Border
100
AcDbBlockReference
 66
     1
  2
altherm a4 SM attributes (3)
 10
0.0
 20
0.0
 30
0.0
  0
ATTRIB
  5
3096
330
3094
100
AcDbEntity
 67
     1
  8
APL Border
100
AcDbText
 10
52.85074634753801
 20
277.1900000000007
 30
0.0
 40
3.6
  1
MAGNUM 50, A500CD OPEN OUT HINGED DOOR
  7
Arial-Bold
100
AcDbAttribute
  2
DRAWINGTITLE_1
 70
     0
  0
ATTRIB
  5
3097
330
3094
100
AcDbEntity
 67
     1
  8
APL Border
100
AcDbText
 10
52.85074634753801
 20
271.1900000000007
 30
0.0
 40
3.6
  1
FRENCH DOOR MEETING STILE OPTIONS
  7
Arial-Bold
100
AcDbAttribute
  2
DRAWINGTITLE_2
 70
     0
  0
ATTRIB
  5
3098
330
3094
100
AcDbEntity
 67
     1
  8
APL Border
100
AcDbText
 10
52.85074634753801
 20
265.1900000000007
 30
0.0
 40
3.0
  1
CROSS SECTION
  7
Arial-Regular
100
AcDbAttribute
  2
DRAWINGTITLE_3
 70
     0
  0
ATTRIB
  5
3099
330
3094
100
AcDbEntity
 67
     1
  8
APL Border
100
AcDbText
 10
67.85074634753795
 20
258.19
 30
0.0
 40
2.399999999999999
  1
ACMD02-0
  7
Arial-Regular
100
AcDbAttribute
  2
AW123-456
 70
     0
  0
ATTRIB
  5
309A
330
3094
100
AcDbEntity
 67
     1
  8
APL Border
100
AcDbText
 10
100.3507463475379
 20
258.19
 30
0.0
 40
2.399999999999999
  1
1:2
  7
Arial-Regular
100
AcDbAttribute
  2
1:2
 70
     0
  0
ATTRIB
  5
309B
330
3094
100
AcDbEntity
 67
     1
  8
APL Border
100
AcDbText
 10
119.3507463475379
 20
258.19
 30
0.0
 40
2.399999999999999
  1
01.06.11
  7
Arial-Regular
100
AcDbAttribute
  2
06.06.02
 70
     0
  0
ATTRIB
  5
309C
330
3094
100
AcDbEntity
 67
     1
  8
APL Border
100
AcDbText
 10
11.59500000000001
 20
1.189999999999997
 30
0.0
 40
4.5
  1

  7
Arial-Bold
100
AcDbAttribute
  2
1.2.34
 70
     0
  0
ATTRIB
  5
309D
330
3094
100
AcDbEntity
 67
     1
  8
APL Border
100
AcDbText
 10
189.595
 20
1.189999999999997
 30
0.0
 40
4.5
  1

  7
Arial-Bold
 72
     2
 11
189.595
 21
1.189999999999997
 31
0.0
100
AcDbAttribute
  2
1.2.34
 70
     0
  0
SEQEND
  5
3095
330
3094
100
AcDbEntity
 67
     1
  8
APL Joinery
  0
ENDSEC
  0
SECTION
  2
OBJECTS
  0
DICTIONARY
  5
C
330
0
100
AcDbDictionary
281
     1
  3
ACAD_COLOR
350
3573
  3
ACAD_GROUP
350
D
  3
ACAD_LAYOUT
350
1A
  3
ACAD_MATERIAL
350
3549
  3
ACAD_MLEADERSTYLE
350
3598
  3
ACAD_MLINESTYLE
350
17
  3
ACAD_PLOTSETTINGS
350
19
  3
ACAD_PLOTSTYLENAME
350
E
  3
ACAD_SCALELIST
350
3576
  3
ACAD_TABLESTYLE
350
3574
  3
ACAD_VISUALSTYLE
350
3562
  3
AcadDim
350
86
  3
ACDB_RECOMPOSE_DATA
350
37D5
  3
ACDBHEADERROUNDTRIPXREC
350
426A
  3
AcDbVariableDictionary
350
3B
  3
DWGPROPS
350
4269
  0
DICTIONARY
  5
37D7
330
8
100
AcDbDictionary
280
     1
281
     1
  3
ACAD_XREC_ROUNDTRIP
360
3D5A
  0
DICTIONARY
  5
31AB
330
2
100
AcDbDictionary
280
     1
281
     1
  3
ACAD_LAYERFILTERS
360
378F
  3
ACAD_LAYERSTATES
360
3414
  3
ACLYDICTIONARY
360
378E
  0
DICTIONARY
  5
3603
330
10
100
AcDbDictionary
280
     1
281
     1
  3
ACAD_XREC_ROUNDTRIP
360
3D5B
  3
ADSK_XREC_LAYER_RECONCILED
360
3604
  0
DICTIONARY
  5
3605
330
2B
100
AcDbDictionary
280
     1
281
     1
  3
ACAD_XREC_ROUNDTRIP
360
3D5E
  3
ADSK_XREC_LAYER_RECONCILED
360
3606
  0
DICTIONARY
  5
3607
330
75
100
AcDbDictionary
280
     1
281
     1
  3
ACAD_XREC_ROUNDTRIP
360
3D5F
  3
ADSK_XREC_LAYER_RECONCILED
360
3608
  0
DICTIONARY
  5
3609
330
2F05
100
AcDbDictionary
280
     1
281
     1
  3
ACAD_XREC_ROUNDTRIP
360
3D60
  3
ADSK_XREC_LAYER_RECONCILED
360
360A
  0
DICTIONARY
  5
360F
330
35A2
100
AcDbDictionary
280
     1
281
     1
  3
ACAD_XREC_ROUNDTRIP
360
3D75
  3
ADSK_XREC_LAYER_RECONCILED
360
3610
  0
DICTIONARY
  5
369B
330
1F
100
AcDbDictionary
280
     1
281
     1
  3
ACAD_SORTENTS
360
369C
  0
DICTIONARY
  5
3E27
330
26A8
100
AcDbDictionary
280
     1
281
     1
  3
ACAD_SORTENTS
360
3E28
  0
DICTIONARY
  5
3E3F
330
2E87
100
AcDbDictionary
280
     1
281
     1
  0
DICTIONARY
  5
4233
330
2FB9
100
AcDbDictionary
280
     1
281
     1
  0
DICTIONARY
  5
3BE7
330
2FC4
100
AcDbDictionary
280
     1
281
     1
  0
DICTIONARY
  5
3BF2
330
2FCC
100
AcDbDictionary
280
     1
281
     1
  0
DICTIONARY
  5
4237
330
30CB
100
AcDbDictionary
280
     1
281
     1
  0
DICTIONARY
  5
3BFD
330
30E6
100
AcDbDictionary
280
     1
281
     1
  3
ACAD_SORTENTS
360
3C00
  0
DICTIONARY
  5
423F
330
3441
100
AcDbDictionary
280
     1
281
     1
  3
ACAD_SORTENTS
360
4240
  0
DICTIONARY
  5
3701
330
36EA
100
AcDbDictionary
280
     1
281
     1
  3
ACAD_SORTENTS
360
3702
  0
DICTIONARY
  5
3D68
330
2F22
100
AcDbDictionary
280
     1
281
     1
  3
ACAD_XREC_ROUNDTRIP
360
3D69
  0
DICTIONARY
  5
3D6A
330
2F24
100
AcDbDictionary
280
     1
281
     1
  3
ACAD_XREC_ROUNDTRIP
360
3D6B
  0
DICTIONARY
  5
3573
102
{ACAD_REACTORS
330
C
102
}
330
C
100
AcDbDictionary
281
     1
  0
DICTIONARY
  5
D
102
{ACAD_REACTORS
330
C
102
}
330
C
100
AcDbDictionary
281
     1
  0
DICTIONARY
  5
1A
102
{ACAD_REACTORS
330
C
102
}
330
C
100
AcDbDictionary
281
     1
  3
Altherm A4
350
2F0B
  3
Model
350
22
  0
DICTIONARY
  5
3549
102
{ACAD_REACTORS
330
C
102
}
330
C
100
AcDbDictionary
281
     1
  3
ByBlock
350
3552
  3
ByLayer
350
354A
  3
Global
350
355A
  0
DICTIONARY
  5
3598
102
{ACAD_REACTORS
330
C
102
}
330
C
100
AcDbDictionary
281
     1
  3
Standard
350
3BCC
  0
DICTIONARY
  5
17
102
{ACAD_REACTORS
330
C
102
}
330
C
100
AcDbDictionary
281
     1
  3
Standard
350
18
  0
DICTIONARY
  5
19
102
{ACAD_REACTORS
330
C
102
}
330
C
100
AcDbDictionary
281
     1
  0
ACDBDICTIONARYWDFLT
  5
E
102
{ACAD_REACTORS
330
C
102
}
330
C
100
AcDbDictionary
281
     1
  3
Normal
350
F
100
AcDbDictionaryWithDefault
340
F
  0
DICTIONARY
  5
3576
102
{ACAD_REACTORS
330
C
102
}
330
C
100
AcDbDictionary
281
     1
  3
A0
350
3577
  3
A1
350
3578
  3
A2
350
3579
  3
A3
350
357A
  3
A4
350
357B
  3
A5
350
357C
  3
A6
350
357D
  3
A7
350
357E
  3
A8
350
357F
  3
A9
350
3580
  3
B0
350
3581
  3
B1
350
3582
  3
B2
350
3583
  3
B3
350
3584
  3
B4
350
3585
  3
B5
350
3586
  3
B6
350
3587
  3
B7
350
3588
  3
B8
350
3589
  3
B9
350
358A
  3
C0
350
358B
  3
C1
350
358C
  3
C2
350
358D
  3
C3
350
358E
  3
C4
350
358F
  3
C5
350
3590
  3
C6
350
3591
  3
C7
350
3592
  3
C8
350
3593
  3
C9
350
3594
  3
D0
350
3595
  3
D1
350
3596
  3
D2
350
3597
  0
DICTIONARY
  5
3574
102
{ACAD_REACTORS
330
C
102
}
330
C
100
AcDbDictionary
281
     1
  3
Standard
350
3575
  0
DICTIONARY
  5
3562
102
{ACAD_REACTORS
330
C
102
}
330
C
100
AcDbDictionary
281
     1
  3
2dWireframe
350
3568
  3
3D Hidden
350
356A
  3
3dWireframe
350
3569
  3
Basic
350
3567
  3
Brighten
350
356E
  3
ColorChange
350
3572
  3
Conceptual
350
356B
  3
Dim
350
356D
  3
Facepattern
350
3571
  3
Flat
350
3563
  3
FlatWithEdges
350
3564
  3
Gouraud
350
3565
  3
GouraudWithEdges
350
3566
  3
Linepattern
350
3570
  3
Realistic
350
356C
  3
Thicken
350
356F
  0
XRECORD
  5
86
102
{ACAD_REACTORS
330
C
102
}
330
C
100
AcDbXrecord
280
     1
 90
   990106
  3

 60
     0
 61
     0
 62
     1
 63
     3
 64
     0
 65
     0
 66
     0
 67
     3
 68
     1
 69
     0
 70
     0
 71
     0
 72
     0
 40
8.188652110585962
170
     0
  0
XRECORD
  5
37D5
102
{ACAD_REACTORS
330
C
102
}
330
C
100
AcDbXrecord
280
     1
 90
        1
330
3575
  0
DICTIONARY
  5
426A
102
{ACAD_REACTORS
330
C
102
}
330
C
100
AcDbDictionary
281
     1
  0
DICTIONARY
  5
3B
102
{ACAD_REACTORS
330
C
102
}
330
C
100
AcDbDictionary
281
     1
  3
CANNOSCALE
350
3813
  3
CMLEADERSTYLE
350
3867
  3
CTABLESTYLE
350
3812
  3
DIMASSOC
350
3D
  3
HIDETEXT
350
3C
  3
INDEXCTL
350
3815
  3
PROJECTNAME
350
3DC5
  3
SORTENTS
350
3814
  0
XRECORD
  5
4269
102
{ACAD_REACTORS
330
C
102
}
330
C
100
AcDbXrecord
280
     1
  1
DWGPROPS COOKIE
  2

  3

  4

  6

  7

  8
homer
  9

300
=
301
=
302
=
303
=
304
=
305
=
306
=
307
=
308
=
309
=
 40
2.034952222222222
 41
2452417.391545024
 42
2455707.526819271
  1

 90
        0
  0
XRECORD
  5
3D5A
102
{ACAD_REACTORS
330
37D7
102
}
330
37D7
100
AcDbXrecord
280
     1
102
VTR_0.000_0.000_1.000_1.000_VISUALSTYLE
340
3568
102
VTR_0.000_0.000_1.000_1.000_GRIDDISPLAY
 70
     3
102
VTR_0.000_0.000_1.000_1.000_GRIDMAJOR
 70
     5
102
VTR_0.000_0.000_1.000_1.000_DEFAULTLIGHTING
280
     1
102
VTR_0.000_0.000_1.000_1.000_DEFAULTLIGHTINGTYPE
 70
     1
102
VTR_0.000_0.000_1.000_1.000_BRIGHTNESS
141
0.0
102
VTR_0.000_0.000_1.000_1.000_CONTRAST
142
0.0
  0
DICTIONARY
  5
378F
102
{ACAD_REACTORS
330
31AB
102
}
330
31AB
100
AcDbDictionary
281
     1
  0
DICTIONARY
  5
3414
102
{ACAD_REACTORS
330
31AB
102
}
330
31AB
100
AcDbDictionary
281
     1
  0
DICTIONARY
  5
378E
102
{ACAD_REACTORS
330
31AB
102
}
330
31AB
100
AcDbDictionary
281
     1
1001
ACAD
1000
<All
  0
XRECORD
  5
3D5B
102
{ACAD_REACTORS
330
3603
102
}
330
3603
100
AcDbXrecord
280
     1
102
MATERIAL
340
355A
  0
XRECORD
  5
3604
102
{ACAD_REACTORS
330
3603
102
}
330
3603
100
AcDbXrecord
280
     1
290
     1
  0
XRECORD
  5
3D5E
102
{ACAD_REACTORS
330
3605
102
}
330
3605
100
AcDbXrecord
280
     1
102
MATERIAL
340
355A
  0
XRECORD
  5
3606
102
{ACAD_REACTORS
330
3605
102
}
330
3605
100
AcDbXrecord
280
     1
290
     1
  0
XRECORD
  5
3D5F
102
{ACAD_REACTORS
330
3607
102
}
330
3607
100
AcDbXrecord
280
     1
102
MATERIAL
340
355A
  0
XRECORD
  5
3608
102
{ACAD_REACTORS
330
3607
102
}
330
3607
100
AcDbXrecord
280
     1
290
     1
  0
XRECORD
  5
3D60
102
{ACAD_REACTORS
330
3609
102
}
330
3609
100
AcDbXrecord
280
     1
102
MATERIAL
340
355A
  0
XRECORD
  5
360A
102
{ACAD_REACTORS
330
3609
102
}
330
3609
100
AcDbXrecord
280
     1
290
     1
  0
XRECORD
  5
3D75
102
{ACAD_REACTORS
330
360F
102
}
330
360F
100
AcDbXrecord
280
     1
102
MATERIAL
340
355A
  0
XRECORD
  5
3610
102
{ACAD_REACTORS
330
360F
102
}
330
360F
100
AcDbXrecord
280
     1
290
     1
  0
SORTENTSTABLE
  5
369C
102
{ACAD_REACTORS
330
369B
102
}
330
369B
100
AcDbSortentsTable
330
1F
331
2E86
  5
2E97
331
2E4B
  5
2E55
331
2E55
  5
2E62
331
2E67
  5
2E91
331
287F
  5
28D4
331
2EB4
  5
2FA8
331
2E2C
  5
2E31
331
30F0
  5
30F6
331
2FBE
  5
2FF3
331
2E36
  5
2E3B
331
3014
  5
3067
331
2E52
  5
2E58
331
2E64
  5
2E86
331
2FA9
  5
2FE5
331
283A
  5
285D
331
2FF4
  5
3064
331
3446
  5
36A0
331
2DE7
  5
2E2E
331
3066
  5
30EF
331
3705
  5
26FB
331
285C
  5
28D2
331
30ED
  5
30F4
331
2E45
  5
2E52
331
28D8
  5
2E2A
331
2DDA
  5
2E2C
331
2E3D
  5
2E45
331
2E9C
  5
2EB8
331
2FF1
  5
3063
331
2FA6
  5
2FD6
331
2EAE
  5
2FA6
331
3063
  5
3078
331
2859
  5
287F
331
2EB8
  5
2FBE
331
2E30
  5
2E36
331
2E75
  5
2E94
331
30F4
  5
3446
331
281A
  5
285C
331
2DD7
  5
2E2B
331
2E3A
  5
2E3F
331
2FEE
  5
2FF6
331
2E56
  5
2E63
331
2EB5
  5
2FA9
331
2E2D
  5
2E32
331
26AD
  5
283A
331
28D2
  5
2DDA
331
2E37
  5
2E3C
331
3153
  5
369F
331
2E53
  5
2E5A
331
3067
  5
30F0
331
2E2A
  5
2E2F
331
2E6F
  5
2E93
331
285D
  5
28D3
331
28A7
  5
2DD7
331
2E34
  5
2E39
331
2E46
  5
2E53
331
2E93
  5
2EAD
331
2E3E
  5
2E46
331
2E62
  5
2E6F
331
3064
  5
30C6
331
2E5A
  5
2E66
331
26E7
  5
2859
331
285A
  5
28A2
331
2E31
  5
2E37
331
369A
  5
281A
331
30F5
  5
369D
331
2FE5
  5
2FF4
331
2E3B
  5
2E40
331
26FB
  5
285B
331
2E2E
  5
2E34
331
2E40
  5
2E4B
331
30F2
  5
3153
331
2E8D
  5
2E9B
331
28D3
  5
2DE6
331
2EE0
  5
2FD5
331
2E38
  5
2E3D
331
2E4A
  5
2E54
331
2E97
  5
2EB4
331
2E54
  5
2E5B
331
2E66
  5
2E8D
331
2FF6
  5
3065
331
3078
  5
30F2
331
2E2B
  5
2E30
331
30EF
  5
30F5
331
2E35
  5
2E3A
331
2E94
  5
2EAE
331
3013
  5
3066
331
30C6
  5
30F3
331
2E3F
  5
2E4A
331
2E51
  5
2E56
331
2E63
  5
2E75
331
2FA8
  5
2FDA
331
2DE6
  5
2E2D
331
3065
  5
30ED
331
2E5B
  5
2E67
331
285B
  5
28A7
331
2E32
  5
2E38
331
26F2
  5
285A
331
2E91
  5
2E9C
331
2E3C
  5
2E41
331
2E9B
  5
2EB5
331
2FF0
  5
3013
331
2EAD
  5
2EE0
331
2E58
  5
2E64
331
28A2
  5
28D8
331
2E2F
  5
2E35
331
2E41
  5
2E51
331
30F3
  5
341A
331
28D4
  5
2DE7
331
2E39
  5
2E3E
  0
SORTENTSTABLE
  5
3E28
102
{ACAD_REACTORS
330
3E27
102
}
330
3E27
100
AcDbSortentsTable
330
26A8
  0
SORTENTSTABLE
  5
3C00
102
{ACAD_REACTORS
330
3BFD
102
}
330
3BFD
100
AcDbSortentsTable
330
30E6
331
3BFB
  5
3BFA
331
3BF9
  5
3BF9
331
3BFA
  5
3BFB
  0
SORTENTSTABLE
  5
4240
102
{ACAD_REACTORS
330
423F
102
}
330
423F
100
AcDbSortentsTable
330
3441
  0
SORTENTSTABLE
  5
3702
102
{ACAD_REACTORS
330
3701
102
}
330
3701
100
AcDbSortentsTable
330
36EA
  0
XRECORD
  5
3D69
102
{ACAD_REACTORS
330
3D68
102
}
330
3D68
100
AcDbXrecord
280
     1
102
VISUALSTYLE
340
3568
102
GRIDDISPLAY
 70
     0
102
GRIDMAJOR
 70
     5
102
DEFAULTLIGHTING
280
     1
102
DEFAULTLIGHTINGTYPE
 70
     1
102
BRIGHTNESS
141
0.0
102
CONTRAST
142
0.0
102
SHADEPLOT
 70
     0
  0
XRECORD
  5
3D6B
102
{ACAD_REACTORS
330
3D6A
102
}
330
3D6A
100
AcDbXrecord
280
     1
102
VISUALSTYLE
340
3568
102
GRIDDISPLAY
 70
     0
102
GRIDMAJOR
 70
     5
102
DEFAULTLIGHTING
280
     1
102
DEFAULTLIGHTINGTYPE
 70
     1
102
BRIGHTNESS
141
0.0
102
CONTRAST
142
0.0
102
SHADEPLOT
 70
     0
  0
LAYOUT
  5
2F0B
102
{ACAD_XDICTIONARY
360
35F0
102
}
102
{ACAD_REACTORS
330
1A
102
}
330
1A
100
AcDbPlotSettings
  1

  2
\\Aplfp01\APL Technical HP5100 PSLaser
  4
A4
  6

 40
5.027082920074462
 41
5.408084392547607
 42
5.70440673828125
 43
5.365753173828125
 44
209.8886566162109
 45
297.0530090332031
 46
0.0
 47
0.0
 48
0.0
 49
0.0
140
0.0
141
0.0
142
1.0
143
1.0
 70
   688
 72
     1
 73
     0
 74
     5
  7
A4 Specifier Manual.ctb
 75
    16
147
1.0
148
0.0
149
0.0
100
AcDbLayout
  1
Altherm A4
 70
     1
 71
     1
 10
-5.027082920074462
 20
-5.408084392547607
 11
204.8615736961365
 21
291.6449246406555
 12
0.0
 22
0.0
 32
0.0
 14
11.58824886427339
 24
1.177884661932466
 34
-0.0015258207003583
 15
189.6073677543587
 25
282.2033753668244
 35
0.0000000349246037
146
0.0
 13
0.0
 23
0.0
 33
0.0
 16
1.0
 26
0.0
 36
0.0
 17
0.0
 27
1.0
 37
0.0
 76
     0
330
2F0A
331
2F22
1001
ACAD_PSEXT
1000
\\Aplfp01\APL Technical HP5100 PSLaser
1000
HP LaserJet 5100 PS
1000
APL Technical Office
1000

1070
     0
  0
LAYOUT
  5
22
102
{ACAD_XDICTIONARY
360
426B
102
}
102
{ACAD_REACTORS
330
1A
102
}
330
1A
100
AcDbPlotSettings
  1

  2
\\APL01\HP LaserJet 4MV
  4
A4
  6

 40
6.043083190917968
 41
6.720414161682128
 42
7.821090698242187
 43
5.027069091796875
 44
210.0579986572266
 45
296.9259948730469
 46
0.0
 47
0.0
 48
55.19893561856474
 49
77.41415496436935
140
329.6878846931311
141
251.7976535946928
142
1.0
143
1.0
 70
 11936
 72
     1
 73
     1
 74
     4
  7

 75
     0
147
1.0
148
-55.19893561856474
149
-77.41415496436935
100
AcDbLayout
  1
Model
 70
     1
 71
     0
 10
0.0
 20
0.0
 11
12.0
 21
9.0
 12
0.0
 22
0.0
 32
0.0
 14
0.0
 24
0.0
 34
0.0
 15
0.0
 25
0.0
 35
0.0
146
0.0
 13
0.0
 23
0.0
 33
0.0
 16
1.0
 26
0.0
 36
0.0
 17
0.0
 27
1.0
 37
0.0
 76
     0
330
1F
  0
MATERIAL
  5
3552
102
{ACAD_XDICTIONARY
360
3553
102
}
102
{ACAD_REACTORS
330
3549
102
}
330
3549
100
AcDbMaterial
  1
ByBlock
 72
     0
 73
     2
 43
0.0008202099737533
 43
0.0
 43
0.0
 43
0.0
 43
0.0
 43
0.0008202099737533
 43
0.0
 43
0.0
 43
0.0
 43
0.0
 43
1.0
 43
0.0
 43
0.0
 43
0.0
 43
0.0
 43
1.0
 77
     0
 78
     2
 47
0.0008202099737533
 47
0.0
 47
0.0
 47
0.0
 47
0.0
 47
0.0008202099737533
 47
0.0
 47
0.0
 47
0.0
 47
0.0
 47
1.0
 47
0.0
 47
0.0
 47
0.0
 47
0.0
 47
1.0
171
     0
172
     2
 49
0.0008202099737533
 49
0.0
 49
0.0
 49
0.0
 49
0.0
 49
0.0008202099737533
 49
0.0
 49
0.0
 49
0.0
 49
0.0
 49
1.0
 49
0.0
 49
0.0
 49
0.0
 49
0.0
 49
1.0
175
     0
176
     2
142
0.0008202099737533
142
0.0
142
0.0
142
0.0
142
0.0
142
0.0008202099737533
142
0.0
142
0.0
142
0.0
142
0.0
142
1.0
142
0.0
142
0.0
142
0.0
142
0.0
142
1.0
179
     0
270
     2
144
0.0008202099737533
144
0.0
144
0.0
144
0.0
144
0.0
144
0.0008202099737533
144
0.0
144
0.0
144
0.0
144
0.0
144
1.0
144
0.0
144
0.0
144
0.0
144
0.0
144
1.0
274
     2
147
0.0008202099737533
147
0.0
147
0.0
147
0.0
147
0.0
147
0.0008202099737533
147
0.0
147
0.0
147
0.0
147
0.0
147
1.0
147
0.0
147
0.0
147
0.0
147
0.0
147
1.0
  0
MATERIAL
  5
354A
102
{ACAD_XDICTIONARY
360
354B
102
}
102
{ACAD_REACTORS
330
3549
102
}
330
3549
100
AcDbMaterial
  1
ByLayer
 72
     0
 73
     2
 43
0.0008202099737533
 43
0.0
 43
0.0
 43
0.0
 43
0.0
 43
0.0008202099737533
 43
0.0
 43
0.0
 43
0.0
 43
0.0
 43
1.0
 43
0.0
 43
0.0
 43
0.0
 43
0.0
 43
1.0
 77
     0
 78
     2
 47
0.0008202099737533
 47
0.0
 47
0.0
 47
0.0
 47
0.0
 47
0.0008202099737533
 47
0.0
 47
0.0
 47
0.0
 47
0.0
 47
1.0
 47
0.0
 47
0.0
 47
0.0
 47
0.0
 47
1.0
171
     0
172
     2
 49
0.0008202099737533
 49
0.0
 49
0.0
 49
0.0
 49
0.0
 49
0.0008202099737533
 49
0.0
 49
0.0
 49
0.0
 49
0.0
 49
1.0
 49
0.0
 49
0.0
 49
0.0
 49
0.0
 49
1.0
175
     0
176
     2
142
0.0008202099737533
142
0.0
142
0.0
142
0.0
142
0.0
142
0.0008202099737533
142
0.0
142
0.0
142
0.0
142
0.0
142
1.0
142
0.0
142
0.0
142
0.0
142
0.0
142
1.0
179
     0
270
     2
144
0.0008202099737533
144
0.0
144
0.0
144
0.0
144
0.0
144
0.0008202099737533
144
0.0
144
0.0
144
0.0
144
0.0
144
1.0
144
0.0
144
0.0
144
0.0
144
0.0
144
1.0
274
     2
147
0.0008202099737533
147
0.0
147
0.0
147
0.0
147
0.0
147
0.0008202099737533
147
0.0
147
0.0
147
0.0
147
0.0
147
1.0
147
0.0
147
0.0
147
0.0
147
0.0
147
1.0
  0
MATERIAL
  5
355A
102
{ACAD_XDICTIONARY
360
355B
102
}
102
{ACAD_REACTORS
330
3549
102
}
330
3549
100
AcDbMaterial
  1
Global
 72
     0
 73
     2
 43
0.0008202099737533
 43
0.0
 43
0.0
 43
0.0
 43
0.0
 43
0.0008202099737533
 43
0.0
 43
0.0
 43
0.0
 43
0.0
 43
1.0
 43
0.0
 43
0.0
 43
0.0
 43
0.0
 43
1.0
 77
     0
 78
     2
 47
0.0008202099737533
 47
0.0
 47
0.0
 47
0.0
 47
0.0
 47
0.0008202099737533
 47
0.0
 47
0.0
 47
0.0
 47
0.0
 47
1.0
 47
0.0
 47
0.0
 47
0.0
 47
0.0
 47
1.0
171
     0
172
     2
 49
0.0008202099737533
 49
0.0
 49
0.0
 49
0.0
 49
0.0
 49
0.0008202099737533
 49
0.0
 49
0.0
 49
0.0
 49
0.0
 49
1.0
 49
0.0
 49
0.0
 49
0.0
 49
0.0
 49
1.0
175
     0
176
     2
142
0.0008202099737533
142
0.0
142
0.0
142
0.0
142
0.0
142
0.0008202099737533
142
0.0
142
0.0
142
0.0
142
0.0
142
1.0
142
0.0
142
0.0
142
0.0
142
0.0
142
1.0
179
     0
270
     2
144
0.0008202099737533
144
0.0
144
0.0
144
0.0
144
0.0
144
0.0008202099737533
144
0.0
144
0.0
144
0.0
144
0.0
144
1.0
144
0.0
144
0.0
144
0.0
144
0.0
144
1.0
274
     2
147
0.0008202099737533
147
0.0
147
0.0
147
0.0
147
0.0
147
0.0008202099737533
147
0.0
147
0.0
147
0.0
147
0.0
147
1.0
147
0.0
147
0.0
147
0.0
147
0.0
147
1.0
  0
ACAD_PROXY_OBJECT
  5
3BCC
102
{ACAD_REACTORS
330
3598
102
}
330
3598
100
AcDbProxyObject
 90
      499
 91
      509
 95
   983063
 70
     0
 93
      618
310
40901902A4063FBFFFFFE000000000000002040AD7A3703D0AD73F4254DD185B99185C99000000000000000104090141901A00000000000004100000000000000041025764000000000000300FC0
340
14
340
0
340
11
340
0
 94
        0
1001
ACAD_MLEADERVER
1070
     2
1001
ACAD
1000
AcRTDxfName
1000
MLEADERSTYLE
1000
AcRTDxfName
1000
MLEADERSTYLE
1000
AcRTDxfName
1000
MLEADERSTYLE
1000
AcRTDxfName
1000
MLEADERSTYLE
  0
MLINESTYLE
  5
18
102
{ACAD_REACTORS
330
17
102
}
330
17
100
AcDbMlineStyle
  2
STANDARD
 70
     0
  3

 62
   256
 51
90.0
 52
90.0
 71
     2
 49
0.5
 62
   256
  6
BYLAYER
 49
-0.5
 62
   256
  6
BYLAYER
  0
ACDBPLACEHOLDER
  5
F
102
{ACAD_REACTORS
330
E
102
}
330
E
  0
ACAD_PROXY_OBJECT
  5
3577
102
{ACAD_REACTORS
330
3576
102
}
330
3576
100
AcDbProxyObject
 90
      499
 91
      508
 95
   983063
 70
     0
 93
       49
310
904313A3100580
 94
        0
1001
ACAD
1000
AcRTDxfName
1000
SCALE
1000
AcRTDxfName
1000
SCALE
1000
AcRTDxfName
1000
SCALE
1000
AcRTDxfName
1000
SCALE
  0
ACAD_PROXY_OBJECT
  5
3578
102
{ACAD_REACTORS
330
3576
102
}
330
3576
100
AcDbProxyObject
 90
      499
 91
      508
 95
   983063
 70
     0
 93
      113
310
904313A32004000000000000004040
 94
        0
1001
ACAD
1000
AcRTDxfName
1000
SCALE
1000
AcRTDxfName
1000
SCALE
1000
AcRTDxfName
1000
SCALE
1000
AcRTDxfName
1000
SCALE
  0
ACAD_PROXY_OBJECT
  5
3579
102
{ACAD_REACTORS
330
3576
102
}
330
3576
100
AcDbProxyObject
 90
      499
 91
      508
 95
   983063
 70
     0
 93
      113
310
904313A34004000000000000104040
 94
        0
1001
ACAD
1000
AcRTDxfName
1000
SCALE
1000
AcRTDxfName
1000
SCALE
1000
AcRTDxfName
1000
SCALE
1000
AcRTDxfName
1000
SCALE
  0
ACAD_PROXY_OBJECT
  5
357A
102
{ACAD_REACTORS
330
3576
102
}
330
3576
100
AcDbProxyObject
 90
      499
 91
      508
 95
   983063
 70
     0
 93
      113
310
904313A35004000000000000144040
 94
        0
1001
ACAD
1000
AcRTDxfName
1000
SCALE
1000
AcRTDxfName
1000
SCALE
1000
AcRTDxfName
1000
SCALE
1000
AcRTDxfName
1000
SCALE
  0
ACAD_PROXY_OBJECT
  5
357B
102
{ACAD_REACTORS
330
3576
102
}
330
3576
100
AcDbProxyObject
 90
      499
 91
      508
 95
   983063
 70
     0
 93
      113
310
904313A38004000000000000204040
 94
        0
1001
ACAD
1000
AcRTDxfName
1000
SCALE
1000
AcRTDxfName
1000
SCALE
1000
AcRTDxfName
1000
SCALE
1000
AcRTDxfName
1000
SCALE
  0
ACAD_PROXY_OBJECT
  5
357C
102
{ACAD_REACTORS
330
3576
102
}
330
3576
100
AcDbProxyObject
 90
      499
 91
      508
 95
   983063
 70
     0
 93
      121
310
905313A3130004000000000000244040
 94
        0
1001
ACAD
1000
AcRTDxfName
1000
SCALE
1000
AcRTDxfName
1000
SCALE
1000
AcRTDxfName
1000
SCALE
1000
AcRTDxfName
1000
SCALE
  0
ACAD_PROXY_OBJECT
  5
357D
102
{ACAD_REACTORS
330
3576
102
}
330
3576
100
AcDbProxyObject
 90
      499
 91
      508
 95
   983063
 70
     0
 93
      121
310
905313A3136004000000000000304001
 94
        0
1001
ACAD
1000
AcRTDxfName
1000
SCALE
1000
AcRTDxfName
1000
SCALE
1000
AcRTDxfName
1000
SCALE
1000
AcRTDxfName
1000
SCALE
  0
ACAD_PROXY_OBJECT
  5
357E
102
{ACAD_REACTORS
330
3576
102
}
330
3576
100
AcDbProxyObject
 90
      499
 91
      508
 95
   983063
 70
     0
 93
      121
310
905313A3230004000000000000344040
 94
        0
1001
ACAD
1000
AcRTDxfName
1000
SCALE
1000
AcRTDxfName
1000
SCALE
1000
AcRTDxfName
1000
SCALE
1000
AcRTDxfName
1000
SCALE
  0
ACAD_PROXY_OBJECT
  5
357F
102
{ACAD_REACTORS
330
3576
102
}
330
3576
100
AcDbProxyObject
 90
      499
 91
      508
 95
   983063
 70
     0
 93
      121
310
905313A33300040000000000003E4001
 94
        0
1001
ACAD
1000
AcRTDxfName
1000
SCALE
1000
AcRTDxfName
1000
SCALE
1000
AcRTDxfName
1000
SCALE
1000
AcRTDxfName
1000
SCALE
  0
ACAD_PROXY_OBJECT
  5
3580
102
{ACAD_REACTORS
330
3576
102
}
330
3576
100
AcDbProxyObject
 90
      499
 91
      508
 95
   983063
 70
     0
 93
      121
310
905313A3430004000000000000444040
 94
        0
1001
ACAD
1000
AcRTDxfName
1000
SCALE
1000
AcRTDxfName
1000
SCALE
1000
AcRTDxfName
1000
SCALE
1000
AcRTDxfName
1000
SCALE
  0
ACAD_PROXY_OBJECT
  5
3581
102
{ACAD_REACTORS
330
3576
102
}
330
3576
100
AcDbProxyObject
 90
      499
 91
      508
 95
   983063
 70
     0
 93
      121
310
905313A3530004000000000000494001
 94
        0
1001
ACAD
1000
AcRTDxfName
1000
SCALE
1000
AcRTDxfName
1000
SCALE
1000
AcRTDxfName
1000
SCALE
1000
AcRTDxfName
1000
SCALE
  0
ACAD_PROXY_OBJECT
  5
3582
102
{ACAD_REACTORS
330
3576
102
}
330
3576
100
AcDbProxyObject
 90
      499
 91
      508
 95
   983063
 70
     0
 93
      129
310
906313A313030004000000000000594000
 94
        0
1001
ACAD
1000
AcRTDxfName
1000
SCALE
1000
AcRTDxfName
1000
SCALE
1000
AcRTDxfName
1000
SCALE
1000
AcRTDxfName
1000
SCALE
  0
ACAD_PROXY_OBJECT
  5
3583
102
{ACAD_REACTORS
330
3576
102
}
330
3576
100
AcDbProxyObject
 90
      499
 91
      508
 95
   983063
 70
     0
 93
      113
310
904323A31000000000000000010165
 94
        0
1001
ACAD
1000
AcRTDxfName
1000
SCALE
1000
AcRTDxfName
1000
SCALE
1000
AcRTDxfName
1000
SCALE
1000
AcRTDxfName
1000
SCALE
  0
ACAD_PROXY_OBJECT
  5
3584
102
{ACAD_REACTORS
330
3576
102
}
330
3576
100
AcDbProxyObject
 90
      499
 91
      508
 95
   983063
 70
     0
 93
      113
310
904343A31000000000000000410101
 94
        0
1001
ACAD
1000
AcRTDxfName
1000
SCALE
1000
AcRTDxfName
1000
SCALE
1000
AcRTDxfName
1000
SCALE
1000
AcRTDxfName
1000
SCALE
  0
ACAD_PROXY_OBJECT
  5
3585
102
{ACAD_REACTORS
330
3576
102
}
330
3576
100
AcDbProxyObject
 90
      499
 91
      508
 95
   983063
 70
     0
 93
      113
310
904383A31000000000000000810165
 94
        0
1001
ACAD
1000
AcRTDxfName
1000
SCALE
1000
AcRTDxfName
1000
SCALE
1000
AcRTDxfName
1000
SCALE
1000
AcRTDxfName
1000
SCALE
  0
ACAD_PROXY_OBJECT
  5
3586
102
{ACAD_REACTORS
330
3576
102
}
330
3576
100
AcDbProxyObject
 90
      499
 91
      508
 95
   983063
 70
     0
 93
      121
310
90531303A31000000000000000910120
 94
        0
1001
ACAD
1000
AcRTDxfName
1000
SCALE
1000
AcRTDxfName
1000
SCALE
1000
AcRTDxfName
1000
SCALE
1000
AcRTDxfName
1000
SCALE
  0
ACAD_PROXY_OBJECT
  5
3587
102
{ACAD_REACTORS
330
3576
102
}
330
3576
100
AcDbProxyObject
 90
      499
 91
      508
 95
   983063
 70
     0
 93
      129
310
9063130303A31000000000000001650100
 94
        0
1001
ACAD
1000
AcRTDxfName
1000
SCALE
1000
AcRTDxfName
1000
SCALE
1000
AcRTDxfName
1000
SCALE
1000
AcRTDxfName
1000
SCALE
  0
ACAD_PROXY_OBJECT
  5
3588
102
{ACAD_REACTORS
330
3576
102
}
330
3576
100
AcDbProxyObject
 90
      499
 91
      508
 95
   983063
 70
     0
 93
      265
310
90F312F31323822203D2031272D302200000000000000200FC00000000000028404E
 94
        0
1001
ACAD
1000
AcRTDxfName
1000
SCALE
1000
AcRTDxfName
1000
SCALE
1000
AcRTDxfName
1000
SCALE
1000
AcRTDxfName
1000
SCALE
  0
ACAD_PROXY_OBJECT
  5
3589
102
{ACAD_REACTORS
330
3576
102
}
330
3576
100
AcDbProxyObject
 90
      499
 91
      508
 95
   983063
 70
     0
 93
      257
310
90E312F363422203D2031272D302200000000000000240FC000000000000284040
 94
        0
1001
ACAD
1000
AcRTDxfName
1000
SCALE
1000
AcRTDxfName
1000
SCALE
1000
AcRTDxfName
1000
SCALE
1000
AcRTDxfName
1000
SCALE
  0
ACAD_PROXY_OBJECT
  5
358A
102
{ACAD_REACTORS
330
3576
102
}
330
3576
100
AcDbProxyObject
 90
      499
 91
      508
 95
   983063
 70
     0
 93
      257
310
90E312F333222203D2031272D302200000000000000280FC000000000000284066
 94
        0
1001
ACAD
1000
AcRTDxfName
1000
SCALE
1000
AcRTDxfName
1000
SCALE
1000
AcRTDxfName
1000
SCALE
1000
AcRTDxfName
1000
SCALE
  0
ACAD_PROXY_OBJECT
  5
358B
102
{ACAD_REACTORS
330
3576
102
}
330
3576
100
AcDbProxyObject
 90
      499
 91
      508
 95
   983063
 70
     0
 93
      257
310
90E312F313622203D2031272D3022000000000000002C0FC000000000000284040
 94
        0
1001
ACAD
1000
AcRTDxfName
1000
SCALE
1000
AcRTDxfName
1000
SCALE
1000
AcRTDxfName
1000
SCALE
1000
AcRTDxfName
1000
SCALE
  0
ACAD_PROXY_OBJECT
  5
358C
102
{ACAD_REACTORS
330
3576
102
}
330
3576
100
AcDbProxyObject
 90
      499
 91
      508
 95
   983063
 70
     0
 93
      257
310
90E332F333222203D2031272D3022000000000000002E0FC000000000000284066
 94
        0
1001
ACAD
1000
AcRTDxfName
1000
SCALE
1000
AcRTDxfName
1000
SCALE
1000
AcRTDxfName
1000
SCALE
1000
AcRTDxfName
1000
SCALE
  0
ACAD_PROXY_OBJECT
  5
358D
102
{ACAD_REACTORS
330
3576
102
}
330
3576
100
AcDbProxyObject
 90
      499
 91
      508
 95
   983063
 70
     0
 93
      249
310
90D312F3822203D2031272D302200000000000000300FC000000000000284028
 94
        0
1001
ACAD
1000
AcRTDxfName
1000
SCALE
1000
AcRTDxfName
1000
SCALE
1000
AcRTDxfName
1000
SCALE
1000
AcRTDxfName
1000
SCALE
  0
ACAD_PROXY_OBJECT
  5
358E
102
{ACAD_REACTORS
330
3576
102
}
330
3576
100
AcDbProxyObject
 90
      499
 91
      508
 95
   983063
 70
     0
 93
      257
310
90E332F313622203D2031272D302200000000000000320FC000000000000284066
 94
        0
1001
ACAD
1000
AcRTDxfName
1000
SCALE
1000
AcRTDxfName
1000
SCALE
1000
AcRTDxfName
1000
SCALE
1000
AcRTDxfName
1000
SCALE
  0
ACAD_PROXY_OBJECT
  5
358F
102
{ACAD_REACTORS
330
3576
102
}
330
3576
100
AcDbProxyObject
 90
      499
 91
      508
 95
   983063
 70
     0
 93
      249
310
90D312F3422203D2031272D302200000000000000340FC000000000000284040
 94
        0
1001
ACAD
1000
AcRTDxfName
1000
SCALE
1000
AcRTDxfName
1000
SCALE
1000
AcRTDxfName
1000
SCALE
1000
AcRTDxfName
1000
SCALE
  0
ACAD_PROXY_OBJECT
  5
3590
102
{ACAD_REACTORS
330
3576
102
}
330
3576
100
AcDbProxyObject
 90
      499
 91
      508
 95
   983063
 70
     0
 93
      249
310
90D332F3822203D2031272D302200000000000000360FC000000000000284028
 94
        0
1001
ACAD
1000
AcRTDxfName
1000
SCALE
1000
AcRTDxfName
1000
SCALE
1000
AcRTDxfName
1000
SCALE
1000
AcRTDxfName
1000
SCALE
  0
ACAD_PROXY_OBJECT
  5
3591
102
{ACAD_REACTORS
330
3576
102
}
330
3576
100
AcDbProxyObject
 90
      499
 91
      508
 95
   983063
 70
     0
 93
      249
310
90D312F3222203D2031272D302200000000000000380FC000000000000284040
 94
        0
1001
ACAD
1000
AcRTDxfName
1000
SCALE
1000
AcRTDxfName
1000
SCALE
1000
AcRTDxfName
1000
SCALE
1000
AcRTDxfName
1000
SCALE
  0
ACAD_PROXY_OBJECT
  5
3592
102
{ACAD_REACTORS
330
3576
102
}
330
3576
100
AcDbProxyObject
 90
      499
 91
      508
 95
   983063
 70
     0
 93
      249
310
90D332F3422203D2031272D3022000000000000003A0FC000000000000284028
 94
        0
1001
ACAD
1000
AcRTDxfName
1000
SCALE
1000
AcRTDxfName
1000
SCALE
1000
AcRTDxfName
1000
SCALE
1000
AcRTDxfName
1000
SCALE
  0
ACAD_PROXY_OBJECT
  5
3593
102
{ACAD_REACTORS
330
3576
102
}
330
3576
100
AcDbProxyObject
 90
      499
 91
      508
 95
   983063
 70
     0
 93
      169
310
90B3122203D2031272D3022004000000000000284000
 94
        0
1001
ACAD
1000
AcRTDxfName
1000
SCALE
1000
AcRTDxfName
1000
SCALE
1000
AcRTDxfName
1000
SCALE
1000
AcRTDxfName
1000
SCALE
  0
ACAD_PROXY_OBJECT
  5
3594
102
{ACAD_REACTORS
330
3576
102
}
330
3576
100
AcDbProxyObject
 90
      499
 91
      508
 95
   983063
 70
     0
 93
      265
310
90F312D312F3222203D2031272D3022000000000000003E0FC000000000000284018
 94
        0
1001
ACAD
1000
AcRTDxfName
1000
SCALE
1000
AcRTDxfName
1000
SCALE
1000
AcRTDxfName
1000
SCALE
1000
AcRTDxfName
1000
SCALE
  0
ACAD_PROXY_OBJECT
  5
3595
102
{ACAD_REACTORS
330
3576
102
}
330
3576
100
AcDbProxyObject
 90
      499
 91
      508
 95
   983063
 70
     0
 93
      233
310
90B3322203D2031272D30220000000000000002100000000000000284000
 94
        0
1001
ACAD
1000
AcRTDxfName
1000
SCALE
1000
AcRTDxfName
1000
SCALE
1000
AcRTDxfName
1000
SCALE
1000
AcRTDxfName
1000
SCALE
  0
ACAD_PROXY_OBJECT
  5
3596
102
{ACAD_REACTORS
330
3576
102
}
330
3576
100
AcDbProxyObject
 90
      499
 91
      508
 95
   983063
 70
     0
 93
      233
310
90B3622203D2031272D3022000000000000000610000000000000028405D
 94
        0
1001
ACAD
1000
AcRTDxfName
1000
SCALE
1000
AcRTDxfName
1000
SCALE
1000
AcRTDxfName
1000
SCALE
1000
AcRTDxfName
1000
SCALE
  0
ACAD_PROXY_OBJECT
  5
3597
102
{ACAD_REACTORS
330
3576
102
}
330
3576
100
AcDbProxyObject
 90
      499
 91
      508
 95
   983063
 70
     0
 93
      257
310
90E31272D3022203D2031272D3022000000000000000A100000000000000284000
 94
        0
1001
ACAD
1000
AcRTDxfName
1000
SCALE
1000
AcRTDxfName
1000
SCALE
1000
AcRTDxfName
1000
SCALE
1000
AcRTDxfName
1000
SCALE
  0
TABLESTYLE
  5
3575
102
{ACAD_XDICTIONARY
360
37D3
102
}
102
{ACAD_REACTORS
330
3574
102
}
330
3574
100
AcDbTableStyle
  3
Standard
 70
     0
 71
     0
 40
1.5
 41
1.5
280
     0
281
     0
  7
Standard
140
4.5
170
     2
 62
     0
 63
     7
283
     0
274
    -2
284
     1
 64
     0
275
    -2
285
     1
 65
     0
276
    -2
286
     1
 66
     0
277
    -2
287
     1
 67
     0
278
    -2
288
     1
 68
     0
279
    -2
289
     1
 69
     0
  7
Standard
140
6.0
170
     5
 62
     0
 63
     7
283
     0
274
    -2
284
     1
 64
     0
275
    -2
285
     1
 65
     0
276
    -2
286
     1
 66
     0
277
    -2
287
     1
 67
     0
278
    -2
288
     1
 68
     0
279
    -2
289
     1
 69
     0
  7
Standard
140
4.5
170
     5
 62
     0
 63
     7
283
     0
274
    -2
284
     1
 64
     0
275
    -2
285
     1
 65
     0
276
    -2
286
     1
 66
     0
277
    -2
287
     1
 67
     0
278
    -2
288
     1
 68
     0
279
    -2
289
     1
 69
     0
  0
ACAD_PROXY_OBJECT
  5
3568
102
{ACAD_REACTORS
330
3562
102
}
330
3562
100
AcDbProxyObject
 90
      499
 91
      506
 95
   983063
 70
     0
 93
      444
310
430C9915DA5C99599C985B59401049028333333333333E3BF0000000000000FB0107901411070040501600405405064090741402480A0340
 94
        0
1001
ACAD
1000
AcDbSavedByObjectVersion
1070
     0
1000
AcRTDxfName
1000
VISUALSTYLE
1000
AcRTDxfName
1000
VISUALSTYLE
1000
AcRTDxfName
1000
VISUALSTYLE
1000
AcRTDxfName
1000
VISUALSTYLE
  0
ACAD_PROXY_OBJECT
  5
356A
102
{ACAD_REACTORS
330
3562
102
}
330
3562
100
AcDbProxyObject
 90
      499
 91
      506
 95
   983063
 70
     0
 93
      508
310
428CD108121A5919195B8010640502408333333333333E3BF0000000000000FB01079024090700405020000000000001110200405405064090740C02480A0340
 94
        0
1001
ACAD
1000
AcDbSavedByObjectVersion
1070
     0
1000
AcRTDxfName
1000
VISUALSTYLE
1000
AcRTDxfName
1000
VISUALSTYLE
1000
AcRTDxfName
1000
VISUALSTYLE
1000
AcRTDxfName
1000
VISUALSTYLE
  0
ACAD_PROXY_OBJECT
  5
3569
102
{ACAD_REACTORS
330
3562
102
}
330
3562
100
AcDbProxyObject
 90
      499
 91
      506
 95
   983063
 70
     0
 93
      444
310
430CD915DA5C99599C985B59401059028333333333333E3BF0000000000000FB0107901411070040501600405405064090741402480A0340
 94
        0
1001
ACAD
1000
AcDbSavedByObjectVersion
1070
     0
1000
AcRTDxfName
1000
VISUALSTYLE
1000
AcRTDxfName
1000
VISUALSTYLE
1000
AcRTDxfName
1000
VISUALSTYLE
1000
AcRTDxfName
1000
VISUALSTYLE
  0
ACAD_PROXY_OBJECT
  5
3567
102
{ACAD_REACTORS
330
3562
102
}
330
3562
100
AcDbProxyObject
 90
      499
 91
      506
 95
   983063
 70
     0
 93
      396
310
4190985CDA58C0107406404333333333333E3BF0000000000000FB0107A41107004050150841D405064090741402480A0354
 94
        0
1001
ACAD
1000
AcDbSavedByObjectVersion
1070
     0
1000
AcRTDxfName
1000
VISUALSTYLE
1000
AcRTDxfName
1000
VISUALSTYLE
1000
AcRTDxfName
1000
VISUALSTYLE
1000
AcRTDxfName
1000
VISUALSTYLE
  0
ACAD_PROXY_OBJECT
  5
356E
102
{ACAD_REACTORS
330
3562
102
}
330
3562
100
AcDbProxyObject
 90
      499
 91
      506
 95
   983063
 70
     0
 93
      436
310
42509C9A59DA1D195B8010C409028333333333333E3BF0000000000000FB010790141107004050150841D405064090741402480A02995A
 94
        0
1001
ACAD
1000
AcDbSavedByObjectVersion
1070
     0
1000
AcRTDxfName
1000
VISUALSTYLE
1000
AcRTDxfName
1000
VISUALSTYLE
1000
AcRTDxfName
1000
VISUALSTYLE
1000
AcRTDxfName
1000
VISUALSTYLE
  0
ACAD_PROXY_OBJECT
  5
3572
102
{ACAD_REACTORS
330
3562
102
}
330
3562
100
AcDbProxyObject
 90
      499
 91
      506
 95
   983063
 70
     0
 93
      460
310
4310DBDB1BDC90DA185B99D9401104090240C333333333333E3BF0000000000000FB0108901411070040501508421405064090741402480A035E
 94
        0
1001
ACAD
1000
AcDbSavedByObjectVersion
1070
     0
1000
AcRTDxfName
1000
VISUALSTYLE
1000
AcRTDxfName
1000
VISUALSTYLE
1000
AcRTDxfName
1000
VISUALSTYLE
1000
AcRTDxfName
1000
VISUALSTYLE
  0
ACAD_PROXY_OBJECT
  5
356B
102
{ACAD_REACTORS
330
3562
102
}
330
3562
100
AcDbProxyObject
 90
      499
 91
      506
 95
   983063
 70
     0
 93
      508
310
42D0DBDB98D95C1D1D585B0010940D028333333333333E3BF0000000000000FB0107902409070040501000000000000111010841D405064090740C02480A0340
 94
        0
1001
ACAD
1000
AcDbSavedByObjectVersion
1070
     0
1000
AcRTDxfName
1000
VISUALSTYLE
1000
AcRTDxfName
1000
VISUALSTYLE
1000
AcRTDxfName
1000
VISUALSTYLE
1000
AcRTDxfName
1000
VISUALSTYLE
  0
ACAD_PROXY_OBJECT
  5
356D
102
{ACAD_REACTORS
330
3562
102
}
330
3562
100
AcDbProxyObject
 90
      499
 91
      506
 95
   983063
 70
     0
 93
      420
310
41111A5B4010B409028333333333333E3BF0000000000000FB010790141107004050150841D405064090741402480A02677FFFFFD2
 94
        0
1001
ACAD
1000
AcDbSavedByObjectVersion
1070
     0
1000
AcRTDxfName
1000
VISUALSTYLE
1000
AcRTDxfName
1000
VISUALSTYLE
1000
AcRTDxfName
1000
VISUALSTYLE
1000
AcRTDxfName
1000
VISUALSTYLE
  0
ACAD_PROXY_OBJECT
  5
3571
102
{ACAD_REACTORS
330
3562
102
}
330
3562
100
AcDbProxyObject
 90
      499
 91
      506
 95
   983063
 70
     0
 93
      452
310
43119858D95C185D1D195C9B8010F409028333333333333E3BF0000000000000FB010790141107004050150841D405064090741402480A0353
 94
        0
1001
ACAD
1000
AcDbSavedByObjectVersion
1070
     0
1000
AcRTDxfName
1000
VISUALSTYLE
1000
AcRTDxfName
1000
VISUALSTYLE
1000
AcRTDxfName
1000
VISUALSTYLE
1000
AcRTDxfName
1000
VISUALSTYLE
  0
ACAD_PROXY_OBJECT
  5
3563
102
{ACAD_REACTORS
330
3562
102
}
330
3562
100
AcDbProxyObject
 90
      499
 91
      506
 95
   983063
 70
     0
 93
      396
310
41519B185D00240901404333333333333E3BF0000000000000F9010740A41107004050150841D405064090741402480A1B58
 94
        0
1001
ACAD
1000
AcDbSavedByObjectVersion
1070
     0
1000
AcRTDxfName
1000
VISUALSTYLE
1000
AcRTDxfName
1000
VISUALSTYLE
1000
AcRTDxfName
1000
VISUALSTYLE
1000
AcRTDxfName
1000
VISUALSTYLE
  0
ACAD_PROXY_OBJECT
  5
3564
102
{ACAD_REACTORS
330
3562
102
}
330
3562
100
AcDbProxyObject
 90
      499
 91
      506
 95
   983063
 70
     0
 93
      484
310
43919B185D15DA5D1A115919D95CC010140901404333333333333E3BF0000000000000F9010740901411070040501600405405064090741402480A1B58
 94
        0
1001
ACAD
1000
AcDbSavedByObjectVersion
1070
     0
1000
AcRTDxfName
1000
VISUALSTYLE
1000
AcRTDxfName
1000
VISUALSTYLE
1000
AcRTDxfName
1000
VISUALSTYLE
1000
AcRTDxfName
1000
VISUALSTYLE
  0
ACAD_PROXY_OBJECT
  5
3565
102
{ACAD_REACTORS
330
3562
102
}
330
3562
100
AcDbProxyObject
 90
      499
 91
      506
 95
   983063
 70
     0
 93
      420
310
4211DBDD5C985D590010240902404333333333333E3BF0000000000000F9010740A411070040501641D405064090741402480A1B58
 94
        0
1001
ACAD
1000
AcDbSavedByObjectVersion
1070
     0
1000
AcRTDxfName
1000
VISUALSTYLE
1000
AcRTDxfName
1000
VISUALSTYLE
1000
AcRTDxfName
1000
VISUALSTYLE
1000
AcRTDxfName
1000
VISUALSTYLE
  0
ACAD_PROXY_OBJECT
  5
3566
102
{ACAD_REACTORS
330
3562
102
}
330
3562
100
AcDbProxyObject
 90
      499
 91
      506
 95
   983063
 70
     0
 93
      508
310
4451DBDD5C985D5915DA5D1A115919D95CC010340902404333333333333E3BF0000000000000F9010740901411070040501600405405064090741402480A1B50
 94
        0
1001
ACAD
1000
AcDbSavedByObjectVersion
1070
     0
1000
AcRTDxfName
1000
VISUALSTYLE
1000
AcRTDxfName
1000
VISUALSTYLE
1000
AcRTDxfName
1000
VISUALSTYLE
1000
AcRTDxfName
1000
VISUALSTYLE
  0
ACAD_PROXY_OBJECT
  5
3570
102
{ACAD_REACTORS
330
3562
102
}
330
3562
100
AcDbProxyObject
 90
      499
 91
      506
 95
   983063
 70
     0
 93
      452
310
43131A5B995C185D1D195C9B8010E409028333333333333E3BF0000000000000FB010790141107004050750841D405064090741402483A0350
 94
        0
1001
ACAD
1000
AcDbSavedByObjectVersion
1070
     0
1000
AcRTDxfName
1000
VISUALSTYLE
1000
AcRTDxfName
1000
VISUALSTYLE
1000
AcRTDxfName
1000
VISUALSTYLE
1000
AcRTDxfName
1000
VISUALSTYLE
  0
ACAD_PROXY_OBJECT
  5
356C
102
{ACAD_REACTORS
330
3562
102
}
330
3562
100
AcDbProxyObject
 90
      499
 91
      506
 95
   983063
 70
     0
 93
      428
310
429499585B1A5CDD1A58C0108409028333333333333E3BF0000000000000FB01079019070040501508421405064090741402480A1B49
 94
        0
1001
ACAD
1000
AcDbSavedByObjectVersion
1070
     0
1000
AcRTDxfName
1000
VISUALSTYLE
1000
AcRTDxfName
1000
VISUALSTYLE
1000
AcRTDxfName
1000
VISUALSTYLE
1000
AcRTDxfName
1000
VISUALSTYLE
  0
ACAD_PROXY_OBJECT
  5
356F
102
{ACAD_REACTORS
330
3562
102
}
330
3562
100
AcDbProxyObject
 90
      499
 91
      506
 95
   983063
 70
     0
 93
      420
310
42151A1A58DAD95B8010D409028333333333333E3BF0000000000000FB010790141107004050150C41D405064090741402480A0352
 94
        0
1001
ACAD
1000
AcDbSavedByObjectVersion
1070
     0
1000
AcRTDxfName
1000
VISUALSTYLE
1000
AcRTDxfName
1000
VISUALSTYLE
1000
AcRTDxfName
1000
VISUALSTYLE
1000
AcRTDxfName
1000
VISUALSTYLE
  0
DICTIONARYVAR
  5
3813
102
{ACAD_REACTORS
330
3B
102
}
330
3B
100
DictionaryVariables
280
     0
  1
1:1
  0
DICTIONARYVAR
  5
3867
102
{ACAD_REACTORS
330
3B
102
}
330
3B
100
DictionaryVariables
280
     0
  1
STANDARD
  0
DICTIONARYVAR
  5
3812
102
{ACAD_REACTORS
330
3B
102
}
330
3B
100
DictionaryVariables
280
     0
  1
STANDARD
  0
DICTIONARYVAR
  5
3D
102
{ACAD_REACTORS
330
3B
102
}
330
3B
100
DictionaryVariables
280
     0
  1
2
  0
DICTIONARYVAR
  5
3C
102
{ACAD_REACTORS
330
3B
102
}
330
3B
100
DictionaryVariables
280
     0
  1
1
  0
DICTIONARYVAR
  5
3815
102
{ACAD_REACTORS
330
3B
102
}
330
3B
100
DictionaryVariables
280
     0
  1
0
  0
DICTIONARYVAR
  5
3DC5
102
{ACAD_REACTORS
330
3B
102
}
330
3B
100
DictionaryVariables
280
     0
  1

  0
DICTIONARYVAR
  5
3814
102
{ACAD_REACTORS
330
3B
102
}
330
3B
100
DictionaryVariables
280
     0
  1
127
  0
DICTIONARY
  5
35F0
330
2F0B
100
AcDbDictionary
280
     1
281
     1
  3
ACAD_XREC_ROUNDTRIP
360
426D
  3
ADSK_XREC_LAYOUTTHUMBNAIL
360
35F1
  0
DICTIONARY
  5
426B
330
22
100
AcDbDictionary
280
     1
281
     1
  3
ACAD_XREC_ROUNDTRIP
360
426C
  0
DICTIONARY
  5
3553
330
3552
100
AcDbDictionary
280
     1
281
     1
  3
ACAD_XREC_ROUNDTRIP
360
3D71
  3
BUMPTILE
360
3555
  3
DIFFUSETILE
360
3554
  3
OPACITYTILE
360
3558
  3
REFLECTIONTILE
360
3557
  3
REFRACTIONTILE
360
3559
  3
SPECULARTILE
360
3556
  0
DICTIONARY
  5
354B
330
354A
100
AcDbDictionary
280
     1
281
     1
  3
ACAD_XREC_ROUNDTRIP
360
3D70
  3
BUMPTILE
360
354D
  3
DIFFUSETILE
360
354C
  3
OPACITYTILE
360
3550
  3
REFLECTIONTILE
360
354F
  3
REFRACTIONTILE
360
3551
  3
SPECULARTILE
360
354E
  0
DICTIONARY
  5
355B
330
355A
100
AcDbDictionary
280
     1
281
     1
  3
ACAD_XREC_ROUNDTRIP
360
3D72
  3
BUMPTILE
360
355D
  3
DIFFUSETILE
360
355C
  3
OPACITYTILE
360
3560
  3
REFLECTIONTILE
360
355F
  3
REFRACTIONTILE
360
3561
  3
SPECULARTILE
360
355E
  0
DICTIONARY
  5
37D3
330
3575
100
AcDbDictionary
280
     1
281
     1
  3
ACAD_ROUNDTRIP_2008_TABLESTYLE_CELLSTYLEMAP
360
3D58
  3
ACAD_XREC_ROUNDTRIP
360
3D73
  0
XRECORD
  5
426D
102
{ACAD_REACTORS
330
35F0
102
}
330
35F0
100
AcDbXrecord
280
     1
102
SHADEPLOT
 70
     1
102
SHADEPLOTRESLEVEL
 70
     2
102
SHADEPLOTCUSTOMDPI
 70
   300
  0
XRECORD
  5
35F1
102
{ACAD_REACTORS
330
35F0
102
}
330
35F0
100
AcDbXrecord
280
     1
310
28000000620000008C0000000100080000000000B0360000000000000000000000010000000000000000000000000000FFFFFF000000000000000000000000000000000000000000000000000000000000000000330000006600000099000000CC000000FF00000000330000333300006633000099330000CC330000FF3300
310
0000660000336600006666000099660000CC660000FF66000000990000339900006699000099990000CC990000FF99000000CC000033CC000066CC000099CC0000CCCC0000FFCC000000FF000033FF000066FF000099FF0000CCFF0000FFFF000000003300330033006600330099003300CC003300FF003300003333003333
310
33006633330099333300CC333300FF33330000663300336633006666330099663300CC663300FF66330000993300339933006699330099993300CC993300FF99330000CC330033CC330066CC330099CC3300CCCC3300FFCC330000FF330033FF330066FF330099FF3300CCFF3300FFFF330000006600330066006600660099
310
006600CC006600FF00660000336600333366006633660099336600CC336600FF33660000666600336666006666660099666600CC666600FF66660000996600339966006699660099996600CC996600FF99660000CC660033CC660066CC660099CC6600CCCC6600FFCC660000FF660033FF660066FF660099FF6600CCFF6600
310
FFFF660000009900330099006600990099009900CC009900FF00990000339900333399006633990099339900CC339900FF33990000669900336699006666990099669900CC669900FF66990000999900339999006699990099999900CC999900FF99990000CC990033CC990066CC990099CC9900CCCC9900FFCC990000FF99
310
0033FF990066FF990099FF9900CCFF9900FFFF99000000CC003300CC006600CC009900CC00CC00CC00FF00CC000033CC003333CC006633CC009933CC00CC33CC00FF33CC000066CC003366CC006666CC009966CC00CC66CC00FF66CC000099CC003399CC006699CC009999CC00CC99CC00FF99CC0000CCCC0033CCCC0066CC
310
CC0099CCCC00CCCCCC00FFCCCC0000FFCC0033FFCC0066FFCC0099FFCC00CCFFCC00FFFFCC000000FF003300FF006600FF009900FF00CC00FF00FF00FF000033FF003333FF006633FF009933FF00CC33FF00FF33FF000066FF003366FF006666FF009966FF00CC66FF00FF66FF000099FF003399FF006699FF009999FF00CC
310
99FF00FF99FF0000CCFF0033CCFF0066CCFF0099CCFF00CCCCFF00FFCCFF0000FFFF0033FFFF0066FFFF0099FFFF00CCFFFF00FFFFFF00000000000D0D0D001A1A1A00282828003535350043434300505050005D5D5D006B6B6B00787878008686860093939300A1A1A100AEAEAE00BBBBBB00C9C9C900D6D6D600E4E4E400
310
F1F1F100FFFFFF0000000000000000000000000000000000000000000000000000000000000000000000000000000000F5F5F5F5F5F5F5F5F5F5F5F5F5F5F5F5F5F5F5F5F5F5F5F5F5F5F5F5F5F5F5F5F5F5F5F5F5F5F5F5F5F5F5F5F5F5F5F5F5F5F5F5F5F5F5F5F5F5F5F5F5F5F5F5F5F5F5F5F5F5F5F5F5F5F5F5F5F5F5
310
F5F5F5F5F5F5F5F5F5F5F5F5F5F5F5F5F5F5F5EC8DF5E2E2E2E2E2E2E2E2E2E2E2E2E2E2E2E2E2E2E2E2E2E2E2E2E2E2E2E2E2E2E2E2E2E2E2E2E2E2E2E2E2E2E2E2E2E2E2E2E2E2E2E2E2E2E2E2E2E2E2E2E2E2E2E2E2E2E2E2E2E2E2E2E2E2E2E2E2E2E2E2E2E2E2E2E2E2E2E2E2E2E2E2E2E2E2E2F54740F5E2E2E2E2E2
310
E2E2E2E2E2E2E2E2E2E2E2E2E2E2E2E2E2E2E2E2E2E2E2E2E2E2E2E2E2E2E2E2E2E2E2E2E2E2E2E2E2E2E2E2E2E2E2E2E2E2E2E2E2E2E2E2E2E2E2E2E2E2E2E2E2E2E2E2E2E2E2E2E2E2E2E2E2E2E2E2E2E2E2E2E2E2E2E2E2E2E2F5F49BF5E2F5F5F5F5F5F5F5F5E2E2E2E2E2E2E2E2F5F5F5F5F5F5F5F5F5F5F5F5F5F5F5
310
E2E2E2F5F5F5F5F5F5F5F5F5F5F5F5F5F5F5F5F5F5F5F5F5F5F5F5F5F5E2E2E2F5F5F5F5F5F5F5F5F5F5F5F5F5F5F5E2E2E2E2E2E2E2E2F5F5F5F5F5F5F5F5E2F50140F5E2F5E2E2E2E2E2E2E2E2E2E2E2E2E2E2E2E2E2E2E2E2E2E2E2E2E2E2E2E2E2E2E2E2E2F5F5F5F5F5F5F5F5F5F5F5F5F5F5F5F5F5F5F5F5F5F5F5F5
310
F5F5E2E2E2E2E2E2E2E2E2E2E2E2E2E2E2E2E2E2E2E2E2E2E2E2E2E2E2E2E2E2E2E2E2F5E2F56666F5E2F5E2E2E2E2E2E2E2E2E2E2E2E2E2E2E2E2E2E2E2E2E2E2E2F5F5F5F5F5F5F5F5F5F5F5F5F5F5F5F5F5F5F5F5F5F5F5F5F5F5F5F5F5F5F5F5F5F5F5F5F5F5F5F5F5F5F5F5F5F5E2E2E2E2E2E2E2E2E2E2E2E2E2E2E2
310
E2E2E2E2E2E2E2E2F5E2F54640F5E2F5E2E2E2E2E2E2E2E2E2E2E2E2E2E2E2E2E2E2E2E2E2E2E2E2E2E2E2E2E2E2E2E2E2E2E2E2E2E2E2E2E2E2E2E2E2E2E2E2E2E2E2E2E2E2E2E2E2E2E2E2E2E2E2E2E2E2E2E2E2E2E2E2E2E2E2E2E2E2E2E2E2E2E2E2E2E2E2E2E2E2E2E2F5E2F54B96F5E2F5E2E2E2E2F5F5F5F5F5F5F5
310
F5F5F5F5F5F5F5F5F5F5F5F5F5F5F5F5F5F5F5F5F5F5F5F5F5F5F5F5F5F5F5F5F5F5F5F5F5F5F5F5F5F5F5F5F5F5F5F5F5F5F5F5F5F5F5F5F5F5F5F5F5F5F5F5F5F5F5F5F5F5F5F5F5F5F5F5F5E2E2E2E2F5E2F5813FF5E2F5E2E2E2E2F5F5F5F5F5F5F5F5F5F5F5F5F5F5F5F5F5F5F5F5F5F5F5F5F5F5F5F5F5F5F5F5F5F5
310
F5F5F5F5F5F5F5F5F5F5F5F5F5F5F5F5F5F5F5F5F5F5F5F5F5F5F5F5F5F5F5F5F5F5F5F5F5F5F5F5F5F5F5F5F5F5F5F5F5F5E2E2E2E2F5E2F51785F5E2F5E2E2E2E2F5F5F5F5F5F5F5F5F5F5F5F5F5F5F5F5F5F5F5F5F5F5F5F5F5F5F5F5F5F5F5F5F5F5F5F5F5F5F5F5F5F5F5F5F5F5F5F5F5F5F5F5F5F5F5F5F5F5F5F5F5
310
F5F5F5F5F5F5F5F5F5F5F5F5F5F5F5F5F5F5F5F5F5F5F5E2E2E2E2F5E2F54240F5E2F5E2E2E2E2F5F5E2E2E2E2E2E2E2E2E2E2E2E2E2E2E2E2E2E2E2E2E2E2E2E2E2E2E2E2E2E2E2E2E2E2E2E2E2E2E2E2E2E2E2E2E2E2E2E2E2E2E2E2E2E2E2E2E2E2E2E2E2E2E2E2E2E2E2E2E2E2E2E2E2E2E2E2E2E2E2E2E2F5E2E2E2E2
310
F5E2F50B5DF5E2F5E2E2E2E2F5F5E2E2E2E2E2E2F5F5F5F5E2E2E2E2E2E2E2E2E2E2E2E2E2E2E2E2E2E2E2E2E2E2F5F5F5F5F5F5F5F5F5F5F5F5F5F5F5F5F5F5F5F5F5F5F5F5E2E2E2E2E2E2ECECECE2E2E2E2E2E2E2E2E2E2E2E2E2E2E2E2F5E2E2E2E2F5E2F50040F5E2E2E2E2E2E2F5F5E2E2E2E2E2E2F5F5F5F5F5E2E2
310
E2E2E2E2E2E2E2E2E2E2E2E2E2E2E2E2E2E2E2F5F5F5F5F5F5F5F5F5F5F5F5F5F5F5F5F5F5F5F5F5F5F5F5E2E2E2E2E2ECECECECECE2E2E2E2E2E2E2E2E2E2E2E2E2E2E2F5E2E2E2E2E2E2F5E1A3F5E2E2E2E2E2E2F5F5E2E2E2E2E2E2F5F5F5F5F5E2E2E2E2E2E2E2E2E2E2E2E2E2E2E2E2E2E2E2E2E2E2E2E2E2E2E2E2E2
310
E2E2E2E2E2E2E2E2E2E2E2E2E2E2E2E2E2E2E2E2E2ECECE2ECECE2E2E2E2E2E2E2E2E2E2E2E2E2E2E2F5E2E2E2E2E2E2F54140F5E2E2E2E2E2E2F5F5E2E2E2E2E2E2F5F5F5F5F5E2E2E2E2E2F5F5F5F5F5E2E2E2E2E2E2E2E2F5F5F5F5F5E2E2F5F5F5F5F5E2E2E2E2E2F5F5F5F5E2E2F5F5F5F5E2E2E2E2E2ECECECECECE2
310
E2E2F5F5F5F5E2E2E2E2E2E2E2E2F5E2E2E2E2E2E2F5182BF5E2E2E2E2E2E2F5F5E2E2E2E2E2E2F5F5F5F5F5E2E2E2E2E2F5F5F5F5F5E2E2E2E2E2E2E2E2F5F5F5F5F5E2E2F5F5F5F5F5E2E2E2E2E2F5F5F5F5E2E2F5F5F5F5E2E2E2E2E2ECECECECECE2E2E2F5F5F5F5E2E2E2E2E2E2E2E2F5E2E2E2E2E2E2F51340F5E2E2
310
E2E2E2E2F5F5E2E2E2E2E2E2EFEFEFEFEFEFEFEFEFEFEFEFEFEFEFEFEFEFEFEFEFEFEFEFEFEFEFEFEFEFEFEFEFEFEFEFE2E2E2E2EFEFEFEFEFEFEFEFEFEFEFEFEFEFEFEFEFECEFEFEFEFEFEFEFEFEFEFEFEFE2E2E2E2E2F5E2E2E2E2E2E2F5795EF5E2E2E2E2E2E2F5F5E2E2E2E2E2E2ECECECECEFEFEFE2E2E2E2E2E2E2E2
310
E2EFEFE2ECECEFE2E2E2E2E2E2E2EFEFEFEFEFEFEFE2E2E2E2EFE2EFEFEFEFEFE2E2E2E2E2E2E2E2EFEFEFEFE2E2E2E2EFE2E2EFE2EFEFE2E2E2E2E2F5E2E2E2E2E2E2F54140F5E2E2E2E2E2E2F5F5E2E2E2E2E2F5ECECECECE2EFEFE2E2E2E2E2E2E2E2E2EFEFECECECECE2E2E2E2E2E2E2EFE2E2EFEFEFEFE2E2E2E2EFEF
310
EFE2E2EFEFE2E2E2E2E2E2E2E2EFEFEFEFE2E2EFEFEFE2E2E2E2E2E2E2E2E2E2E2F5E2E2E2E2E2E2F53F87F5E2E2E2E2E2E2F5F5E2E2E2E2E2ECECECECECE2EFEFE2E2E2E2E2E2E2E2E2EFEFEFEFEFEFE2E2E2E2E2E2E2EFEFEFEFEFEFEFE2E2E2E2EFEFEFEFEFEFEFE2E2E2E2E2E2E2E2EFEFEFEFE2EFEFEFE2E2E2E2E2E2
310
E2E2E2E2E2E2F5E2E2E2E2E2E2F50840F5E2E2E2E2E2E2F5F5E2E2E2E2E2F5F5F5F5F5E2EFEFE2E2E2E2E2E2E2E2E2EFE2E2E2EFEFE2E2E2E2E2E2E2EFEFE2ECECECECE2E2E2E2ECECECE2EFEFEFE2E2E2E2E2E2E2E2EFEFECEFE2EFEFEFEFE2E2E2E2E2E2E2E2E2E2E2F5E2E2E2E2E2E2F56666F5E2F5E2E2E2E2F5F5E2E2
310
E2E2E2F5F5F5F5F5E2EFEFE2E2E2E2E2E2E2E2E2EFE2E2E2EFEFE2E2E2E2E2E2E2EFEFE2ECECECECF5E2E2F5ECECECF5E2EFEFE2E2E2E2E2E2E2E2EFEFECEFE2EFEFE2E2E2E2E2E2E2E2E2E2E2E2E2F5E2E2E2E2F5E2F53040F5E2F5E2E2E2E2F5F5E2E2E2E2E2ECECECECECE2EFEFE2E2E2E2E2E2E2E2E2EFE2E2E2EFEFE2
310
E2E2E2E2E2E2EFEFE2ECECECECECE2E2ECECECECECE2EFEFE2E2E2E2E2E2E2E2EFEFECEFE2EFEFE2E2E2E2E2E2E2E2E2E2E2E2E2F5E2E2E2E2F5E2F59C54F5E2F5E2E2E2E2F5F5E2E2E2E2E2F5ECECECECE2EFEFE2E2E2E2E2E2E2E2E2EFE2E2E2EFEFE2E2E2E2E2E2E2EFEFE2F5F5F5F5F5E2E2F5F5F5F5F5E2EFEFE2E2E2
310
E2E2E2E2E2EFEFECEFE2EFEFE2E2E2E2E2E2E2E2E2E2E2E2E2F5E2E2E2E2F5E2F50A40F5E2F5E2E2E2E2F5F5E2E2E2E2E2E2ECECECEFEFEFEFE2E2E2E2E2E2E2E2E2EFE2EFEFEFEFE2E2E2E2E2E2E2EFEFEFEFECECECE2E2E2E2ECECECEFEFEFEFE2E2E2E2E2E2E2E2EFEFECEFE2EFEFE2E2E2E2E2E2E2E2E2E2E2E2E2F5E2
310
E2E2E2F5E2F59DF2F5E2F5E2E2E2E2F5F5E2E2E2E2E2E2EFEFEFE2E2E2EFE2E2E2E2E2E2E2E2E2EFEFEFEFEFEFE2E2E2E2E2E2E2EFE2E2E2EFEFEFE2E2E2E2EFEFEFE2E2EFEFE2E2E2E2E2E2E2E2EFEFEFEFE2EFEFE2E2E2E2E2E2E2E2E2E2E2E2E2F5E2E2E2E2F5E2F52E40F5E2F5E2E2E2E2F5F5E2E2E2E2E2E2EFEFEFEF
310
EFEFEFE2E2E2E2E2E2E2ECECECECEFEFE2E2E2E2E2E2E2E2E2EFEFE2EFEFEFEFE2E2E2E2EFE2EFEFEFEFEFE2E2E2E2E2E2E2E2EFEFEFEFE2EFEFE2E2E2E2E2E2E2E2E2E2E2E2E2F5E2E2E2E2F5E2F50000F5E2F5E2E2E2E2F5F5E2E2E2E2E2E2EFEFEFEFEFEFEFEFEFEFEFEFEFEFEFECECEFEFEFEFEFEFEFEFEFEFEFEFEFEF
310
EFEFEFEFEFE2E2E2E2EFEFEFEFEFEFEFEFEFEFEFEFEFEFEFEFEFE2EFEFEFEFE2E2E2E2E2E2E2E2E2E2E2E2E2F5E2E2E2E2F5E2F51640F5E2F5E2E2E2E2F5F5E2E2E2E2E2E2E2E2E2E2E2E2E2E2E2E2E2E2E2E2E2E2E2E2E2E2E2E2E2E2E2E2E2E2E2E2E2E2E2E2E2E2E2E2E2E2E2E2E2E2E2E2E2E2E2E2E2E2E2ECECECE2E2
310
282828282828E2E2E2E2E2E2E2E2E2E2E2F5E2E2E2E2F5E2F5CDD9F5E2F5E2E2E2E2F5F5E2E2E2E2E2E2E2E2E2E2E2E2E2E2E2E2E2E2E2E2E2E2E2E2E2E2E2E2E2E2E2E2E2E2E2E2E2E2E2E2E2E2E2E2E2E2E2E2E2E2E2E2E2E2E2E2E2E2E2ECECECE2EF28ECE2ECE228E2E2E2E2E2E2E2E2E2E2E2F5E2E2E2E2F5E2F52C40
310
F5E2F5E2E2E2E2F5F5E2E2E2E2E2E2E2E2E2E2E2E2E2E2E2E2E2E2E2E2E2E2E2E2E2E2E2E2E2E2E2E2E2E2E2E2E2E2E2E2E2E2E2E2E2E2E2E2E2E2E2E2E2E2E2E2E2E2E2EFEFECEFEF28ECECE2ECECE2E2E2E2E2E2E2E2E2E2E2F5E2E2E2E2F5E2F50000F5E2F5E2E2E2E2F5F5E2E2E2E2E2E2E2E2E2E2E2E2E2E2E2E2E2E2
310
E2E2E2E2E2E2E2E2E2E2E2E2E2E2E2E2E2E2E2E2E2E2E2E2E2E2E2E2E2E2E2E2E2E2E2E2E2E2E2E2E2E2E2E2E2E228ECECE2EC28E2E2E2E2E2E2E2E2E2E2E2F5E2E2E2E2F5E2F5FE3FF5E2F5E2E2E2E2F5F5E2E2E2E2E2E2E2E2E2E2E2E2E2E2E2E2E2E2E2E2E2E2E2E2E2E2E2E2E2E2E2E2E2E2E2E2E2E2E2E2E2E2E2E2E2
310
E2E2E2E2E2E2E2E2E2E2E2E2E2E2E2E2E2E2E228ECECE2EC28E2E2E2E2E2E2E2E2E2E2E2F5E2E2E2E2F5E2F5FFFFF5E2F5E2E2E2E2F5F5E2E2E2E2E2E2E2E2E2E2E2E2E2E2E2E2E2E2E2E2E2E2E2E2E2E2E2E2E2E2E2E2E2E2E2E2E2E2E2E2E2E2E2E2E2E2E2E2E2E2E2E2E2E2E2E2E2E2E2E2E2E2E2E228ECECECEC28E2E2
310
E2E2E2E2E2E2E2E2E2F5E2E2E2E2F5E2F52740F5E2F5E2E2E2E2F5F5E2E2E2E2E2E2E2E2E2E2E2E2E2E2E2E2E2E2E2E2E2E2E2E2E2E2E2E2E2E2E2E2E2E2E2E2E2F5F5F5F5F5F5F5F5F5F5F5F5F5E2E2E2E2E2E2E2E2E2E2E2E2E2E228ECECECEC28E2E2E2E2E2E2E2E2E2E2E2F5E2E2E2E2F5E2F50000F5E2F5E2E2E2E2F5
310
F5E2E2E2E2E2E2E2E2E2E2E2E2E2E2E2E2E2E2E2E2E2E2E2E2E2E2E2E2E2E2E2E2E2E2E2E2E2F5F5F5F5F5F5F5F5F5F5F5E2F5E2E2E2E2E2E2E2E2E2E2E2E2E2E228ECECECEC28E2E2E2E2E2E2E2E2E2E2E2F5E2E2E2E2F5E2F5D73FF5E2F5E2E2E2E2F5F5E2E2E2E2E2E2E2E2E2E2E2E2E2E2E2E2E2E2E2E2E2E2E2E2E2E2
310
E2E2E2E2E2E2E2E2E2E2E2F5F5F5F5F5F5F5F5F5F5F5F5F5E2E2E2E2E2E2E2E2E2E2E2E2E2E228ECECE2EC28E2E2E2E2E2E2E2E2E2E2E2F5E2E2E2E2F5E2F57214F5E2F5E2E2E2E2F5F5E2E2E2E2E2E2E2E2E2E2E2E2E2E2E2E2E2E2E2E2E2E2E2E2E2E2E2E2E2E2E2E2E2E2E2E2E2E2E2E2E2E2E2E2E2E2E2E2E2E2E2E2E2
310
E2E2E2E2E2E2E2E2E2E2E228ECE2ECEC28E2E2E2E2E2E2E2E2E2E2E2F5E2E2E2E2F5E2F51440F5E2E2E2E2E2E2F5F5E2E2E2E2E2E2E2E2E2E2E2E2E2E2E2E2E2E2E2E2E2E2E2E2E2E2E2E2E2E2E2E2E2E2E2E2E2E2E2E2E2E2E2E2E2E2E2E2E2E2E2E2E2E2E2E2E2E2E2E2E2E2E2E228ECE2ECE228E2E2E2E2E2E2E2E2E2E2
310
E2F5E2E2E2E2E2E2F5E8ADF5E2E2E2E2E2E2F5F5E2E2E2E2E2E2E2E2E2E2E2E2E2E2E2E2E2E2E2E2E2E2E2E2E2E2E2E2E2E2E2E2E2E2E2E2E2E2E2E2E2E2E2E2E2E2E2E2E2E2E2E2E2E2E2E2E2E2E2E2E2E2E2E228ECECECEC28E2E2E2E2E2E2E2E2E2E2E2F5E2E2E2E2E2E2F50240F5E2E2E2E2E2E2F5F5E2E2E2E2E2E2EF
310
EFE2E2E2E2E2E2E2E2E2E2E2E2E2E2E2E2E2E2E2E2E2E2E2E2E2E2E2E2E2E2E2E2E2E2E2E2E2E2E2E2E2E2E2E2E2E2E2E2E2E2E2E2E2E2E2E228E2EC282828E2E2E2E2E2E2E2E2E2E2E2F5E2E2E2E2E2E2F5FFFFF5E2E2E2E2E2E2F5F5E2E2E2E2E2E2EFEFE2E2E2E2E2E2E2E2E2E2E2E2E2E2E2E2E2E2E2E2E2E2E2E2E2E2
310
E2E2E2E2E2E2E2E2E2E2E2E2E2E2E2E2E2E2E2E2E2E2E2E2E2E2E2E2E2E2ECE2EC28E2E2E2E2E2E2E2E2E2E2E2E2E2F5E2E2E2E2E2E2F50540F5E2E2E2E2E2E2F5F5E2E2E2E2E2E2EFEFE2E2E2E2E2E2E2E2E2E2E2E2E2E2E2E2E2E2E2E2E2E2E2E2E2E2E2E2E2E2E2E2E2E2E2E2E2E2E2E2E2E2E2E2E2E2E2E2E2E2E2E2E2
310
E2E2E228ECE2282828E2E2E2E2E2E2E2E2E2E2E2F5E2E2E2E2E2E2F58CB5F5E2E2E2E2E2E2F5F5E2E2E2E2E2E2EFEFE2E2E2E2E2E2E2E2E2E2E2E2E2E2E2E2E2E2E2E2E2E2E2E2E2E2E2E2E2E2E2E2E2E2E2E2E2E2E2E2E2E2E2E2E2E2E2E2E2E2E2E2E2E2E2E228ECECE2E228E2E2E2E2E2E2E2E2E2E2E2F5E2E2E2E2E2E2
310
F5F53FF5E2E2E2E2E2E2F5F5E2F5F5F5F5F5EFEFE2E2E2E2E2E2E2E2E2E2E2E2E2E2E2E2E2E2E2E2E2E2E2E2E2E2E2E2E2E2E2E2E2E2E2E2E2E2E2E2E2E2E2E2E2E2E2E2E2E2E2E2E2E2E2E2282828282828E2E2E2E2E2E2E2E2E2E2E2F5E2E2E2E2E2E2F5D1B7F5E2E2E2E2E2E2F5F5E2F5F5F5F5F5EFEFEFE2E2EFE2E2E2
310
E2E2E2E2EFEFEFEFEFE2E2E2E2E2E2E2E2E2E2E2E2E2E2E2E2E2E2E2E2E2E2E2E2E2E2E2E2E2E2E2E2E2E2E2E2E2E2E2E2E2E2E2E2E2E2E2E2E2E2E2E2E2E2E2E2E2F5E2E2E2E2E2E2F50440F5E2E2E2E2E2E2F5F5E2E2E2E2E2E2EFEFEFEFEFEFE2E2E2E2E2E2E228ECECECEC28ECECEC2828EC28E22828E2E2E2E2E2E2E2
310
E2E2E2E2E2E2E2E2E2E2E2E2E2E2E2E2E2E2E2E2E2E2E2E2E2E2E2E2E2E2E2E2E2E2E2E2E2E2E2F5E2E2E2E2E2E2F5CFDCF5E2E2E2E2E2E2F5F5E2E2E2E2E2E2EFEFEFEFEFEFE2E2E2E2E2E2E228ECECECECECECECE2ECECEC28282828E2E2E2E2E2E2E2E2E2E2E2E2E2E2E2E2E2E2E2E2E2E2E2E2E2E2E2E2E2E2E2E2E2E2
310
E2E2E2E2E2E2E2E2E2E2E2E2F5E2E2E2E2E2E2F50140F5E2F5E2E2E2E2F5F5E2E2E2E2E2E2EFEFE2EFEFEFEFEFEFEFEFEFEFECECECECECECECECECECE2ECECECE228E2E2E2E2E2E2E2E2E2E2E2E2E2E2E2E2E2E2E2E2E2E2E2E2E2E2E2E2E2E2E2E2E2E2E2E2E2E2E2E2E2E2E2E2E2E2F5E2E2E2E2F5E2F5A97FF5E2F5E2E2
310
E2E2F5F5E2E2E2E2E2E2EFEFE2E2E2E2E2E2E2E2E2EFEF28ECE2E2ECE2E2E2E2ECECECECECEC28E2E2E2E2E2E2E2E2E2E2E2E2E2E2E2E2E2E2E2E2E2E2E2E2E2E2E2E2E2E2E2E2E2E2E2E2E2E2E2E2E2E2E2E2E2E2F5E2E2E2E2F5E2F5C23FF5E2F5E2E2E2E2F5F5E2E2E2E2E2E2EFEFEFEFEFEFEFEFEFEFEFEFEF28ECECEC
310
ECECECECECEC282828ECEC28E2E2E2E2E2E2E2E2E2E2E2E2E2E2E2E2E2E2E2E2E2E2E2E2E2E2E2E2E2E2E2E2E2E2E2E2E2E2E2E2E2E2E2E2E2E2F5E2E2E2E2F5E2F508EAF5E2F5E2E2E2E2F5F5E2E2E2E2E2E2EFEFEFEFEFEFEFEFEFEFEFEFEFEFEFEFE2E2E2E2E2E2E2E2E2E2E2E2E2E2E2E2E2E2E2E2E2E2E2E2E2E2E2E2
310
E2E2E2E2E2E2E2E2E2E2E2E2E2E2E2E2E2E2E2E2E2E2E2E2E2E2E2E2E2E2E2F5E2E2E2E2F5E2F54A40F5E2F5E2E2E2E2F5F5E2E2E2E2E2E2E2EFE2E2E2E2E2E2E2E2E2E2EFE2EFEFE2E2E2E2E2E2E2E2E2E2E2E2E2E2E2E2E2E2E2E2E2E2E2E2E2E2E2E2E2E2E2E2E2E2E2E2E2E2E2E2E2E2E2E2E2E2E2E2E2E2E2E2E2E2E2
310
E2E2E2E2F5E2E2E2E2F5E2F5FFFFF5E2F5E2E2E2E2F5F5E2E2E2E2E2E2E2EFEFE2E2E2E2E2E2E2E2EFEFEFEFEFE2E2E2E2E2E2E2E2E2E2E2E2E2E2E2E2E2E2E2E2E2E2E2E2E2E2E2E2E2E2E2E2E2E2E2E2E2E2E2E2E2E2E2E2E2E2E2E2E2E2E2E2E2E2E2E2E2E2E2F5E2E2E2E2F5E2F50140F5E2F5E2E2E2E2F5F5E2E2E2E2
310
E2E2E2EFE2E2E2E2E2E2E2E2E2E2EFECECEFE2E2E2E2E2E2E2E2E2E2E2E2E2E2E2E2E2E2E2E2E2E2E2E2E2E2E2E2E2E2E2E2E2E2E2E2E2E2E2E2E2E2E2E2E2E2E2E2E2E2E2E2E2E2E2E2E2E2E2F5E2E2E2E2F5E2F51052F5E2F5E2E2E2E2F5F5E2E2E2E2E2E2E2EFE2E2E2E2E2E2E2E2E2E2EFECEFEFE2E2E2E2E2E2E2E2E2
310
E2E2E2E2E2E2E2E2E2E2E2E2E2E2E2E2E2E2E2E2E2E2E2E2E2E2E2E2E2E2E2E2E2E2E2E2E2E2E2E2E2E2E2E2E2E2E2E2E2E2F5E2E2E2E2F5E2F54940F5E2F5E2E2E2E2F5F5E2E2E2E2E2E2E2EFE2E2E2E2E2E2E2E2E2E2EFE2E2E2E2E2E2E2E2E2E2E2E2E2E2E2E2E2E2E2E2F5F5F5F5F5F5F5F5F5F5F5F5F5F5F5F5F5F5F5
310
F5F5F5F5F5E2E2E2E2E2E2E2E2E2E2E2F5F5F5F5E2E2E2F5E2E2E2E2F5E2F5778FF5E2F5E2E2E2E2F5F5E2E2F5F5E2E2E2EFE2E2E2E2E2E2E2E2E2E2EFE2E2E2E2E2E2E2E2E2E2E2E2E2E2E2E2E2E2E2E2F5F5F5F5F5F5F5F5F5F5F5F5F5F5F5F5F5F5F5F5F5F5F5F5E2E2E2E2E2E2E2E2E2E2E2F5F5F5F5E2E2E2F5E2E2E2
310
E2F5E2F50B40F5E2F5E2E2E2E2F5F5E2E2F5F5E2E2E2EFE2E2E2E2E2E2E2E2E2E2EFE2E2E2E2E2E2E2E2E2E2E2E2E2E2E2E2E2E2E2E2E2E2E2E2E2E2E2E2E2E2E2E2E2E2E2E2E2E2E2E2E2E2E2E2E2E2E2E2E2E2E2E2E2E2E2F5F5F5F5E2E2E2F5E2E2E2E2F5E2F5F2D8F5E2F5E2E2E2E2F5F5E2E2F5F5F5E2E2EFE2E2E2E2
310
E2E2E2E2E2E2EFE2E2E2E2E2F5F5F5F5F5E2E2E2E2E2E2E2E2F5F5F5F5F5E2E2E2E2E2E2E2E2E2E2E2E2E2E2E2E2E2E2F5F5F5F5F5E2E2E2E2E2E2E2E2E2F5F5F5F5E2E2E2F5E2E2E2E2F5E2F54940F5E2F5E2E2E2E2F5F5E2E2F5F5F5E2E2EFEFEFEFEFEFEFEFEFEFEFEFE2E2E2E2E2F5F5F5F5F5E2E2E2E2E2E2E2E2F5F5
310
F5F5F5E2E2E2E2E2E2E2E2E2E2E2E2E2E2E2E2E2E2F5F5F5F5F5E2E2E2E2E2E2E2E2E2F5F5F5F5E2E2E2F5E2E2E2E2F5E2F53CB8F5E2F5E2E2E2E2F5F5E2E2F5F5F5F5E2EFEFEFEFEFEFEFEFEFEFEFEFE2E2E2E2E2E2EFEFEFEFEFEFEFEFEFEFEFEFEFEFEFEFEFEFEFEFEFEFEFEFEFEFEFEFEFEFEFEFEFEFEFEFEFEFEFEFEF
310
EFEFEFEFEFEFEFF5EFEFEFEFEFE2E2F5E2E2E2E2F5E2F53640F5E2F5E2E2E2E2F5F5E2E2E2E2E2E2E2EFE2E2E2E2EFEFE2E2E2E2EFE2E2E2E2E2E2EFEFEFEFEFEFEFEFEFEFEFEFEFEFEFEFEFEFEFEFEFEFEFEFEFEFEFEFECECEFEFEFEFEFEFEFEFEFEFEFEFEFEFEFEFEFEFEFEFEFECECECE2E2F5E2E2E2E2F5E2F57B3DF5E2
310
F5E2E2E2E2F5F5E2E2E2E2E2E2E2EFE2E2E2E2EFEFE2E2E2E2EFE2E2E2E2E2E2EFEFEFE2E2EFE2E2E2E2E2E2E2E2E2E2E2E2E2E2E2E2E2E2E2EFE2ECECECEFE2E2E2E2E2E2E2E2E2E2E2E2E2E2E2E2EFEFEFE2ECECECE2E2F5E2E2E2E2F5E2F54940F5E2F5E2E2E2E2F5F5E2E2E2E2E2E2E2EFE2E2E2E2E2E2E2E2E2E2EFE2
310
E2E2E2E2E2EFEFE2E2E2EFE2E2E2E2E2E2E2E2E2E2E2E2E2E2E2E2E2E2EFEFE2EFEFEFEFE2E2E2E2E2E2E2E2E2E2E2E2E2E2E2E2EFEFEFECECECECECECF5E2E2E2E2F5E2F59979F5E2E2E2E2E2E2F5F5E2E2E2E2E2E2E2EFE2E2E2E2E2E2E2E2E2E2EFE2E2E2E2E2E2ECECECEFEFEFE2E2E2E2E2E2E2E2E2E2E2E2E2E2E2E2
310
E2E2EFEFE2E2E2E2EFE2E2E2E2E2E2E2E2E2E2E2E2E2E2E2E2EFEFEFF5F5F5F5F5F5F5E2E2E2E2E2E2F53640F5E2E2E2E2E2E2F5F5E2E2E2E2E2E2E2EFE2E2E2E2E2E2E2E2E2E2EFE2E2E2E2E2E2ECECECE2EFEFE2E2E2E2E2E2E2E2E2E2E2E2E2E2E2E2E2E2EFEFE2E2E2E2EFE2E2E2E2E2E2E2E2E2E2E2E2E2E2E2E2EFEF
310
EFF5E2F5E2E2E2F5E2E2E2E2E2E2F56128F5E2E2E2E2E2E2F5F5E2E2E2E2E2E2E2EFE2E2E2E2E2E2E2E2E2E2EFE2E2E2E2ECECECECECECEFEFE2E2E2E2E2E2E2E2E2E2E2E2E2E2E2E2E2E2EFEFE2E2E2E2EFE2E2E2E2E2E2E2E2E2E2E2E2E2E2E2E2EFEFEFECECECECECECF5E2E2E2E2E2E2F54940F5E2E2E2E2E2E2F5F5E2
310
E2E2E2E2E2E2EFE2E2E2E2E2E2E2E2E2E2EFE2E2E2E2ECECECECECECEFEFE2E2E2E2E2E2E2E2E2E2E2E2E2E2E2E2E2E2EFEFE2E2E2E2EFE2E2E2E2E2E2E2E2E2E2E2E2E2E2E2E2EFEFEFECECECECECECF5E2E2E2E2E2E2F5FFFFF5E2E2E2E2E2E2F5F5E2E2E2E2E2E2E2EFE2E2E2E2E2E2E2E2E2E2EFE2E2E2E2E2ECECECEF
310
EFEFEFE2E2E2E2E2E2E2E2E2E2E2E2E2E2E2E2E2E2EFEFE2E2E2E2EFE2E2E2E2E2E2E2E2E2E2E2E2E2E2E2E2EFEFEFEFECECECE2E2F5E2E2E2E2E2E2F53340F5E2E2E2E2E2E2F5F5E2E2E2E2E2E2E2EFE2E2E2E2E2E2E2E2E2E2EFE2E2E2E2E2E2EFEFE2E2E2EFE2E2E2E2E2E2E2E2E2E2E2E2E2E2E2E2E2E2EFEFE2EFEFEF
310
EFE2E2E2E2E2E2E2E2E2E2E2E2E2E2E2E2EFEFE2E2E2EFEFE2E2F5E2E2E2E2E2E2F59ED7F5E2E2E2E2E2E2F5F5E2E2E2E2E2E2E2EFEFEFEFE2E2E2E2E2E2E2EFE2E2E2E2E2E2EFEFEFE2E2EFE2E2E2E2E2E2E2E2E2E2E2E2E2E2E2E2EFEFEFEFE2EFEFE2E2E2E2E2E2E2E2E2E2E2E2E2E2E2E2E2E2EFEFE2E2EFDCEFE2E2F5
310
E2E2E2E2E2E2F54A40F5E2E2E2E2E2E2F5F5E2E2E2E2E2E2E2EFEFEFEFEFE2E2E2E2E2E2EFE2E2E2E2E2E2EFEFEFEFEFEFEFEFEFEFEFEFEFEFEFEFEFEFEFEFEFEFEFECECECECEFEFEFEFEFEFEFEFEFEFEFEFEFEFEFEFEFEFEFEFEFEFEFEFEFEFEFE2E2F5E2E2E2E2E2E2F5FFFFF5E2E2E2E2E2E2F5F5E2E2E2E2E2E2E2EFEF
310
EFEFEFEFEFE2E2E2E2EFE2E2E2E2E2E2EFEFEFEFEFEFEFEFEFEFEFEFEFEFEFEFEFEFEFEFEFEFEFEFECECEFEFEFEFEFEFEFEFEFEFEFEFEFEFEFEFEFEFEFEFEFEFEFF5F5F5F5EFE2E2F5E2E2E2E2E2E2F53E40F5E2F5E2E2E2E2F5F5E2E2E2E2E2E2E2EFEFE2EFEFEFEFEFEFEFEFEFE2E2E2E2E2E2E2E2E2E2E2E2E2E2E2E2E2
310
E2E2E2E2E2E2E2E2E2E2E2E2E2E2E2E2E2E2E2E2E2E2E2E2E2E2E2E2E2E2E2E2E2E2E2E2E2E2F5F5F5F5E2E2E2F5E2E2E2E2F5E2F51E5CF5E2F5E2E2E2E2F5F5E2E2E2E2E2E2E2EFEFE2EFEFEFEFEFEFEFEFEFE2E2E2E2E2E2E2E2E2E2E2E2E2E2E2E2E2E2E2E2E2E2E2E2E2E2E2E2E2E2E2E2E2E2E2E2E2E2E2E2E2E2E2E2
310
E2E2E2E2E2E2E2E2E2E2E2E2E2E2E2E2E2E2F5E2E2E2E2F5E2F54940F5E2F5E2E2E2E2F5F5E2E2E2E2E2E2E2EFE2E2EFE2F5ECF5E2E2E2EFE2E2E2E2E2E2E2E2E2E2E2E2E2E2E2E2E2E2E2E2E2E2E2E2E2E2E2E2E2E2E2E2E2E2E2E2E2E2E2E2E2E2E2E2E2E2E2E2E2E2E2E2E2E2E2E2E2E2E2E2E2E2F5E2E2E2E2F5E2F5E6
310
ECF5E2F5E2E2E2E2F5F5E2E2F5F5F5F5E2E2EFEFEFECECECEFEFE2E2EFE2E2E2E2E2E2E2E2E2E2E2E2E2E2E2E2E2E2E2E2E2E2E2E2E2E2E2E2E2E2E2E2E2E2E2E2E2E2E2E2E2E2E2E2E2E2E2E2E2E2E2E2E2E2E2E2E2E2E2E2E2E2F5E2E2E2E2F5E2F53E40F5E2F5E2E2E2E2F5F5E2E2E2E2E2E2E2E2E2EFEFECECECEFEFEF
310
EFEFE2E2E2E2E2E2E2E2E2E2E2E2E2E2E2E2E2E2E2E2E2E2E2E2E2E2E2E2E2E2E2E2E2E2E2E2E2E2E2E2E2E2E2E2E2E2E2E2E2E2E2E2E2E2E2E2E2E2E2E2E2E2F5E2E2E2E2F5E2F59ED7F5E2F5E2E2E2E2F5F5E2E2E2E2E2E2E2E2E2E2ECECECECEFEFEFEFEFE2E2E2E2E2E2E2E2E2E2E2E2E2E2E2E2E2E2E2E2E2E2E2E2E2
310
E2E2E2E2E2E2E2E2E2E2E2E2E2E2E2E2E2E2E2E2E2E2E2E2E2E2E2E2E2E2E2E2E2E2E2E2E2F5E2E2E2E2F5E2F54940F5E2F5E2E2E2E2F5F5E2E2E2E2E2E2E2E2E2E2E2E2F5ECF5E2E2E2E2E2E2E2E2F5F5F5F5F5F5F5F5F5F5F5F5E2E2E2E2E2E2E2E2E2E2E2E2E2E2E2E2E2E2E2E2E2E2E2E2E2E2E2E2E2E2E2E2E2E2E2E2
310
E2E2E2E2E2E2E2E2E2E2F5E2E2E2E2F5E2F5FFFFF5E2F5E2E2E2E2F5F5E2E2E2E2E2E2E2E2E2E2E2E2F5ECF5E2E2E2E2E2E2E2E2F5F5F5F5F5F5F5F5F5F5F5F5E2E2E2E2E2E2E2E2E2E2E2E2E2E2E2E2E2E2E2E2E2E2E2E2F5F5E2E2E2E2E2E2E2E2E2E2E2E2E2E2E2E2E2E2E2E2F5E2E2E2E2F5E2F53B40F5E2F5E2E2E2E2
310
F5F5E2E2E2E2E2E2E2E2E2E2E2E2F5ECF5E2E2E2E2E2E2E2E2F5F5F5F5F5F5F5F5F5F5F5F5E2E2E2E2E2E2E2E2E2E2E2E2E2E2E2E2E2E2E2E2E2ECECECF5F5E2E2E2E2E2E2E2E2E2E2E2E2E2E2E2E2E2E2E2E2F5E2E2E2E2F5E2F5FBC1F5E2F5E2E2E2E2F5F5E2E2E2E2E2E2E2EFEFEFECECECECF5EFEFEFEFE2E2E2E2F5F5
310
F5F5F5F5F5F5F5F5F5F5E2E2E2E2E2E2E2E2E2E2E2E2E2E2E2E2E2E2E2E2E2ECE2E2E2E2E2E2E2E2E2E2E2E2E2E2E2E2E2E2E2E2E2E2E2E2F5E2E2E2E2F5E2F54840F5E2F5E2E2E2E2F5F5E2E2E2E2E2E2E2EFEFEFECECECECF5ECEFEFEFE2E2E2E2E2E2E2E2E2E2E2E2E2E2E2E2E2E2E2E2E2E2E2E2E2E2E2E2E2E2E2E2EC
310
ECECECECECECECECECECECECECECECECECECECECECECECECE2E2E2E2E2F5E2E2E2E2F5E2F5FA27F5E2F5E2E2E2E2F5F5E2E2F5F5F5F5E2EFEFEFEFECECECF5ECEFEFEFE2E2E2E2E2E2E2E2E2E2E2E2E2E2E2E2E2E2E2E2E2E2E2E2E2E2E2E2E2E2E2E2ECECDCDCDCECDCDCDCDCDCDCF5DCDCDCDCDCDCDCDCDCDCDCECE2E2E2
310
E2E2F5E2E2E2E2F5E2F54740F5E2F5E2E2E2E2F5F5E2E2E2E2E2E2E2EFEFE2EFECECECF5EFE2E2EFE2E2E2E2E2E2E2E2E2E2E2E2E2E2E2E2E2E2E2E2E2E2E2E2E2E2E2E2E2E2E2E2ECDCDCDCDCECDCDCDCDCDCF5DCDCDCDCDCDCDCDCDCDCDCDCECE2E2E2E2E2F5E2E2E2E2F5E2F56666F5E2F5E2E2E2E2F5F5E2E2E2E2E2E2
310
E2EFE2E2EFE2E2E2E2E2E2E2EFE2E2E2E2E2E2E2E2E2E2E2E2E2E2E2E2E2E2E2E2E2E2E2E2E2E2E2E2E2E2E2E2ECDCDCE2E2ECE2E2E2E2F5DCDCDCF5E2E2E2E2E2E2E2E2DCECE2E2E2E2E2F5E2E2E2E2F5E2F54940F5E2F5E2E2E2E2F5F5E2E2F5F5E2E2E2EFEFE2EFEFEFEFEFEFEFEFEFE2E2E2E2E2E2E2E2E2E2E2E2E2E2
310
E2E2E2E2E2E2E2E2E2E2E2E2E2E2E2E2E2E2ECDCDCE2E2ECE2E2E2F5F5DCDCDCE2F5E2E2E2E2E2E2E2DCECE2E2E2E2E2F5E2E2E2E2F5E2F552FCF5E2F5E2E2E2E2F5F5E2E2F5F5E2E2E2EFEFE2EFEFEFEFE2E2E2E2EFE2E2E2E2E2E2E2E2E2E2E2E2E2E2E2E2E2E2E2E2E2E2E2E2E2E2E2E2E2E2E2E2ECDCDCE2E2ECE2E2E2
310
F5E2DCDCDCE2E2F5E2E2E2E2E2E2DCECE2E2E2E2E2F5E2E2E2E2F5E2F54740F5E2F5E2E2E2E2F5F5E2E2F5F5F5F5F5EFEFEFEFEFEFEFE2E2E2E2EFE2E2E2E2E2E2E2E2E2E2E2E2E2E2E2E2E2E2E2E2E2E2E2E2E2E2E2E2E2E2E2E2ECDCDCE2E2E2E2E2F5E2E2DCDCDCE2E2F5F5E2E2E2E2E2DCECE2E2E2E2E2F5E2E2E2E2F5
310
E2F50000F5E2E2E2E2E2E2F5F5E2E2F5F5F5F5F5EFEFEFEFE2E2E2E2E2E2E2EFE2E2E2E2E2E2E2E2E2E2E2E2E2E2E2E2E2E2E2E2E2E2E2E2E2E2E2E2E2E2E2E2ECDCDCE2E2E2E2F5E2E2E2DCDCDCE2E2E2E2F5E2E2E2E2DCECE2E2E2E2E2F5E2E2E2E2E2E2F54640F5E2E2E2E2E2E2F5F5E2E2F5F5F5F5E2EFE2E2E2E2E2E2
310
E2E2E2E2EFE2E2E2E2E2E2E2E2E2E2E2E2E2E2E2E2E2E2E2E2E2E2E2E2E2E2E2E2E2E2E2E2ECDCDCE2E2E2F5E2F5F5E2DCDCDCE2E2E2E2F5E2E2E2E2DCECE2E2F5F5E2F5E2E2E2E2E2E2F5FD79F5E2E2E2E2E2E2F5F5E2E2E2E2E2E2E2EFE2E2E2E2E2E2E2E2E2E2EFE2E2E2E2E2E2E2E2E2E2E2E2E2E2E2E2E2E2E2E2E2E2
310
E2E2E2E2E2E2E2E2E2E2ECDCDCE2E2F5F5E2F5F5E2DCDCDCE2E2E2E2E2F5E2E2E2DCECE2E2F5F5E2F5E2E2E2E2E2E2F54740F5E2E2E2E2E2E2F5F5E2E2E2E2E2E2E2EFE2E2E2E2E2E2E2E2E2E2EFE2E2E2E2E2E2E2E2E2E2E2E2E2E2E2E2E2E2E2E2E2E2E2E2E2E2E2E2E2E2E2E2ECDCDCE2E2F5E2E2F5F5E2DCDCDCE2E2E2
310
E2E2E2F5E2E2DCECE2E2F5F5E2F5E2E2E2E2E2E2F59999F5E2E2E2E2E2E2F5F5E2E2E2E2E2E2E2EFE2E2E2E2E2E2E2E2E2E2EFE2E2E2E2E2E2E2E2E2E2E2E2E2E2E2E2E2E2E2E2E2E2E2E2E2E2E2E2E2E2E2E2ECDCDCF5F5E2E2E2ECE2E2DCDCDCE2E2E2E2E2E2E2F5E2DCECE2E2ECE2E2F5E2E2E2E2E2E2F54740F5E2E2E2
310
E2E2E2F5F5E2E2E2E2E2E2E2EFE2E2E2E2E2E2E2E2E2E2EFE2E2E2E2E2E2E2E2E2E2E2E2E2E2E2E2E2E2E2E2E2E2E2E2E2E2E2E2E2E2E2E2ECDCDCF5E2E2E2E2ECE2E2DCDCDCE2E2E2E2E2E2E2E2F5DCECE2E2ECE2E2F5E2E2E2E2E2E2F5C7E4F5E2E2E2E2E2E2F5F5E2E2E2E2E2E2E2EFE2E2E2E2EFEFE2E2E2E2EFE2E2E2
310
E2E2E2E2E2E2E2E2E2E2E2E2E2E2E2E2E2E2E2E2E2E2E2E2E2E2E2E2E2ECDCF5E2E2E2E2E2ECE2E2DCDCDCE2E2E2E2E2E2E2E2F5DCECE2E2ECE2E2F5E2E2E2E2E2E2F50140F5E2E2E2E2E2E2F5F5E2E2E2E2E2E2E2EFEFEFEFEFEFEFEFEFEFEFEFE2E2E2E2E2E2E2E2E2E2E2E2E2E2E2E2E2E2E2E2E2E2E2E2E2E2E2E2E2E2
310
E2E2ECF5F5E2E2E2E2E2ECE2E2DCDCDCE2E2E2E2E2E2E2E2E2DCECE2E2ECE2E2F5E2E2E2E2E2E2F5FDF8F5E2E2E2E2E2E2F5F5E2E2E2E2E2E2E2EFEFEFEFEFEFEFEFEFEFEFEFECECEFE2E2E2E2E2E2E2E2E2E2E2E2E2E2E2E2E2E2E2E2E2E2E2E2E2E2E2E2E2ECDCF5E2E2E2E2E2ECE2E2DCDCDCE2E2E2E2E2E2E2E2E2DCEC
310
E2E2ECE2E2F5E2E2E2E2E2E2F54040F5E2E2E2E2E2E2F5F5E2E2E2E2E2E2E2EFE2E2E2E2E2E2E2E2E2E2EFECECEFE2E2E2E2E2E2E2E2E2E2E2E2E2E2E2E2E2E2E2E2E2E2E2E2E2E2E2E2E2ECDCF5F5E2E2E2E2ECECECECECECECECE2E2E2ECECECF5DCECECECECE2E2F5E2E2E2E2E2E2F5FAFAF5E2F5E2E2E2E2F5F5E2E2E2
310
E2E2E2E2EFEFE2E2E2E2E2E2E2E2EFEFEFEFEFE2E2E2E2E2E2E2E2E2E2E2E2E2E2E2E2E2E2E2E2E2E2E2E2E2E2E2E2E2ECDCDCF5E2E2E2E2E2E2E2DCDCDCE2E2E2E2E2E2E2F5E2DCECE2E2E2E2E2F5E2E2E2E2F5E2F50340F5E2F5E2E2E2E2F5F5E2E2E2E2E2E2E2EFE2E2E2E2E2E2E2E2E2E2EFE2EFEFE2E2E2E2E2E2E2E2
310
E2E2E2E2E2E2E2E2E2E2E2E2E2E2E2E2E2E2E2E2E2ECDCDCE2F5E2E2E2E2E2E2DCDCDCE2E2E2E2E2E2E2F5E2DCECE2E2E2E2E2F5E2E2E2E2F5E2F5D373F5E2F5E2E2E2E2F5F5E2E2E2E2E2E2EFEFEFEFEFEFEFEFEFEFEFEFEFEFEFEFE2E2E2E2E2E2E2E2E2E2E2E2E2E2E2E2E2E2E2E2E2E2E2E2E2E2E2E2E2ECDCDCE2E2F5
310
E2E2E2E2E2DCDCDCE2E2E2E2E2F5F5E2E2DCECE2E2E2E2E2F5E2E2E2E2F5E2F53E40F5E2F5E2E2E2E2F5F5E2E2E2E2E2E2EFEFEFEFEFEFEFEFEFEFEFEFEF28ECECECECECECECECEC282828ECEC28E2E2E2E2E2E2E2E2E2E2E2E2E2E2E2E2ECDCDCE2E2E2F5E2E2E2E2DCDCDCE2E2E2E2E2F5E2E2E2DCECE2E2E2E2E2F5E2E2
310
E2E2F5E2F52D2EF5E2F5E2E2E2E2F5F5E2E2E2E2E2E2EFEFE2E2E2E2E2E2E2E2E2EFEF28E2E2E2ECE2E2E2E2ECECECECECEC28E2E2E2E2E2E2E2E2E2E2E2E2E2E2E2E2ECDCDCE2E2E2F5F5E2E2E2DCDCDCE2E2E2E2F5E2E2E2E2DCECE2E2E2E2E2F5E2E2E2E2F5E2F50340F5E2F5E2E2E2E2F5F5E2F5F5F5F5F5EFEFE2EFEF
310
EFEFEFEFEFEFEFEFECECECECECECECECECECECEC28282828E2E2E2E2E2E2E2E2E2E2E2E2E2E2E2E2ECDCDCE2E2E2E2E2F5E2E2DCDCDCE2E2E2F5E2E2E2E2E2DCECE2E2E2E2E2F5E2E2E2E2F5E2F52CFBF5E2F5E2E2E2E2F5F5E2F5F5F5F5F5EFEFEFEFEFEFE2E2E2E2E2E2E228ECECECECECECECECECECEC28E22828E2E2E2
310
E2E2E2E2E2E2E2E2E2E2E2E2E2ECDCDCE2E2ECE2E2F5E2E2DCDCDCE2E2F5E2E2E2E2E2E2DCECE2E2E2E2E2F5E2E2E2E2F5E2F53240F5E2F5E2E2E2E2F5F5E2F5F5F5F5F5EFEFEFEFEFEFE2E2E2E2E2E2E228ECECECEC28ECECEC2828EC28E22828E2E2E2E2E2E2E2E2E2E2E2E2E2E2E2E2ECDCDCE2E2ECE2E2E2F5E2DCDCDC
310
E2F5F5E2E2E2E2E2E2DCECE2E2E2E2E2F5E2E2E2E2F5E2F5F17EF5E2F5E2E2E2E2F5F5E2E2E2E2E2E2EFEFEFE2E2EFE2E2E2E2E2E2E2EFE2E2EFEFE2E2E2E2E2E2E2E2E2E2E2E2E2E2E2E2E2E2E2E2E2E2E2E2E2E2E2ECDCDCE2E2ECE2E2E2E2F5DCDCDCE2F5E2E2E2E2E2E2E2DCECE2E2E2E2E2F5E2E2E2E2F5E2F50140F5
310
E2F5E2E2E2E2F5F5E2E2E2E2E2E2EFEFE2E2E2E2E2E2E2E2E2E2E2E2E2E2E2E2E2E2E2E2E2E2E2E2E2E2E2E2E2E2E2E2E2E2E2E2E2E2E2E2E2E2E2ECDCDCDCDCECDCDCDCDCDCDCDCDCF5DCDCDCDCDCDCDCDCDCECE2E2E2E2E2F5E2E2E2E2F5E2F59C5CF5E2F5E2E2E2E2F5F5E2E2E2E2E2E2EFEFE2E2E2E2E2E2E2E2E2E2E2
310
E2E2E2E2E2E2E2E2E2E2E2E2E2E2E2E2E2E2E2E2E2E2E2E2E2E2E2E2E2E2E2E2ECDCDCE2E2ECE2E2E2E2E2DCF5DCE2E2E2E2E2E2E2E2E2DCECE2E2E2E2E2F5E2E2E2E2F5E2F51F40F5E2F5E2E2E2E2F5F5E2E2E2E2E2E2EFEFE2E2E2E2E2E2E2E2E2E2E2E2E2E2E2E2E2E2E2E2E2E2E2E2E2E2E2E2E2E2E2E2E2E2E2E2E2E2
310
E2E2E2E2E2ECECDCECECECECECECECECDCF5DCECECECECECECECECECDCECE2E2E2E2E2F5E2E2E2E2F5E2F5F09AF5E2F5E2E2E2E2F5F5E2E2E2E2E2E2EFEFE2E2E2E2E2E2E2E2E2E2E2E2E2E2E2E2E2E2E2E2E2E2E2E2E2E2E2E2E2E2E2E2E2E2E2E2E2E2E2E2E2E2E2ECDCDCDCDCECDCDCF5F5DCDCDCDCDCDCDCDCDCDCDCDC
310
DCDCECE2E2E2E2E2F5E2E2E2E2F5E2F52F40F5E2F5E2E2E2E2F5F5E2E2E2E2E2E2EFEFE2E2E2E2E2E2E2E2E2E2E2E2E2E2E2E2E2E2E2E2E2E2E2E2E2E2E2E2E2E2E2E2E2E2E2E2E2E2E2E2E2E2E2E2E2E2E2E2ECECECECF5E2E2E2E2E2E2E2E2E2E2E2E2E2E2E2E2E2E2E2E2F5E2E2E2E2F5E2F5C6E3F5E2F5E2E2E2E2F5F5
310
E2E2E2E2E2E2E2E2E2E2E2E2E2E2E2E2E2E2E2E2E2E2E2E2E2E2E2E2E2E2E2E2E2E2E2E2E2E2E2E2E2E2E2E2E2E2E2E2E2E2E2E2E2E2E2E2E2E2E2E2E2E2E2E2E2E2E2E2E2E2E2E2E2E2E2E2E2E2E2E2E2F5E2E2E2E2F5E2F51B40F5E2F5E2E2E2E2F5F5E2E2E2E2E2E2E2E2E2E2E2E2E2E2E2E2E2E2E2E2E2E2E2E2E2E2E2
310
E2E2E2E2E2E2E2E2E2E2E2E2E2E2E2E2E2E2E2E2E2E2E2E2E2E2E2E2E2E2E2E2E2E2E2E2E2E2E2E2E2E2E2E2E2E2E2E2E2E2E2E2E2E2F5E2E2E2E2F5E2F5FF7CF5E2F5E2E2E2E2F5F5E2E2E2E2E2E2E2E2E2E2E2E2E2E2E2E2E2E2E2E2E2E2E2E2E2E2E2E2E2E2E2E2E2E2E2E2E2E2E2E2E2E2E2E2E2E2E2E2E2E2E2E2E2E2
310
E2E2E2E2E2E2E2E2E2E2E2E2E2E2E2E2E2E2E2E2E2E2E2E2E2E2E2F5E2E2E2E2F5E2F53040F5E2E2E2E2E2E2F5F5E2E2E2E2E2E2E2E2E2E2E2E2E2E2E2E2E2E2E2E2E2E2E2E2E2E2E2E2E2E2E2E2E2E2E2E2E2E2E2E2E2E2E2E2E2E2E2E2E2E2E2E2E2E2E2E2E2E2E2E2E2E2E2E2E2E2E2E2E2E2E2E2E2E2E2E2E2E2E2E2E2
310
F5E2E2E2E2E2E2F5654CF5E2E2E2E2E2E2F5F5E2E2E2E2E2E2E2E2E2E2E2E2E2E2E2E2E2E2E2E2E2E2E2E2E2E2E2E2E2E2E2E2E2E2E2E2E2E2E2E2E2E2E2E2E2E2E2E2E2E2E2E2E2E2E2E2E2E2E2E2E2E2E2E2E2E2E2E2E2E2E2E2E2E2E2E2E2E2E2E2E2F5E2E2E2E2E2E2F51440F5E2E2E2E2E2E2F5F5F5F5F5F5F5F5F5F5
310
F5F5F5F5F5F5F5F5F5F5F5F5F5F5F5F5F5F5F5F5F5F5F5F5F5F5F5F5F5F5F5F5F5F5F5F5F5F5F5F5F5F5F5F5F5F5F5F5F5F5F5F5F5F5F5F5F5F5F5F5F5F5F5F5F5F5F5F5F5F5F5F5F5F5E2E2E2E2E2E2F5FFFFF5E2E2E2E2E2E2F5F5F5F5F5F5F5F5F5F5F5F5F5F5F5F5F5F5F5F5F5F5F5F5F5F5F5F5F5F5F5F5F5F5F5F5F5
310
F5F5F5F5F5F5F5F5F5F5F5F5F5F5F5F5F5F5F5F5F5F5F5F5F5F5F5F5F5F5F5F5F5F5F5F5F5F5F5F5F5F5F5F5F5F5F5E2E2E2E2E2E2F54040F5E2E2E2E2E2E2E2E2E2E2E2E2E2E2E2E2E2E2E2E2E2E2E2F5F5E2F5F5F5F5F5F5E2F5F5F5F5F5F5F5E2E2E2F5F5F5F5E2F5F5E2E2F5F5F5F5E2F5F5F5F5F5F5E2E2E2E2E2E2E2
310
E2E2E2E2E2E2E2E2E2E2E2E2E2E2E2E2E2E2E2E2E2E2E2E2E2E2F50E1FF5E2E2E2E2E2E2E2E2E2E2E2E2E2E2E2E2E2E2E2E2E2E2E2F5F5E2F5F5F5F5F5F5E2F5F5F5F5F5F5F5E2E2E2F5F5F5F5E2F5F5E2E2F5F5F5F5E2F5F5F5F5F5F5E2E2E2E2E2E2E2E2E2E2E2E2E2E2E2E2E2E2E2E2E2E2E2E2E2E2E2E2E2E2E2E2E2F5
310
1840F5E2E2E2E2E2E2F5F5F5F5F5F5F5F5F5F5F5F5F5F5F5F5F5F5F5F5F5F5F5F5F5F5F5F5F5F5F5F5F5F5F5F5F5F5F5F5F5F5F5F5F5F5F5F5F5F5F5F5F5F5F5F5F5F5F5F5F5F5F5F5F5F5F5F5F5F5F5F5F5F5F5F5F5F5F5F5F5F5F5F5E2E2E2E2E2E2F586A1F5E2E2E2E2E2E2E2F5F5F5F5F5F5F5F5F5F5F5F5F5F5F5F5F5
310
F5E2F5F5F5F5F5F5F5F5F5F5F5F5F5F5F5F5E2E2E2E2E2E2E2E2E2E2E2E2E2E2E2E2E2E2E2E2E2E2E2E2E2E2E2E2E2E2E2E2E2E2E2E2E2E2E2E2E2E2E2E2E2E2E2E2E2E2E2E2E2E2F54040F5E2E2E2E2E2E2E2E2E2E2E2E2E2E2E2E2E2E2E2E2E2E2E2F5F5E2F5F5F5F5F5F5F5F5F5F5F5F5F5F5F5F5E2E2E2E2E2E2E2E2E2
310
E2E2E2E2E2E2E2E2E2E2E2E2E2E2E2E2E2E2E2E2E2E2E2E2E2E2E2E2E2E2E2E2E2E2E2E2E2E2E2E2E2E2E2E2E2F56AD4F5E2F5E2E2E2E2E2E2F5F5F5F5F5F5F5F5F5F5F5F5F5F5E2F5F5E2E2E2E2E2E2E2E2E2E2E2E2E2E2E2E2E2E2E2E2E2E2E2E2E2E2E2E2E2E2E2E2E2E2E2E2E2E2E2E2E2E2E2E2E2E2E2E2E2E2E2E2E2
310
E2E2E2E2E2E2E2E2E2E2E2E2E2E2E2E2F5E2F51F40F5E2F5E2E2E2E2E2E2E2F5F5F5F5F5F5F5F5F5F5F5F5E2E2F5F5E2F5F5F5F5F5F5F5F5F5F5F5F5F5F5F5F5F5F5F5F5F5F5F5F5F5F5F5F5F5F5F5F5F5F5F5F5F5F5F5F5F5F5F5F5F5F5F5E2E2E2E2E2E2E2E2E2E2E2E2E2E2E2E2E2E2E2E2E2F5E2F5FFFFF5E2F5E2E2E2
310
E2E2E2E2E2F5F5F5F5F5F5F5F5F5F5E2E2E2F5F5E2F5F5F5F5F5F5F5F5F5F5F5F5F5F5F5F5F5F5F5F5F5F5F5F5F5F5F5F5F5F5F5F5F5F5F5F5F5F5F5F5F5F5F5F5F5F5F5E2E2E2E2E2E2E2E2E2E2E2E2E2E2E2E2E2E2E2E2E2F5E2F54740F5E2F5E2E2E2E2E2E2E2E2E2F5F5F5F5F5F5F5F5E2E2E2E2F5F5E2F5F5F5F5F5F5
310
F5F5F5F5F5F5F5F5F5F5F5F5F5F5F5F5F5F5F5F5F5F5F5F5F5F5F5F5F5F5F5F5F5F5F5F5F5F5F5F5F5F5F5F5F5F5F5F5E2E2E2E2E2E2E2E2E2E2E2E2E2E2F5E2F51B3DF5E2F5E2E2E2E2E2E2E2E2E2E2F5F5F5F5F5F5E2E2E2E2E2F5F5E2F5F5F5F5F5F5F5F5F5F5F5F5F5F5F5F5F5F5F5F5F5F5F5F5F5F5F5F5F5F5F5F5F5
310
F5F5F5F5F5F5F5F5F5F5F5F5F5F5F5F5F5F5F5F5F5E2E2E2E2E2E2E2E2E2E2E2E2E2E2F5E2F52140F5E2F5E2E2E2E2E2E2E2E2E2E2E2F5F5F5F5E2E2E2E2E2E2F5F5E2F5F5F5F5F5F5F5F5F5F5F5F5F5F5F5F5F5F5F5F5F5F5F5F5F5F5F5F5F5F5F5F5F5F5F5F5F5F5F5F5F5F5F5F5F5F5F5F5F5F5F5F5F5F5E2E2E2E2E2E2
310
E2E2E2E2E2E2E2E2F5E2F5FFFFF5E2F5E2E2E2E2E2E2E2E2E2E2E2E2F5F5E2E2E2E2E2E2E2F5F5E2E2E2E2E2E2E2E2E2E2E2E2E2E2E2E2E2E2E2E2E2E2E2E2E2E2E2E2E2E2E2E2E2E2E2E2E2E2E2E2E2E2E2E2E2E2E2E2E2E2E2E2E2E2E2E2E2E2E2E2E2E2E2E2E2E2E2E2E2F5E2F54740F5E2F5E2E2E2E2E2E2E2E2E2E2E2
310
E2E2E2E2E2E2E2E2E2E2E2E2E2E2E2E2E2E2E2E2E2E2E2E2E2E2E2E2E2E2E2E2E2E2E2E2E2E2E2E2E2E2E2E2E2E2E2E2E2E2E2E2E2E2E2E2E2E2E2E2E2E2E2E2E2E2E2E2E2E2E2E2E2E2E2E2E2E2E2E2E2F5E2F53333F5E2F5F5F5F5F5F5F5F5E2E2E2E2E2E2E2E2F5F5F5F5F5F5F5F5F5F5F5F5F5F5F5E2E2E2E2E2E2E2E2
310
E2F5F5F5F5F5F5F5F5F5F5F5F5F5F5E2E2E2E2E2E2E2E2E2F5F5F5F5F5F5F5F5F5F5F5F5F5F5F5E2E2E2E2E2E2E2E2F5F5F5F5F5F5F5F5E2F53340F5E2E2E2E2E2E2E2E2E2E2E2E2E2E2E2E2E2E2E2E2E2E2E2E2E2E2E2E2E2E2E2E2E2E2E2E2E2E2E2E2E2E2E2E2E2E2E2E2E2E2E2E2E2E2E2E2E2E2E2E2E2E2E2E2E2E2E2
310
E2E2E2E2E2E2E2E2E2E2E2E2E2E2E2E2E2E2E2E2E2E2E2E2E2E2E2E2E2F59999F5E2E2E2E2E2E2E2E2E2E2E2E2E2E2E2E2E2E2E2E2E2E2E2E2E2E2E2E2E2E2E2E2E2E2E2E2E2E2E2E2E2E2E2E2E2E2E2E2E2E2E2E2E2E2E2E2E2E2E2E2E2E2E2E2E2E2E2E2E2E2E2E2E2E2E2E2E2E2E2E2E2E2E2E2E2E2E2E2E2E2E2E2E2E2
310
E2E2F54740F5F5F5F5F5F5F5F5F5F5F5F5F5F5F5F5F5F5F5F5F5F5F5F5F5F5F5F5F5F5F5F5F5F5F5F5F5F5F5F5F5F5F5F5F5F5F5F5F5F5F5F5F5F5F5F5F5F5F5F5F5F5F5F5F5F5F5F5F5F5F5F5F5F5F5F5F5F5F5F5F5F5F5F5F5F5F5F5F5F5F5F5F5F5F5F5F5F56D0DEFEFEFEFEFEFEFEFEFEFEFEFEFEFEFEFEFEFEFEFEFEF
310
EFEFEFEFEFEFEFEFEFEFEFEFEFEFEFEFEFEFEFEFEFEFEFEFEFEFEFEFEFEFEFEFEFEFEFEFEFEFEFEFEFEFEFEFEFEFEFEFEFEFEFEFEFEFEFEFEFEFEFEFEFEFEFEFEFEFEFEFEFEFEFEFEFEFEFEF4040
  0
XRECORD
  5
426C
102
{ACAD_REACTORS
330
426B
102
}
330
426B
100
AcDbXrecord
280
     1
102
SHADEPLOT
 70
     0
102
SHADEPLOTRESLEVEL
 70
     2
102
SHADEPLOTCUSTOMDPI
 70
   300
  0
XRECORD
  5
3D71
102
{ACAD_REACTORS
330
3553
102
}
330
3553
100
AcDbXrecord
280
     1
102
MATERIAL
148
0.0
149
0.0
149
0.0
 93
        0
 94
      127
282
     0
 72
     0
 77
     0
171
     0
175
     0
179
     0
273
     0
  0
XRECORD
  5
3555
102
{ACAD_REACTORS
330
3553
102
}
330
3553
100
AcDbXrecord
280
     1
270
     1
271
     1
  0
XRECORD
  5
3554
102
{ACAD_REACTORS
330
3553
102
}
330
3553
100
AcDbXrecord
280
     1
270
     1
271
     1
  0
XRECORD
  5
3558
102
{ACAD_REACTORS
330
3553
102
}
330
3553
100
AcDbXrecord
280
     1
270
     1
271
     1
  0
XRECORD
  5
3557
102
{ACAD_REACTORS
330
3553
102
}
330
3553
100
AcDbXrecord
280
     1
270
     1
271
     1
  0
XRECORD
  5
3559
102
{ACAD_REACTORS
330
3553
102
}
330
3553
100
AcDbXrecord
280
     1
270
     1
271
     1
  0
XRECORD
  5
3556
102
{ACAD_REACTORS
330
3553
102
}
330
3553
100
AcDbXrecord
280
     1
270
     1
271
     1
  0
XRECORD
  5
3D70
102
{ACAD_REACTORS
330
354B
102
}
330
354B
100
AcDbXrecord
280
     1
102
MATERIAL
148
0.0
149
0.0
149
0.0
 93
        0
 94
      127
282
     0
 72
     0
 77
     0
171
     0
175
     0
179
     0
273
     0
  0
XRECORD
  5
354D
102
{ACAD_REACTORS
330
354B
102
}
330
354B
100
AcDbXrecord
280
     1
270
     1
271
     1
  0
XRECORD
  5
354C
102
{ACAD_REACTORS
330
354B
102
}
330
354B
100
AcDbXrecord
280
     1
270
     1
271
     1
  0
XRECORD
  5
3550
102
{ACAD_REACTORS
330
354B
102
}
330
354B
100
AcDbXrecord
280
     1
270
     1
271
     1
  0
XRECORD
  5
354F
102
{ACAD_REACTORS
330
354B
102
}
330
354B
100
AcDbXrecord
280
     1
270
     1
271
     1
  0
XRECORD
  5
3551
102
{ACAD_REACTORS
330
354B
102
}
330
354B
100
AcDbXrecord
280
     1
270
     1
271
     1
  0
XRECORD
  5
354E
102
{ACAD_REACTORS
330
354B
102
}
330
354B
100
AcDbXrecord
280
     1
270
     1
271
     1
  0
XRECORD
  5
3D72
102
{ACAD_REACTORS
330
355B
102
}
330
355B
100
AcDbXrecord
280
     1
102
MATERIAL
148
0.0
149
0.0
149
0.0
 93
        0
 94
      127
282
     0
 72
     0
 77
     0
171
     0
175
     0
179
     0
273
     0
  0
XRECORD
  5
355D
102
{ACAD_REACTORS
330
355B
102
}
330
355B
100
AcDbXrecord
280
     1
270
     1
271
     1
  0
XRECORD
  5
355C
102
{ACAD_REACTORS
330
355B
102
}
330
355B
100
AcDbXrecord
280
     1
270
     1
271
     1
  0
XRECORD
  5
3560
102
{ACAD_REACTORS
330
355B
102
}
330
355B
100
AcDbXrecord
280
     1
270
     1
271
     1
  0
XRECORD
  5
355F
102
{ACAD_REACTORS
330
355B
102
}
330
355B
100
AcDbXrecord
280
     1
270
     1
271
     1
  0
XRECORD
  5
3561
102
{ACAD_REACTORS
330
355B
102
}
330
355B
100
AcDbXrecord
280
     1
270
     1
271
     1
  0
XRECORD
  5
355E
102
{ACAD_REACTORS
330
355B
102
}
330
355B
100
AcDbXrecord
280
     1
270
     1
271
     1
  0
ACAD_PROXY_OBJECT
  5
3D58
102
{ACAD_REACTORS
330
37D3
102
}
330
37D3
100
AcDbProxyObject
 90
      499
 91
      513
 95
   983063
 70
     0
 93
     5304
310
40D054060020000020000003200101A000080002A5058000000C10000000000000006101010000000000003E0FC000000000000F83F0000000000003E0FC000000000000F83F000000000000049000000000000001240419019018000000C1003FBFFFFFE0000000000003C8FD029018000000C1003FBFFFFFE00000000000
310
03C8FD049018000000C1003FBFFFFFE0000000000003C8FD089018000000C1003FBFFFFFE0000000000003C8FD109018000000C1003FBFFFFFE0000000000003C8FD209018000000C1003FBFFFFFE0000000000003C8FD01405075F5449544C450041501A8000000C800406800020000A94160000003040000000000000012
310
40404000000000000F83F0000000000003E0FC000000000000F83F0000000000003E0FC0000000000001240000000000000049010640640600000030400FEFFFFFF8000000000000F23F40A40600000030400FEFFFFFF8000000000000F23F41240600000030400FEFFFFFF8000000000000F23F42240600000030400FEFFF
310
FFF8000000000000F23F44240600000030400FEFFFFFF8000000000000F23F48240600000030400FEFFFFFF8000000000000F23F409014217D2115051115480105406A0000003200101A000080002A5028000000C10000000000000004901010000000000003E0FC000000000000F83F0000000000003E0FC000000000000F
310
83F000000000000049000000000000001240419019018000000C1003FBFFFFFE0000000000003C8FD029018000000C1003FBFFFFFE0000000000003C8FD049018000000C1003FBFFFFFE0000000000003C8FD089018000000C1003FBFFFFFE0000000000003C8FD109018000000C1003FBFFFFFE0000000000003C8FD20901
310
8000000C1003FBFFFFFE0000000000003C8FD03409065F444154410074
340
11
340
0
340
0
340
0
340
0
340
0
340
0
340
11
340
0
340
0
340
0
340
0
340
0
340
0
340
11
340
0
340
0
340
0
340
0
340
0
340
0
 94
        0
1001
ACAD
1000
AcRTDxfName
1000
CELLSTYLEMAP
1000
AcRTDxfName
1000
CELLSTYLEMAP
1000
AcRTDxfName
1000
CELLSTYLEMAP
1000
AcRTDxfName
1000
CELLSTYLEMAP
  0
XRECORD
  5
3D73
102
{ACAD_REACTORS
330
37D3
102
}
330
37D3
100
AcDbXrecord
280
     1
102
ACAD_ROUNDTRIP_PRE2007_TABLESTYLE
 90
      512
 91
        0
  1

 92
      512
 93
        0
  2

 94
      512
 95
        0
  3

  0
ENDSEC
  0
EOF
