  0
SECTION
  2
HEADER
  9
$ACADVER
  1
AC1015
  9
$ACADMAINTVER
 70
    20
  9
$DWGCODEPAGE
  3
ANSI_1252
  9
$INSBASE
 10
0.0
 20
0.0
 30
0.0
  9
$EXTMIN
 10
-0.0000008078504834
 20
0.0000001108869583
 30
0.0
  9
$EXTMAX
 10
353.9999991921495
 20
482.0000001108869
 30
0.0
  9
$LIMMIN
 10
0.0
 20
0.0
  9
$LIMMAX
 10
353.9999991921495
 20
482.0000001108869
  9
$ORTHOMODE
 70
     1
  9
$REGENMODE
 70
     1
  9
$FILLMODE
 70
     1
  9
$QTEXTMODE
 70
     0
  9
$MIRRTEXT
 70
     0
  9
$LTSCALE
 40
1.0
  9
$ATTMODE
 70
     1
  9
$TEXTSIZE
 40
5.0
  9
$TRACEWID
 40
1.0
  9
$TEXTSTYLE
  7
Arial-Bold
  9
$CLAYER
  8
APL Joinery
  9
$CELTYPE
  6
ByLayer
  9
$CECOLOR
 62
     2
  9
$CELTSCALE
 40
3.0
  9
$DISPSILH
 70
     0
  9
$DIMSCALE
 40
1.0
  9
$DIMASZ
 40
3.0
  9
$DIMEXO
 40
1.5
  9
$DIMDLI
 40
3.75
  9
$DIMRND
 40
0.0
  9
$DIMDLE
 40
0.0
  9
$DIMEXE
 40
1.5
  9
$DIMTP
 40
0.0
  9
$DIMTM
 40
0.0
  9
$DIMTXT
 40
2.5
  9
$DIMCEN
 40
-2.5
  9
$DIMTSZ
 40
0.0
  9
$DIMTOL
 70
     0
  9
$DIMLIM
 70
     0
  9
$DIMTIH
 70
     0
  9
$DIMTOH
 70
     0
  9
$DIMSE1
 70
     0
  9
$DIMSE2
 70
     0
  9
$DIMTAD
 70
     1
  9
$DIMZIN
 70
     1
  9
$DIMBLK
  1

  9
$DIMASO
 70
     1
  9
$DIMSHO
 70
     1
  9
$DIMPOST
  1

  9
$DIMAPOST
  1

  9
$DIMALT
 70
     0
  9
$DIMALTD
 70
     3
  9
$DIMALTF
 40
0.03937007874016
  9
$DIMLFAC
 40
1.0
  9
$DIMTOFL
 70
     1
  9
$DIMTVP
 40
0.0
  9
$DIMTIX
 70
     0
  9
$DIMSOXD
 70
     0
  9
$DIMSAH
 70
     0
  9
$DIMBLK1
  1

  9
$DIMBLK2
  1

  9
$DIMSTYLE
  2
Jase 01
  9
$DIMCLRD
 70
     9
  9
$DIMCLRE
 70
     9
  9
$DIMCLRT
 70
     7
  9
$DIMTFAC
 40
1.0
  9
$DIMGAP
 40
1.0
  9
$DIMJUST
 70
     0
  9
$DIMSD1
 70
     0
  9
$DIMSD2
 70
     0
  9
$DIMTOLJ
 70
     0
  9
$DIMTZIN
 70
     8
  9
$DIMALTZ
 70
     0
  9
$DIMALTTZ
 70
     0
  9
$DIMUPT
 70
     0
  9
$DIMDEC
 70
     0
  9
$DIMTDEC
 70
     0
  9
$DIMALTU
 70
     2
  9
$DIMALTTD
 70
     3
  9
$DIMTXSTY
  7
Arial-Regular
  9
$DIMAUNIT
 70
     0
  9
$DIMADEC
 70
     0
  9
$DIMALTRND
 40
0.0
  9
$DIMAZIN
 70
     0
  9
$DIMDSEP
 70
    46
  9
$DIMATFIT
 70
     0
  9
$DIMFRAC
 70
     0
  9
$DIMLDRBLK
  1
Dot
  9
$DIMLUNIT
 70
     2
  9
$DIMLWD
 70
     9
  9
$DIMLWE
 70
     9
  9
$DIMTMOVE
 70
     0
  9
$LUNITS
 70
     2
  9
$LUPREC
 70
     4
  9
$SKETCHINC
 40
1.0
  9
$FILLETRAD
 40
10.0
  9
$AUNITS
 70
     0
  9
$AUPREC
 70
     0
  9
$MENU
  1
.
  9
$ELEVATION
 40
0.0
  9
$PELEVATION
 40
0.0
  9
$THICKNESS
 40
0.0
  9
$LIMCHECK
 70
     0
  9
$CHAMFERA
 40
10.0
  9
$CHAMFERB
 40
10.0
  9
$CHAMFERC
 40
20.0
  9
$CHAMFERD
 40
0.0
  9
$SKPOLY
 70
     0
  9
$TDCREATE
 40
2452286.590325035
  9
$TDUCREATE
 40
2452286.090325035
  9
$TDUPDATE
 40
2455707.400914653
  9
$TDUUPDATE
 40
2455706.900914653
  9
$TDINDWG
 40
3.7751672338
  9
$TDUSRTIMER
 40
3.7751672338
  9
$USRTIMER
 70
     1
  9
$ANGBASE
 50
0.0
  9
$ANGDIR
 70
     0
  9
$PDMODE
 70
     3
  9
$PDSIZE
 40
3.0
  9
$PLINEWID
 40
0.0
  9
$SPLFRAME
 70
     0
  9
$SPLINETYPE
 70
     6
  9
$SPLINESEGS
 70
     8
  9
$HANDSEED
  5
78CF
  9
$SURFTAB1
 70
     6
  9
$SURFTAB2
 70
     6
  9
$SURFTYPE
 70
     6
  9
$SURFU
 70
     6
  9
$SURFV
 70
     6
  9
$UCSBASE
  2

  9
$UCSNAME
  2

  9
$UCSORG
 10
0.0
 20
0.0
 30
0.0
  9
$UCSXDIR
 10
1.0
 20
0.0
 30
0.0
  9
$UCSYDIR
 10
0.0
 20
1.0
 30
0.0
  9
$UCSORTHOREF
  2

  9
$UCSORTHOVIEW
 70
     0
  9
$UCSORGTOP
 10
0.0
 20
0.0
 30
0.0
  9
$UCSORGBOTTOM
 10
0.0
 20
0.0
 30
0.0
  9
$UCSORGLEFT
 10
0.0
 20
0.0
 30
0.0
  9
$UCSORGRIGHT
 10
0.0
 20
0.0
 30
0.0
  9
$UCSORGFRONT
 10
0.0
 20
0.0
 30
0.0
  9
$UCSORGBACK
 10
0.0
 20
0.0
 30
0.0
  9
$PUCSBASE
  2

  9
$PUCSNAME
  2

  9
$PUCSORG
 10
0.0
 20
0.0
 30
0.0
  9
$PUCSXDIR
 10
1.0
 20
0.0
 30
0.0
  9
$PUCSYDIR
 10
0.0
 20
1.0
 30
0.0
  9
$PUCSORTHOREF
  2

  9
$PUCSORTHOVIEW
 70
     0
  9
$PUCSORGTOP
 10
0.0
 20
0.0
 30
0.0
  9
$PUCSORGBOTTOM
 10
0.0
 20
0.0
 30
0.0
  9
$PUCSORGLEFT
 10
0.0
 20
0.0
 30
0.0
  9
$PUCSORGRIGHT
 10
0.0
 20
0.0
 30
0.0
  9
$PUCSORGFRONT
 10
0.0
 20
0.0
 30
0.0
  9
$PUCSORGBACK
 10
0.0
 20
0.0
 30
0.0
  9
$USERI1
 70
     0
  9
$USERI2
 70
     0
  9
$USERI3
 70
     0
  9
$USERI4
 70
     0
  9
$USERI5
 70
     0
  9
$USERR1
 40
0.0
  9
$USERR2
 40
0.0
  9
$USERR3
 40
0.0
  9
$USERR4
 40
0.0
  9
$USERR5
 40
0.0
  9
$WORLDVIEW
 70
     1
  9
$SHADEDGE
 70
     3
  9
$SHADEDIF
 70
    70
  9
$TILEMODE
 70
     0
  9
$MAXACTVP
 70
    64
  9
$PINSBASE
 10
0.0
 20
0.0
 30
0.0
  9
$PLIMCHECK
 70
     0
  9
$PEXTMIN
 10
4.574452500067252
 20
3.285575844812797
 30
-0.0015258207003583
  9
$PEXTMAX
 10
189.6073677543587
 20
282.2033753668244
 30
0.0000000349246037
  9
$PLIMMIN
 10
-5.027082920074462
 20
-5.408084392547607
  9
$PLIMMAX
 10
204.8615736961365
 20
291.6449246406555
  9
$UNITMODE
 70
     0
  9
$VISRETAIN
 70
     1
  9
$PLINEGEN
 70
     0
  9
$PSLTSCALE
 70
     1
  9
$TREEDEPTH
 70
  3020
  9
$CMLSTYLE
  2
Standard
  9
$CMLJUST
 70
     0
  9
$CMLSCALE
 40
20.0
  9
$PROXYGRAPHICS
 70
     1
  9
$MEASUREMENT
 70
     1
  9
$CELWEIGHT
370
    -1
  9
$ENDCAPS
280
     0
  9
$JOINSTYLE
280
     0
  9
$LWDISPLAY
290
     0
  9
$INSUNITS
 70
     4
  9
$HYPERLINKBASE
  1

  9
$STYLESHEET
  1
A4 Specifier Manual.ctb
  9
$XEDIT
290
     1
  9
$CEPSNTYPE
380
     0
  9
$PSTYLEMODE
290
     1
  9
$FINGERPRINTGUID
  2
{D079D194-C9C2-11D5-B123-005004D48FB5}
  9
$VERSIONGUID
  2
{2456BD65-286D-40EC-B942-AECACE0C23A5}
  9
$EXTNAMES
290
     1
  9
$PSVPSCALE
 40
0.0
  9
$OLESTARTUP
290
     0
  0
ENDSEC
  0
SECTION
  2
CLASSES
  0
CLASS
  1
ACDBDICTIONARYWDFLT
  2
AcDbDictionaryWithDefault
  3
ObjectDBX Classes
 90
        0
280
     0
281
     0
  0
CLASS
  1
ACDBPLACEHOLDER
  2
AcDbPlaceHolder
  3
ObjectDBX Classes
 90
        0
280
     0
281
     0
  0
CLASS
  1
LAYOUT
  2
AcDbLayout
  3
ObjectDBX Classes
 90
        0
280
     0
281
     0
  0
CLASS
  1
DICTIONARYVAR
  2
AcDbDictionaryVar
  3
ObjectDBX Classes
 90
        0
280
     0
281
     0
  0
CLASS
  1
PLOTSETTINGS
  2
AcDbPlotSettings
  3
ObjectDBX Classes
 90
        0
280
     0
281
     0
  0
CLASS
  1
DIMASSOC
  2
AcDbDimAssoc
  3
"AcDbDimAssoc|Product Desc:     AcDim ARX App For Dimension|Company:          Autodesk, Inc.|WEB Address:      www.autodesk.com"
 90
    32768
280
     0
281
     0
  0
CLASS
  1
MATERIAL
  2
AcDbMaterial
  3
ObjectDBX Classes
 90
        0
280
     0
281
     0
  0
CLASS
  1
VISUALSTYLE
  2
AcDbVisualStyle
  3
ObjectDBX Classes
 90
     4095
280
     0
281
     0
  0
CLASS
  1
TABLESTYLE
  2
AcDbTableStyle
  3
ObjectDBX Classes
 90
     2047
280
     0
281
     0
  0
CLASS
  1
SCALE
  2
AcDbScale
  3
ObjectDBX Classes
 90
     1153
280
     0
281
     0
  0
CLASS
  1
MLEADERSTYLE
  2
AcDbMLeaderStyle
  3
ACDB_MLEADERSTYLE_CLASS
 90
     4095
280
     0
281
     0
  0
CLASS
  1
EXACTERMXREFMAP
  2
ExAcTermXrefMap
  3
EXAC_SERVICE
 90
    33793
280
     0
281
     0
  0
CLASS
  1
NPOCOLLECTION
  2
AcDbImpNonPersistentObjectsCollection
  3
ObjectDBX Classes
 90
    33921
280
     0
281
     0
  0
CLASS
  1
EXACXREFPANELOBJECT
  2
ExAcXREFPanelObject
  3
EXAC_ESW
 90
    33793
280
     0
281
     0
  0
CLASS
  1
CELLSTYLEMAP
  2
AcDbCellStyleMap
  3
ObjectDBX Classes
 90
     1152
280
     0
281
     0
  0
CLASS
  1
SORTENTSTABLE
  2
AcDbSortentsTable
  3
ObjectDBX Classes
 90
        0
280
     0
281
     0
  0
ENDSEC
  0
SECTION
  2
TABLES
  0
TABLE
  2
VPORT
  5
8
102
{ACAD_XDICTIONARY
360
6F20
102
}
330
0
100
AcDbSymbolTable
 70
     1
  0
VPORT
  5
743F
330
8
100
AcDbSymbolTableRecord
100
AcDbViewportTableRecord
  2
*Active
 70
     0
 10
0.0
 20
0.0
 11
1.0
 21
1.0
 12
207.3221129245592
 22
119.4065669579317
 13
0.0
 23
0.0
 14
1.0
 24
1.0
 15
1.0
 25
1.0
 16
0.0
 26
0.0
 36
1.0
 17
0.0
 27
0.0
 37
0.0
 40
193.1133905372657
 41
1.55350553505535
 42
50.0
 43
0.0
 44
0.0
 50
0.0
 51
0.0
 71
     0
 72
 20000
 73
     1
 74
     3
 75
     0
 76
     0
 77
     0
 78
     0
281
     0
 65
     1
110
0.0
120
0.0
130
0.0
111
1.0
121
0.0
131
0.0
112
0.0
122
1.0
132
0.0
 79
     0
146
0.0
  0
ENDTAB
  0
TABLE
  2
LTYPE
  5
5
330
0
100
AcDbSymbolTable
 70
     4
  0
LTYPE
  5
14
330
5
100
AcDbSymbolTableRecord
100
AcDbLinetypeTableRecord
  2
ByBlock
 70
     0
  3

 72
    65
 73
     0
 40
0.0
  0
LTYPE
  5
15
330
5
100
AcDbSymbolTableRecord
100
AcDbLinetypeTableRecord
  2
ByLayer
 70
     0
  3

 72
    65
 73
     0
 40
0.0
  0
LTYPE
  5
16
330
5
100
AcDbSymbolTableRecord
100
AcDbLinetypeTableRecord
  2
Continuous
 70
     0
  3
Solid line
 72
    65
 73
     0
 40
0.0
  0
ENDTAB
  0
TABLE
  2
LAYER
  5
2
102
{ACAD_XDICTIONARY
360
5570
102
}
330
0
100
AcDbSymbolTable
 70
     6
  0
LAYER
  5
10
102
{ACAD_XDICTIONARY
360
6EE6
102
}
330
2
100
AcDbSymbolTableRecord
100
AcDbLayerTableRecord
  2
0
 70
     4
 62
     7
  6
Continuous
290
     0
370
    -3
390
F
  0
LAYER
  5
2B
102
{ACAD_XDICTIONARY
360
6EE8
102
}
330
2
100
AcDbSymbolTableRecord
100
AcDbLayerTableRecord
  2
APL Joinery
 70
     0
 62
     2
  6
Continuous
370
    -3
390
F
  0
LAYER
  5
75
102
{ACAD_XDICTIONARY
360
6EEA
102
}
330
2
100
AcDbSymbolTableRecord
100
AcDbLayerTableRecord
  2
APL Notes
 70
     0
 62
     7
  6
Continuous
370
    -3
390
F
  0
LAYER
  5
42F1
102
{ACAD_XDICTIONARY
360
6EEC
102
}
330
2
100
AcDbSymbolTableRecord
100
AcDbLayerTableRecord
  2
APL Border
 70
     0
 62
     7
  6
Continuous
370
    -3
390
F
  0
LAYER
  5
6E4C
102
{ACAD_XDICTIONARY
360
6F02
102
}
330
2
100
AcDbSymbolTableRecord
100
AcDbLayerTableRecord
  2
APL Hatch
 70
     0
 62
   253
  6
Continuous
370
    -3
390
F
  0
ENDTAB
  0
TABLE
  2
STYLE
  5
3
330
0
100
AcDbSymbolTable
 70
     6
  0
STYLE
  5
11
330
3
100
AcDbSymbolTableRecord
100
AcDbTextStyleTableRecord
  2
Standard
 70
     0
 40
2.0
 41
1.0
 50
0.0
 71
     0
 42
3.0
  3
txt.shx
  4

  0
STYLE
  5
3E99
330
3
100
AcDbSymbolTableRecord
100
AcDbTextStyleTableRecord
  2
Arial-Bold
 70
     0
 40
0.0
 41
1.0
 50
0.0
 71
     0
 42
5.0
  3
ARIALBD.TTF
  4

1001
ACAD
1000
Arial
1071
 33554466
  0
STYLE
  5
4415
330
3
100
AcDbSymbolTableRecord
100
AcDbTextStyleTableRecord
  2
Arial-Regular
 70
     0
 40
0.0
 41
1.0
 50
0.0
 71
     0
 42
2.5
  3
ARIAL.TTF
  4

1001
ACAD
1000
Arial
1071
       34
  0
ENDTAB
  0
TABLE
  2
VIEW
  5
6
330
0
100
AcDbSymbolTable
 70
     1
  0
ENDTAB
  0
TABLE
  2
UCS
  5
7
330
0
100
AcDbSymbolTable
 70
     0
  0
ENDTAB
  0
TABLE
  2
APPID
  5
9
330
0
100
AcDbSymbolTable
 70
    10
  0
APPID
  5
12
330
9
100
AcDbSymbolTableRecord
100
AcDbRegAppTableRecord
  2
ACAD
 70
     0
  0
APPID
  5
5965
330
9
100
AcDbSymbolTableRecord
100
AcDbRegAppTableRecord
  2
DCO15
 70
     0
  0
APPID
  5
6E3D
330
9
100
AcDbSymbolTableRecord
100
AcDbRegAppTableRecord
  2
ACAD_MLEADERVER
 70
     0
  0
APPID
  5
70F7
330
9
100
AcDbSymbolTableRecord
100
AcDbRegAppTableRecord
  2
ACAD_PSEXT
 70
     0
  0
APPID
  5
720D
330
9
100
AcDbSymbolTableRecord
100
AcDbRegAppTableRecord
  2
ACAUTHENVIRON
 70
     0
  0
APPID
  5
720E
330
9
100
AcDbSymbolTableRecord
100
AcDbRegAppTableRecord
  2
AcDbDynamicBlockTrueName
 70
     0
  0
APPID
  5
720F
330
9
100
AcDbSymbolTableRecord
100
AcDbRegAppTableRecord
  2
AcDbDynamicBlockGUID
 70
     0
  0
APPID
  5
7210
330
9
100
AcDbSymbolTableRecord
100
AcDbRegAppTableRecord
  2
AcDbBlockRepETag
 70
     0
  0
APPID
  5
7211
330
9
100
AcDbSymbolTableRecord
100
AcDbRegAppTableRecord
  2
AcDbBlockRepBTag
 70
     0
  0
APPID
  5
7212
330
9
100
AcDbSymbolTableRecord
100
AcDbRegAppTableRecord
  2
ACAD_EXEMPT_FROM_CAD_STANDARDS
 70
     0
  0
ENDTAB
  0
TABLE
  2
DIMSTYLE
  5
A
330
0
100
AcDbSymbolTable
 70
     3
100
AcDbDimStyleTable
 71
     1
340
375D
  0
DIMSTYLE
105
375D
330
A
100
AcDbSymbolTableRecord
100
AcDbDimStyleTableRecord
  2
Jase 01
 70
     0
 41
3.0
 42
1.5
 43
3.75
 44
1.5
 73
     0
 74
     0
 77
     1
 78
     1
140
2.5
141
-2.5
143
0.03937007874016
147
1.0
171
     3
172
     1
176
     9
177
     9
178
     7
271
     0
272
     0
274
     3
283
     0
284
     8
289
     0
340
4415
341
374F
371
     9
372
     9
  0
ENDTAB
  0
TABLE
  2
BLOCK_RECORD
  5
1
330
0
100
AcDbSymbolTable
 70
    25
  0
BLOCK_RECORD
  5
1F
330
1
100
AcDbSymbolTableRecord
100
AcDbBlockTableRecord
  2
*Model_Space
340
22
  0
BLOCK_RECORD
  5
4E45
330
1
100
AcDbSymbolTableRecord
100
AcDbBlockTableRecord
  2
*Paper_Space
340
4E46
  0
BLOCK_RECORD
  5
374F
330
1
100
AcDbSymbolTableRecord
100
AcDbBlockTableRecord
  2
_Dot
340
0
310
2800000020000000200000000100080000000000000400000000000000000000000000000000000000000000000080000080000000808000800000008000800080800000C0C0C000C0DCC000F0CAA6000020400000206000002080000020A0000020C0000020E00000400000004020000040400000406000004080000040A0
310
000040C0000040E00000600000006020000060400000606000006080000060A0000060C0000060E00000800000008020000080400000806000008080000080A0000080C0000080E00000A0000000A0200000A0400000A0600000A0800000A0A00000A0C00000A0E00000C0000000C0200000C0400000C0600000C0800000C0
310
A00000C0C00000C0E00000E0000000E0200000E0400000E0600000E0800000E0A00000E0C00000E0E00040000000400020004000400040006000400080004000A0004000C0004000E00040200000402020004020400040206000402080004020A0004020C0004020E000404000004040200040404000404060004040800040
310
40A0004040C0004040E00040600000406020004060400040606000406080004060A0004060C0004060E00040800000408020004080400040806000408080004080A0004080C0004080E00040A0000040A0200040A0400040A0600040A0800040A0A00040A0C00040A0E00040C0000040C0200040C0400040C0600040C08000
310
40C0A00040C0C00040C0E00040E0000040E0200040E0400040E0600040E0800040E0A00040E0C00040E0E00080000000800020008000400080006000800080008000A0008000C0008000E00080200000802020008020400080206000802080008020A0008020C0008020E00080400000804020008040400080406000804080
310
008040A0008040C0008040E00080600000806020008060400080606000806080008060A0008060C0008060E00080800000808020008080400080806000808080008080A0008080C0008080E00080A0000080A0200080A0400080A0600080A0800080A0A00080A0C00080A0E00080C0000080C0200080C0400080C0600080C0
310
800080C0A00080C0C00080C0E00080E0000080E0200080E0400080E0600080E0800080E0A00080E0C00080E0E000C0000000C0002000C0004000C0006000C0008000C000A000C000C000C000E000C0200000C0202000C0204000C0206000C0208000C020A000C020C000C020E000C0400000C0402000C0404000C0406000C0
310
408000C040A000C040C000C040E000C0600000C0602000C0604000C0606000C0608000C060A000C060C000C060E000C0800000C0802000C0804000C0806000C0808000C080A000C080C000C080E000C0A00000C0A02000C0A04000C0A06000C0A08000C0A0A000C0A0C000C0A0E000C0C00000C0C02000C0C04000C0C06000
310
C0C08000C0C0A000F0FBFF00A4A0A000808080000000FF0000FF000000FFFF00FF000000FF00FF00FFFF0000FFFFFF0000000000000000000000000000000000000000000000000000000000000000000000000000000000000000000000000000000000000000000000000000000000000000000000000000000000000000
310
000000000000000000FF000000000000000000000000000000000000000000000000000000000000FFFFFF00000000000000000000000000000000000000000000000000000000FF00FF00FF0000000000000000000000000000000000000000000000000000FF0000FF0000FF000000000000000000000000000000000000
310
000000000000FF000000FF000000FF00000000000000000000000000000000000000000000FF00000000FF00000000FF0000000000000000000000000000000000000000FF0000000000FF0000000000FF000000000000000000000000000000000000FF000000000000FF000000000000FF00000000000000000000000000
310
000000FF00000000000000FF00000000000000000000000000000000000000000000FF0000000000000000FF000000000000000000000000000000000000000000FF000000000000000000FF0000000000000000000000000000000000000000FF00000000000000000000FF00000000000000000000000000000000000000
310
FF00000000000000000000FFFFFF0000000000000000000000000000000000FF00000000000000000000FFFFFFFFFFFFFFFFFFFF00FFFFFFFFFFFFFFFFFFFFFFFFFFFFFFFFFFFFFFFFFFFFFFFFFFFF00000000000000000000000000000000FF0000000000000000000000FFFFFF0000000000000000000000000000000000
310
00FF0000000000000000000000FF0000000000000000000000000000000000000000FF00000000000000000000FF000000000000000000000000000000000000000000FF000000000000000000FF00000000000000000000000000000000000000000000FF0000000000000000FF0000000000000000000000000000000000
310
000000000000FFFF000000000000FF000000000000FF000000000000000000000000000000000000FF0000000000FF0000000000FF0000000000000000000000000000000000000000FF00000000FF00000000FF00000000000000000000000000000000000000000000FF000000FF000000FF000000000000000000000000
310
000000000000000000000000FF0000FF0000FF0000000000000000000000000000000000000000000000000000FF00FF00FF00000000000000000000000000000000000000000000000000000000FFFFFF000000000000000000000000000000000000000000000000000000000000FF000000000000000000000000000000
310
0000000000000000000000000000000000000000000000000000000000000000000000000000000000000000000000000000000000000000
  0
BLOCK_RECORD
  5
3D9E
330
1
100
AcDbSymbolTableRecord
100
AcDbBlockTableRecord
  2
9010312r
340
0
102
{BLKREFS
331
6E82
102
}
  0
BLOCK_RECORD
  5
3E9A
330
1
100
AcDbSymbolTableRecord
100
AcDbBlockTableRecord
  2
a4 specifiers manual
340
0
310
2800000020000000200000000100080000000000000400000000000000000000000000000000000000000000000080000080000000808000800000008000800080800000C0C0C000C0DCC000F0CAA6000020400000206000002080000020A0000020C0000020E00000400000004020000040400000406000004080000040A0
310
000040C0000040E00000600000006020000060400000606000006080000060A0000060C0000060E00000800000008020000080400000806000008080000080A0000080C0000080E00000A0000000A0200000A0400000A0600000A0800000A0A00000A0C00000A0E00000C0000000C0200000C0400000C0600000C0800000C0
310
A00000C0C00000C0E00000E0000000E0200000E0400000E0600000E0800000E0A00000E0C00000E0E00040000000400020004000400040006000400080004000A0004000C0004000E00040200000402020004020400040206000402080004020A0004020C0004020E000404000004040200040404000404060004040800040
310
40A0004040C0004040E00040600000406020004060400040606000406080004060A0004060C0004060E00040800000408020004080400040806000408080004080A0004080C0004080E00040A0000040A0200040A0400040A0600040A0800040A0A00040A0C00040A0E00040C0000040C0200040C0400040C0600040C08000
310
40C0A00040C0C00040C0E00040E0000040E0200040E0400040E0600040E0800040E0A00040E0C00040E0E00080000000800020008000400080006000800080008000A0008000C0008000E00080200000802020008020400080206000802080008020A0008020C0008020E00080400000804020008040400080406000804080
310
008040A0008040C0008040E00080600000806020008060400080606000806080008060A0008060C0008060E00080800000808020008080400080806000808080008080A0008080C0008080E00080A0000080A0200080A0400080A0600080A0800080A0A00080A0C00080A0E00080C0000080C0200080C0400080C0600080C0
310
800080C0A00080C0C00080C0E00080E0000080E0200080E0400080E0600080E0800080E0A00080E0C00080E0E000C0000000C0002000C0004000C0006000C0008000C000A000C000C000C000E000C0200000C0202000C0204000C0206000C0208000C020A000C020C000C020E000C0400000C0402000C0404000C0406000C0
310
408000C040A000C040C000C040E000C0600000C0602000C0604000C0606000C0608000C060A000C060C000C060E000C0800000C0802000C0804000C0806000C0808000C080A000C080C000C080E000C0A00000C0A02000C0A04000C0A06000C0A08000C0A0A000C0A0C000C0A0E000C0C00000C0C02000C0C04000C0C06000
310
C0C08000C0C0A000F0FBFF00A4A0A000808080000000FF0000FF000000FFFF00FF000000FF00FF00FFFF0000FFFFFF0000000000000000000000000000000000000000000000000000000000000000000000000000FFFFFFFFFFFFFFFFFFFFFFFFFFFFFFFFFFFFFFFFFFFF00000000000000000000FF000000000000000000
310
0000000000000000000000FF00000000000000000000FF0000000000000000000000000000000000000000FF00000000000000000000FF0000000000000000000000000000000000000000FF00000000000000000000FF0000000000000000000000000000000000000000FF00000000000000000000FF0000000000000000
310
000000000000000000000000FF00000000000000000000FF0000000000000000000000000000000000000000FF00000000000000000000FF0000000000000000000000000000000000000000FF00000000000000000000FF0000000000000000000000000000000000000000FF00000000000000000000FF00000000000000
310
00000000000000000000000000FF00000000000000000000FF0000000000000000000000000000000000000000FF00000000000000000000FF0000000000000000000000000000000000000000FF00000000000000000000FF0000000000000000000000000000000000000000FF00000000000000000000FF000000000000
310
0000000000000000000000000000FF00000000000000000000FF0000000000000000000000000000000000000000FF00000000000000000000FF0000000000000000000000000000000000000000FF00000000000000000000FF0000000000000000000000000000000000000000FF00000000000000000000FF0000000000
310
000000000000000000000000000000FF00000000000000000000FF0000000000000000000000000000000000000000FF00000000000000000000FF0000000000000000000000000000000000000000FF00000000000000000000FF0000000000000000000000000000000000000000FF00000000000000000000FF00000000
310
00000000000000000000000000000000FF00000000000000000000FF0000000000000000000000000000000000000000FF00000000000000000000FF0000000000000000000000000000000000000000FF00000000000000000000FF0000000000000000000000000000000000000000FF00000000000000000000FF000000
310
0000000000000000000000000000000000FF00000000000000000000FF0000000000000000000000000000000000000000FF00000000000000000000FF0000000000000000000000000000000000000000FF00000000000000000000FF0000000000000000000000000000000000000000FF00000000000000000000FFFFFF
310
FFFFFFFFFFFFFFFFFFFFFFFFFFFFFFFFFFFFFF00000000000000000000000000000000000000000000000000000000000000000000000000
102
{BLKREFS
331
3EA1
102
}
1001
ACAD
1000
DesignCenter Data
1002
{
1070
     1
1070
     4
1002
}
  0
BLOCK_RECORD
  5
3F2E
330
1
100
AcDbSymbolTableRecord
100
AcDbBlockTableRecord
  2
6Glass
340
0
102
{BLKREFS
331
6E7D
331
6E7F
102
}
  0
BLOCK_RECORD
  5
4E54
330
1
100
AcDbSymbolTableRecord
100
AcDbBlockTableRecord
  2
vantage a4 SM border
340
0
102
{BLKREFS
331
4E58
102
}
  0
BLOCK_RECORD
  5
5B48
102
{ACAD_XDICTIONARY
360
786A
102
}
330
1
100
AcDbSymbolTableRecord
100
AcDbBlockTableRecord
  2
04440
340
0
102
{BLKREFS
331
6D90
102
}
  0
BLOCK_RECORD
  5
5E99
330
1
100
AcDbSymbolTableRecord
100
AcDbBlockTableRecord
  2
9010250L
340
0
102
{BLKREFS
331
6E7C
102
}
1001
ACAD
1000
DesignCenter Data
1002
{
1070
     1
1070
     4
1002
}
  0
BLOCK_RECORD
  5
6D95
102
{ACAD_XDICTIONARY
360
7870
102
}
330
1
100
AcDbSymbolTableRecord
100
AcDbBlockTableRecord
  2
04443
340
0
102
{BLKREFS
331
6D9A
102
}
  0
BLOCK_RECORD
  5
6DB0
102
{ACAD_XDICTIONARY
360
7876
102
}
330
1
100
AcDbSymbolTableRecord
100
AcDbBlockTableRecord
  2
04444
340
0
102
{BLKREFS
331
6DB5
102
}
  0
BLOCK_RECORD
  5
6E64
330
1
100
AcDbSymbolTableRecord
100
AcDbBlockTableRecord
  2
08638
340
0
102
{BLKREFS
331
6E7E
102
}
1001
ACAD
1000
DesignCenter Data
1002
{
1070
     1
1070
     4
1002
}
  0
BLOCK_RECORD
  5
6E7B
330
1
100
AcDbSymbolTableRecord
100
AcDbBlockTableRecord
  2
A$C6DC3226B
340
0
102
{BLKREFS
331
6E85
331
6E8B
331
6E91
102
}
1001
ACAD
1000
DesignCenter Data
1002
{
1070
     1
1070
     4
1002
}
  0
BLOCK_RECORD
  5
7244
102
{ACAD_XDICTIONARY
360
724E
102
}
330
1
100
AcDbSymbolTableRecord
100
AcDbBlockTableRecord
  2
vantage a4 SM attributes (4)
340
0
102
{BLKREFS
331
7251
102
}
1001
ACAD
1000
DesignCenter Data
1002
{
1070
     1
1070
     4
1002
}
  0
BLOCK_RECORD
  5
735A
102
{ACAD_XDICTIONARY
360
787F
102
}
330
1
100
AcDbSymbolTableRecord
100
AcDbBlockTableRecord
  2
04461
340
0
102
{BLKREFS
331
735F
331
7360
331
7361
102
}
1001
ACAD
1000
DesignCenter Data
1002
{
1070
     1
1070
     4
1002
}
  0
BLOCK_RECORD
  5
7418
102
{ACAD_XDICTIONARY
360
7885
102
}
330
1
100
AcDbSymbolTableRecord
100
AcDbBlockTableRecord
  2
08678
340
0
102
{BLKREFS
331
7420
331
742D
331
743A
102
}
1001
ACAD
1000
DesignCenter Data
1002
{
1070
     1
1070
     4
1002
}
  0
BLOCK_RECORD
  5
7822
102
{ACAD_XDICTIONARY
360
7823
102
}
330
1
100
AcDbSymbolTableRecord
100
AcDbBlockTableRecord
  2
vantage black & white logo
340
0
310
2800000020000000200000000100080000000000000400000000000000000000000000000000000000000000000080000080000000808000800000008000800080800000C0C0C000C0DCC000F0CAA6000020400000206000002080000020A0000020C0000020E00000400000004020000040400000406000004080000040A0
310
000040C0000040E00000600000006020000060400000606000006080000060A0000060C0000060E00000800000008020000080400000806000008080000080A0000080C0000080E00000A0000000A0200000A0400000A0600000A0800000A0A00000A0C00000A0E00000C0000000C0200000C0400000C0600000C0800000C0
310
A00000C0C00000C0E00000E0000000E0200000E0400000E0600000E0800000E0A00000E0C00000E0E00040000000400020004000400040006000400080004000A0004000C0004000E00040200000402020004020400040206000402080004020A0004020C0004020E000404000004040200040404000404060004040800040
310
40A0004040C0004040E00040600000406020004060400040606000406080004060A0004060C0004060E00040800000408020004080400040806000408080004080A0004080C0004080E00040A0000040A0200040A0400040A0600040A0800040A0A00040A0C00040A0E00040C0000040C0200040C0400040C0600040C08000
310
40C0A00040C0C00040C0E00040E0000040E0200040E0400040E0600040E0800040E0A00040E0C00040E0E00080000000800020008000400080006000800080008000A0008000C0008000E00080200000802020008020400080206000802080008020A0008020C0008020E00080400000804020008040400080406000804080
310
008040A0008040C0008040E00080600000806020008060400080606000806080008060A0008060C0008060E00080800000808020008080400080806000808080008080A0008080C0008080E00080A0000080A0200080A0400080A0600080A0800080A0A00080A0C00080A0E00080C0000080C0200080C0400080C0600080C0
310
800080C0A00080C0C00080C0E00080E0000080E0200080E0400080E0600080E0800080E0A00080E0C00080E0E000C0000000C0002000C0004000C0006000C0008000C000A000C000C000C000E000C0200000C0202000C0204000C0206000C0208000C020A000C020C000C020E000C0400000C0402000C0404000C0406000C0
310
408000C040A000C040C000C040E000C0600000C0602000C0604000C0606000C0608000C060A000C060C000C060E000C0800000C0802000C0804000C0806000C0808000C080A000C080C000C080E000C0A00000C0A02000C0A04000C0A06000C0A08000C0A0A000C0A0C000C0A0E000C0C00000C0C02000C0C04000C0C06000
310
C0C08000C0C0A000F0FBFF00A4A0A000808080000000FF0000FF000000FFFF00FF000000FF00FF00FFFF0000FFFFFF0000000000000000000000000000000000000000000000000000000000000000000000000000000000000000000000000000000000000000000000000000000000000000000000000000000000000000
310
0000000000000000000000000000000000000000000000000000000000000000A4A40000000000000000000000000000000000000000000000000000000000A400000700000000000000000000000000000000000000000000000000000000A4000707000000000000000000000000000000000000000000000000000000A4
310
00A4A407070000000000000000000000000000000000000000000000000000A400A400A40700000000000000000000000000000000000000000000000000A400A4A400A407070000000000000000000000000000000000000000000000A40700A4000000A4070000000000000000000000000000000000000000000000A400
310
A4A4000000A40707000000000000000000000000000000000000000000A400A4A4000000A4A4A400070000000000000000000000000000000000000000A400A400000000A400A4070700000000000000000000000000000000000000A400A4A4000000A4A40000A40007000000000000000000000000000000000000A400A4
310
A4A4A4A4A4A4A4A4A407070000000000000000000000000000000000A400A4A4A4A4A4A4A4A4A4A4A4A40007000000000000000000000000000000A40000A4A4A4A4A4A4A4A4A4A4A4A40700070000000000000000000000000000A400A4A400A4A4A4A4A4A4A4A4A4A4A4070700000000000000000000000000A400A4A4A4
310
A4A4A4A4A4A4A4A4A4A4A4A4070007000000000000000000000000A400A4A4A4A4A4A4A4A4A4A4A4A4A4A4A4A407070000000000000000000000A400A4A400A4A4A4A4A4A4A4A4A4A4A4A4A4A4070007000000000000000000A40700A4A400A4A4A4A4A4A4A4A4A4A4A4A4A400A40707000000000000000000A400A4A4A4A4
310
A4A4A4A4A4A4A4A4A4A4A4A4A4A4A407000700000000000000A400A4A4A4A4A4A4A4A4A4A4A4A4A4A4A4A4A4A4A4A4A4070007000000000000A400A4A4A4A4A4A4A4A4A4A4A4A4A4A4A4A4A4A4A4A4A40700070000000000A400A4A400A4A4A4A4A4A4A4A4A4A4A4A4A4A4A4A4A4A4A40007000700000000A400A4A4A400A4
310
A4A4A4A4A4A4A4A4A4A4A4A4A4A4A4A4A4000700070000000700A4A4A4A4A4A4A4A4A4A4A4A4A4A4A4A4A4A4A4A4A4A4A4A4A40700070000A407A4A4A4A4A4A4A4A4A4A4A4A4A4A4A4A4A4A4A4A4A4A4A4A4A4A407A40000000000000000000000000000000000000000000000000000000000000000000000000000000000
310
0000000000000000000000000000000000000000000000000000000000000000000000000000000000000000000000000000000000000000
102
{BLKREFS
331
7820
102
}
1001
AcDbDynamicBlockGUID
1000
{7D04BC3F-8AE2-40EA-A482-CE6E620AF154}
1001
AcDbBlockRepETag
1070
     1
1071
      907
1001
ACAD
1000
DesignCenter Data
1002
{
1070
     1
1070
     4
1002
}
  0
ENDTAB
  0
ENDSEC
  0
SECTION
  2
BLOCKS
  0
BLOCK
  5
20
330
1F
100
AcDbEntity
  8
0
100
AcDbBlockBegin
  2
*Model_Space
 70
     0
 10
0.0
 20
0.0
 30
0.0
  3
*Model_Space
  1

  0
ENDBLK
  5
21
330
1F
100
AcDbEntity
  8
0
100
AcDbBlockEnd
  0
BLOCK
  5
4E47
330
4E45
100
AcDbEntity
 67
     1
  8
0
 48
3.0
100
AcDbBlockBegin
  2
*Paper_Space
 70
     0
 10
0.0
 20
0.0
 30
0.0
  3
*Paper_Space
  1

  0
ENDBLK
  5
4E48
330
4E45
100
AcDbEntity
 67
     1
  8
0
 48
3.0
100
AcDbBlockEnd
  0
BLOCK
  5
3752
330
374F
100
AcDbEntity
  8
0
100
AcDbBlockBegin
  2
_Dot
 70
     0
 10
0.0
 20
0.0
 30
0.0
  3
_Dot
  1

  0
LWPOLYLINE
  5
3750
330
374F
100
AcDbEntity
  8
0
  6
ByBlock
 62
     0
100
AcDbPolyline
 90
        2
 70
     1
 43
0.5
 10
-0.25
 20
0.0
 42
1.0
 10
0.25
 20
0.0
 42
1.0
  0
LINE
  5
3751
330
374F
100
AcDbEntity
  8
0
  6
ByBlock
 62
     0
370
    -2
100
AcDbLine
 10
-0.5
 20
0.0
 30
0.0
 11
-1.0
 21
0.0
 31
0.0
  0
ENDBLK
  5
3753
330
374F
100
AcDbEntity
  8
0
100
AcDbBlockEnd
  0
BLOCK
  5
3D9F
330
3D9E
100
AcDbEntity
  8
0
 48
3.0
100
AcDbBlockBegin
  2
9010312r
 70
     0
 10
399.4634067278245
 20
339.4121540145172
 30
0.0
  3
9010312r
  1
9010312r.dwg
  0
LWPOLYLINE
  5
747D
330
3D9E
100
AcDbEntity
  8
APL Joinery
  6
Continuous
 62
   252
100
AcDbPolyline
 90
       28
 70
   128
 43
0.0
 10
395.7634067278242
 20
336.2999919725366
 10
395.7634067278242
 20
343.1621540145172
 42
-0.7673269879789622
 10
396.2299130787703
 20
343.2871540145172
 10
396.7850145808851
 20
342.3256900094965
 10
399.2931562636775
 20
341.6536354710895
 42
-0.3626955242591878
 10
399.4775957926651
 20
341.3914870691883
 10
399.3134067278246
 20
339.4121540145172
 10
397.7634067278242
 20
339.4121540145172
 10
397.7634067278242
 20
336.5121540145171
 10
399.0135696498364
 20
336.5121540145171
 10
399.2752560951169
 20
337.3376963843301
 42
-0.6640183420487276
 10
399.7341578851304
 20
337.3798010733406
 42
-0.250000000000001
 10
399.7341578851305
 20
333.1445069556935
 42
-0.6640183420487097
 10
399.2752560951171
 20
333.1866116447042
 10
399.0135696498364
 20
334.0121540145171
 10
397.4635696498362
 20
334.0121540145171
 10
397.1898787608678
 20
334.2858449034854
 42
0.6681785464135807
 10
396.7631020655712
 20
334.1090682714504
 10
396.7631016544432
 20
332.4843569389277
 10
396.2607415896308
 20
329.0715154000631
 42
-0.9294717386060577
 10
395.7634067278242
 20
329.1079223518048
 10
395.7634067278242
 20
334.5749919747145
 42
-0.3563939586926081
 10
396.5634067278242
 20
335.5547878718279
 42
0.3563939586925715
 10
396.7634067278242
 20
335.7997368461061
 10
396.7634067278242
 20
339.3871540145172
 42
0.9999999999999998
 10
396.7134067278242
 20
339.3871540145172
 10
396.7134067278242
 20
336.2999919725366
 42
-0.9999999999999998
 10
395.76340673218
 20
336.2999919725366
  0
ENDBLK
  5
3DA0
330
3D9E
100
AcDbEntity
  8
0
 48
3.0
100
AcDbBlockEnd
  0
BLOCK
  5
3E9F
330
3E9A
100
AcDbEntity
  8
0
 48
3.0
100
AcDbBlockBegin
  2
a4 specifiers manual
 70
     0
 10
0.0
 20
0.0
 30
0.0
  3
a4 specifiers manual
  1

  0
LINE
  5
3E9B
330
3E9A
100
AcDbEntity
  8
0
100
AcDbLine
 10
-0.0000008078504834
 20
0.0000001108869583
 30
0.0
 11
353.9999991921495
 21
0.0000001108869583
 31
0.0
  0
LINE
  5
3E9C
330
3E9A
100
AcDbEntity
  8
0
100
AcDbLine
 10
353.9999991921495
 20
482.0000001108869
 30
0.0
 11
-0.0000008078504834
 21
482.0000001108869
 31
0.0
  0
LINE
  5
3E9D
330
3E9A
100
AcDbEntity
  8
0
100
AcDbLine
 10
-0.0000008078504834
 20
482.0000001108869
 30
0.0
 11
-0.0000008078504834
 21
0.0000001108869583
 31
0.0
  0
LINE
  5
3E9E
330
3E9A
100
AcDbEntity
  8
0
100
AcDbLine
 10
353.9999991921495
 20
0.0000001108869583
 30
0.0
 11
353.9999991921495
 21
482.0000001108869
 31
0.0
  0
ENDBLK
  5
3EA0
330
3E9A
100
AcDbEntity
  8
0
 48
3.0
100
AcDbBlockEnd
  0
BLOCK
  5
3F2F
330
3F2E
100
AcDbEntity
  8
0
 48
3.0
100
AcDbBlockBegin
  2
6Glass
 70
     0
 10
101.8368839708302
 20
399.4111348733001
 30
0.0
  3
6Glass
  1
6Glass.dwg
  0
LINE
  5
499B
330
3F2E
100
AcDbEntity
  8
APL Joinery
 62
     7
100
AcDbLine
 10
95.33688397083029
 20
412.4111348732999
 30
0.0
 11
95.33688397083029
 21
392.4111348733
 31
0.0
  0
LINE
  5
499C
330
3F2E
100
AcDbEntity
  8
APL Joinery
 62
     7
100
AcDbLine
 10
89.33688397083029
 20
412.4111348732999
 30
0.0
 11
95.33688397083029
 21
412.4111348732999
 31
0.0
  0
LINE
  5
499D
330
3F2E
100
AcDbEntity
  8
APL Joinery
 62
     8
100
AcDbLine
 10
93.33688397083028
 20
412.4111348732999
 30
0.0
 11
93.33688397083028
 21
392.4111348733
 31
0.0
  0
LINE
  5
499E
330
3F2E
100
AcDbEntity
  8
APL Joinery
 62
     7
100
AcDbLine
 10
89.33688397083029
 20
412.4111348732999
 30
0.0
 11
89.33688397083029
 21
392.4111348733
 31
0.0
  0
LINE
  5
499F
330
3F2E
100
AcDbEntity
  8
APL Joinery
 62
     8
100
AcDbLine
 10
91.33688397083028
 20
412.4111348732999
 30
0.0
 11
91.33688397083028
 21
392.4111348733
 31
0.0
  0
ENDBLK
  5
3F30
330
3F2E
100
AcDbEntity
  8
0
 48
3.0
100
AcDbBlockEnd
  0
BLOCK
  5
4E55
330
4E54
100
AcDbEntity
  8
0
 48
3.0
100
AcDbBlockBegin
  2
vantage a4 SM border
 70
     0
 10
0.0
 20
0.0
 30
0.0
  3
vantage a4 SM border
  1
I:\DWG Borders\vantage a4 SM border.dwg
  0
TEXT
  5
7814
330
4E54
100
AcDbEntity
  8
APL Border
100
AcDbText
 10
11.59500000000003
 20
3.979818213543524
 30
0.0
 40
1.5
  1
VANTAGE SPECIFIER'S GUIDE 2011:1     ARCHITECTURAL PROFILES LTD. NB. TECHNICAL SPECIFICATIONS SUBJECT TO CHANGE WITHOUT NOTICE.
 41
1.175568529931163
  7
Arial-Regular
 72
     5
 11
189.595
 21
3.979818213543524
 31
0.0
100
AcDbText
  0
LINE
  5
7815
330
4E54
100
AcDbEntity
  8
APL Border
100
AcDbLine
 10
11.59500000000003
 20
6.189999999999997
 30
0.0
 11
189.595
 21
6.189999999999997
 31
0.0
  0
MTEXT
  5
7816
330
4E54
100
AcDbEntity
  8
APL Border
100
AcDbMText
 10
57.55102029361978
 20
3.879818213543526
 30
0.0
 40
1.5
 41
0.0
 71
     8
 72
     5
  1
{\fCommercialPi BT|b0|i0|c2|p18;a}
  7
Arial-Regular
 73
     1
 44
1.0
1001
ACAD
1000
MTEXTBEGIN
1070
    73
1070
     1
1070
    44
1040
1.0
1070
    74
1070
     0
1000
MTEXTEND
  0
LINE
  5
7817
330
4E54
100
AcDbEntity
  8
APL Border
100
AcDbLine
 10
189.595
 20
268.19
 30
0.0
 11
142.595
 21
268.19
 31
0.0
  0
LINE
  5
7818
330
4E54
100
AcDbEntity
  8
APL Border
100
AcDbLine
 10
189.595
 20
282.19
 30
0.0
 11
189.595
 21
254.19
 31
0.0
  0
LINE
  5
7819
330
4E54
100
AcDbEntity
  8
APL Border
100
AcDbLine
 10
166.095
 20
268.19
 30
0.0
 11
166.095
 21
254.19
 31
0.0
  0
LINE
  5
781A
330
4E54
100
AcDbEntity
  8
APL Border
100
AcDbLine
 10
189.595
 20
254.19
 30
0.0
 11
24.99473224900737
 21
254.19
 31
0.0
  0
LINE
  5
781B
330
4E54
100
AcDbEntity
  8
APL Border
100
AcDbLine
 10
189.595
 20
282.19
 30
0.0
 11
24.99473224900737
 21
282.19
 31
0.0
  0
LINE
  5
781C
330
4E54
100
AcDbEntity
  8
APL Border
100
AcDbLine
 10
142.595
 20
282.19
 30
0.0
 11
142.595
 21
254.19
 31
0.0
  0
TEXT
  5
781D
330
4E54
100
AcDbEntity
  8
APL Border
100
AcDbText
 10
147.845
 20
273.69
 30
0.0
 40
2.5
  1
CAD REF.
  7
Arial-Regular
100
AcDbText
  0
TEXT
  5
781E
330
4E54
100
AcDbEntity
  8
APL Border
100
AcDbText
 10
149.6877694406548
 20
262.19
 30
0.0
 40
2.5
  1
DATE
  7
Arial-Regular
 72
     1
 11
154.345
 21
262.19
 31
0.0
100
AcDbText
  0
TEXT
  5
781F
330
4E54
100
AcDbEntity
  8
APL Border
100
AcDbText
 10
172.1185334242838
 20
262.19
 30
0.0
 40
2.5
  1
SCALE
  7
Arial-Regular
 72
     1
 11
177.845
 21
262.19
 31
0.0
100
AcDbText
  0
INSERT
  5
7820
102
{ACAD_XDICTIONARY
360
7821
102
}
330
4E54
100
AcDbEntity
  8
APL Border
100
AcDbBlockReference
  2
vantage black & white logo
 10
24.99473224900737
 20
256.19
 30
0.0
 41
0.5
 42
0.5
 43
0.5
  0
LINE
  5
7865
330
4E54
100
AcDbEntity
  8
APL Border
100
AcDbLine
 10
24.99473224900737
 20
256.19
 30
0.0
 11
24.99473224900737
 21
254.19
 31
0.0
  0
LINE
  5
7866
330
4E54
100
AcDbEntity
  8
APL Border
100
AcDbLine
 10
24.99473224900716
 20
279.6304177948761
 30
0.0
 11
24.99473224900737
 21
282.19
 31
0.0
  0
ENDBLK
  5
4E56
330
4E54
100
AcDbEntity
  8
0
 48
3.0
100
AcDbBlockEnd
  0
BLOCK
  5
5B49
330
5B48
100
AcDbEntity
  8
0
 62
     7
 48
3.0
100
AcDbBlockBegin
  2
04440
 70
     0
 10
0.0
 20
0.0
 30
0.0
  3
04440
  1
I:\DWG Master Blocks\04440.dwg
  0
LWPOLYLINE
  5
7867
102
{ACAD_REACTORS
330
7869
102
}
330
5B48
100
AcDbEntity
  8
APL Joinery
100
AcDbPolyline
 90
       46
 70
     1
 43
0.0
 10
-21.99999999999798
 20
52.44998053929649
 10
-21.99999999999798
 20
22.50063480182646
 10
-21.59999999999798
 20
22.10063480182645
 10
-21.99999999999797
 20
21.70063480182644
 10
-21.99999999999797
 20
15.80063480182643
 42
0.4142135623730943
 10
-16.99999999999797
 20
10.80063480182644
 10
-1.899999999999995
 20
10.80063480182643
 10
-1.899999999999998
 20
1.499999999999872
 42
-0.1972991791518571
 10
-2.37605206168662
 20
0.3405405405405118
 42
0.6659356650514701
 10
-2.233755341890958
 20
0.0
 10
2.233755341890957
 20
0.0
 42
0.66593566505147
 10
2.376052061686624
 20
0.3405405405405164
 42
-0.1972991791518573
 10
1.899999999999994
 20
1.499999999999872
 10
1.899999999999994
 20
10.80063480182643
 10
16.99999999999797
 20
10.80063480182644
 42
0.4142135623730943
 10
21.99999999999797
 20
15.80063480182643
 10
21.999999999998
 20
67.04998053929664
 42
-0.4142135623730951
 10
22.499999999998
 20
67.54998053929664
 10
41.85034212252129
 20
67.54998053929664
 42
-0.4142135623730951
 10
42.8503421225213
 20
66.54998053929664
 10
42.85034212252128
 20
63.13995897869817
 42
-0.2732608139402943
 10
42.59172143286616
 20
62.70208225113951
 42
0.2732608139403102
 10
41.35034212252118
 20
60.60027395885803
 10
41.35034212252118
 20
58.30043739766056
 42
0.9999999999999998
 10
42.95034212252132
 20
58.30043739766056
 10
42.95034212252121
 20
60.60027395885803
 42
-0.5773502691896418
 10
44.15034212252135
 20
61.29309428188564
 42
0.5773502691897854
 10
44.45034212252132
 20
61.46629936264251
 10
44.45034212252132
 20
68.64998053929666
 42
0.4142135623730951
 10
43.95034212252132
 20
69.14998053929666
 10
-43.95034212252132
 20
69.14998053929666
 42
0.4142135623730951
 10
-44.45034212252132
 20
68.64998053929666
 10
-44.45034212252132
 20
61.46629936264251
 42
0.5773502691897928
 10
-44.15034212252137
 20
61.29309428188564
 42
-0.5773502691896424
 10
-42.95034212252121
 20
60.60027395885803
 10
-42.95034212252132
 20
58.30043739766056
 42
0.9999999999999998
 10
-41.35034212252118
 20
58.30043739766056
 10
-41.35034212252119
 20
60.60027395885803
 42
0.273260813940311
 10
-42.59172143286618
 20
62.70208225113951
 42
-0.2732608139402948
 10
-42.85034212252128
 20
63.13995897869817
 10
-42.8503421225213
 20
66.54998053929664
 42
-0.4142135623730951
 10
-41.85034212252129
 20
67.54998053929664
 10
-22.49999999999799
 20
67.54998053929664
 42
-0.4142135623730951
 10
-21.99999999999799
 20
67.04998053929664
 10
-21.99999999999798
 20
53.24998053929663
 10
-21.59999999999798
 20
52.84998053929663
  0
LWPOLYLINE
  5
7868
102
{ACAD_REACTORS
330
7869
102
}
330
5B48
100
AcDbEntity
  8
APL Joinery
100
AcDbPolyline
 90
       36
 70
     1
 43
0.0
 10
-16.99999999999796
 20
12.20063480182641
 10
16.99999999999797
 20
12.20063480182645
 42
0.4142135623730943
 10
20.59999999999797
 20
15.80063480182643
 10
20.59999999999799
 20
66.54998053929663
 42
0.4142135623730951
 10
19.59999999999799
 20
67.54998053929663
 10
-19.59999999999797
 20
67.54998053929663
 42
0.4142135623730951
 10
-20.59999999999797
 20
66.54998053929663
 10
-20.59999999999797
 20
56.24151411571887
 42
0.5500740473341267
 10
-19.88666666666465
 20
55.78930963886255
 42
-0.3170041831237258
 10
-16.19793044817016
 20
55.14409818635535
 42
-0.9999999999999985
 10
-17.18959117818851
 20
54.15586289223769
 42
0.4152273992686959
 10
-19.81040882180788
 20
54.15586289223769
 42
-0.1246393542037071
 10
-20.10531562779057
 20
53.97943619070487
 42
0.2186325185149549
 10
-20.41861092488854
 20
53.70375575496554
 42
0.2124553064793722
 10
-20.41861092488854
 20
51.99620532362771
 42
0.2186325185148437
 10
-20.10531562779057
 20
51.72052488788814
 42
-0.1246393542037095
 10
-19.81040882180787
 20
51.54409818635543
 42
0.415227399268696
 10
-17.1895911781885
 20
51.54409818635544
 42
-0.9999999999999996
 10
-16.19793044817015
 20
50.55586289223755
 42
-0.317004183123716
 10
-19.88666666666466
 20
49.91065143973035
 42
0.5500740473341207
 10
-20.59999999999797
 20
49.45844696287402
 10
-20.59999999999797
 20
25.49216837824869
 42
0.5500740473341245
 10
-19.88666666666465
 20
25.03996390139238
 42
-0.317004183123725
 10
-16.19793044817016
 20
24.39475244888518
 42
-0.9999999999999971
 10
-17.18959117818851
 20
23.40651715476752
 42
0.4152273992686959
 10
-19.81040882180787
 20
23.40651715476751
 42
-0.1246393542037078
 10
-20.10531562779057
 20
23.2300904532347
 42
0.2186325185149554
 10
-20.41861092488854
 20
22.95441001749536
 42
0.2124553064793706
 10
-20.41861092488854
 20
21.24685958615753
 42
0.2186325185148431
 10
-20.10531562779057
 20
20.97117915041797
 42
-0.1246393542037101
 10
-19.81040882180787
 20
20.79475244888527
 42
0.415227399268696
 10
-17.1895911781885
 20
20.79475244888526
 42
-0.9999999999999996
 10
-16.19793044817016
 20
19.80651715476738
 42
-0.3170041831237152
 10
-19.88666666666466
 20
19.16130570226018
 42
0.5500740473341215
 10
-20.59999999999797
 20
18.70910122540386
 10
-20.59999999999797
 20
15.80063480182644
 42
0.4142135623730946
  0
HATCH
  5
7869
330
5B48
100
AcDbEntity
  8
APL Hatch
100
AcDbHatch
 10
0.0
 20
0.0
 30
0.0
210
0.0
220
0.0
230
1.0
  2
SOLID
 70
     1
 71
     1
 91
        2
 92
       16
 93
       36
 72
     1
 10
-16.99999999999796
 20
12.20063480182641
 11
16.99999999999796
 21
12.20063480182645
 72
     2
 10
16.99999999999797
 20
15.80063480182644
 40
3.599999999999999
 50
269.9999999999999
 51
359.9999999999998
 73
     1
 72
     1
 10
20.59999999999797
 20
15.80063480182643
 11
20.59999999999799
 21
66.54998053929663
 72
     2
 10
19.59999999999799
 20
66.54998053929663
 40
1.0
 50
0.0
 51
90.0
 73
     1
 72
     1
 10
19.59999999999799
 20
67.54998053929663
 11
-19.59999999999797
 21
67.54998053929663
 72
     2
 10
-19.59999999999797
 20
66.54998053929663
 40
1.0
 50
90.0
 51
180.0
 73
     1
 72
     1
 10
-20.59999999999797
 20
66.54998053929663
 11
-20.59999999999797
 21
56.24151411571887
 72
     2
 10
-20.09999999999797
 20
56.24151411571887
 40
0.5
 50
180.0
 51
295.256203661561
 73
     1
 72
     2
 10
-18.49999999999807
 20
52.84998053929649
 40
3.250000000000003
 50
244.7437963384388
 51
315.0991278440266
 73
     0
 72
     2
 10
-16.69376081317933
 20
54.64998053929652
 40
0.7000000000000594
 50
315.0991278440315
 51
495.0991278440315
 73
     0
 72
     2
 10
-18.49999999999819
 20
52.84998053929657
 40
1.84999999999992
 50
44.90087215597294
 51
135.099127844027
 73
     1
 72
     2
 10
-20.30623918681709
 20
54.64998053929663
 40
0.7000000000001672
 50
44.90087215597282
 51
73.31955161329613
 73
     0
 72
     2
 10
-19.96179879991474
 20
53.50047594171089
 40
0.4999999999999205
 50
106.6804483866796
 51
156.0111016531048
 73
     1
 72
     2
 10
-18.49999999999812
 20
52.84998053929662
 40
2.099999999999852
 50
156.0111016531256
 51
203.9888983468743
 73
     1
 72
     2
 10
-19.96179879991433
 20
52.19948513688244
 40
0.5000000000003315
 50
203.9888983468841
 51
253.3195516132848
 73
     1
 72
     2
 10
-20.30623918681687
 20
51.04998053929643
 40
0.7000000000000625
 50
286.6804483866874
 51
315.0991278440112
 73
     0
 72
     2
 10
-18.49999999999819
 20
52.84998053929657
 40
1.849999999999922
 50
224.9008721559732
 51
315.0991278440271
 73
     1
 72
     2
 10
-16.69376081317933
 20
51.0499805392965
 40
0.7000000000001396
 50
224.9008721559751
 51
404.900872155975
 73
     0
 72
     2
 10
-18.49999999999809
 20
52.84998053929651
 40
3.250000000000096
 50
44.90087215597444
 51
115.2562036615603
 73
     0
 72
     2
 10
-20.09999999999797
 20
49.45844696287402
 40
0.5000000000000022
 50
64.74379633844013
 51
180.0
 73
     1
 72
     1
 10
-20.59999999999797
 20
49.45844696287402
 11
-20.59999999999797
 21
25.49216837824869
 72
     2
 10
-20.09999999999797
 20
25.49216837824869
 40
0.5
 50
180.0000000000004
 51
295.256203661561
 73
     1
 72
     2
 10
-18.49999999999807
 20
22.10063480182632
 40
3.250000000000004
 50
244.7437963384387
 51
315.0991278440264
 73
     0
 72
     2
 10
-16.69376081317933
 20
23.90063480182635
 40
0.7000000000000594
 50
315.0991278440315
 51
495.0991278440313
 73
     0
 72
     2
 10
-18.49999999999819
 20
22.10063480182639
 40
1.84999999999992
 50
44.9008721559731
 51
135.099127844027
 73
     1
 72
     2
 10
-20.30623918681709
 20
23.90063480182647
 40
0.7000000000001747
 50
44.90087215597343
 51
73.31955161329689
 73
     0
 72
     2
 10
-19.96179879991474
 20
22.75113020424071
 40
0.4999999999999205
 50
106.6804483866796
 51
156.0111016531046
 73
     1
 72
     2
 10
-18.4999999999981
 20
22.10063480182645
 40
2.099999999999865
 50
156.0111016531258
 51
203.9888983468741
 73
     1
 72
     2
 10
-19.96179879991433
 20
21.45013939941227
 40
0.5000000000003297
 50
203.9888983468847
 51
253.3195516132852
 73
     1
 72
     2
 10
-20.30623918681687
 20
20.30063480182626
 40
0.7000000000000536
 50
286.680448386687
 51
315.0991278440109
 73
     0
 72
     2
 10
-18.49999999999819
 20
22.1006348018264
 40
1.849999999999922
 50
224.900872155973
 51
315.0991278440269
 73
     1
 72
     2
 10
-16.69376081317933
 20
20.30063480182632
 40
0.7000000000001371
 50
224.9008721559753
 51
404.900872155975
 73
     0
 72
     2
 10
-18.49999999999809
 20
22.10063480182634
 40
3.250000000000093
 50
44.90087215597454
 51
115.2562036615603
 73
     0
 72
     2
 10
-20.09999999999797
 20
18.70910122540386
 40
0.499999999999999
 50
64.74379633843994
 51
180.0
 73
     1
 72
     1
 10
-20.59999999999797
 20
18.70910122540386
 11
-20.59999999999797
 21
15.80063480182644
 72
     2
 10
-16.99999999999796
 20
15.80063480182643
 40
3.600000000000015
 50
179.9999999999999
 51
269.9999999999998
 73
     1
 97
        1
330
7868
 92
        1
 93
       46
 72
     1
 10
-21.99999999999798
 20
52.44998053929649
 11
-21.99999999999798
 21
22.50063480182646
 72
     1
 10
-21.99999999999798
 20
22.50063480182646
 11
-21.59999999999798
 21
22.10063480182645
 72
     1
 10
-21.59999999999798
 20
22.10063480182645
 11
-21.99999999999797
 21
21.70063480182644
 72
     1
 10
-21.99999999999797
 20
21.70063480182644
 11
-21.99999999999797
 21
15.80063480182643
 72
     2
 10
-16.99999999999797
 20
15.80063480182644
 40
5.0
 50
180.0000000000001
 51
270.0
 73
     1
 72
     1
 10
-16.99999999999797
 20
10.80063480182644
 11
-1.899999999999995
 21
10.80063480182643
 72
     1
 10
-1.899999999999995
 20
10.80063480182643
 11
-1.899999999999998
 21
1.499999999999872
 72
     2
 10
-3.550000000000004
 20
1.499999999999864
 40
1.650000000000005
 50
359.9999999999997
 51
404.6442464257197
 73
     0
 72
     2
 10
-2.233755341890901
 20
0.2000000000000596
 40
0.2000000000000596
 50
135.3557535743272
 51
269.9999999999838
 73
     1
 72
     1
 10
-2.233755341890958
 20
0.0
 11
2.233755341890957
 21
0.0
 72
     2
 10
2.233755341890902
 20
0.2000000000000629
 40
0.2000000000000629
 50
270.0000000000159
 51
404.6442464256723
 73
     1
 72
     2
 10
3.549999999999997
 20
1.499999999999876
 40
1.650000000000003
 50
135.3557535742798
 51
179.9999999999998
 73
     0
 72
     1
 10
1.899999999999994
 20
1.499999999999872
 11
1.899999999999994
 21
10.80063480182643
 72
     1
 10
1.899999999999994
 20
10.80063480182643
 11
16.99999999999797
 21
10.80063480182644
 72
     2
 10
16.99999999999797
 20
15.80063480182644
 40
5.0
 50
270.0
 51
359.9999999999998
 73
     1
 72
     1
 10
21.99999999999797
 20
15.80063480182643
 11
21.999999999998
 21
67.04998053929664
 72
     2
 10
22.499999999998
 20
67.04998053929664
 40
0.5
 50
180.0
 51
270.0
 73
     0
 72
     1
 10
22.499999999998
 20
67.54998053929664
 11
41.85034212252129
 21
67.54998053929664
 72
     2
 10
41.85034212252129
 20
66.54998053929664
 40
1.0
 50
270.0
 51
360.0
 73
     0
 72
     1
 10
42.8503421225213
 20
66.54998053929664
 11
42.85034212252128
 21
63.13995897869817
 72
     2
 10
42.35034212252126
 20
63.13995897869813
 40
0.5000000000000214
 50
359.9999999999951
 51
421.1342725849844
 73
     0
 72
     2
 10
43.7503421225213
 20
60.60027395885793
 40
2.400000000000124
 50
118.8657274150046
 51
179.9999999999972
 73
     1
 72
     1
 10
41.35034212252118
 20
60.60027395885803
 11
41.35034212252118
 21
58.30043739766056
 72
     2
 10
42.15034212252125
 20
58.30043739766056
 40
0.8000000000000682
 50
180.0
 51
360.0
 73
     1
 72
     1
 10
42.95034212252132
 20
58.30043739766056
 11
42.95034212252121
 21
60.60027395885803
 72
     2
 10
43.75034212252129
 20
60.60027395885804
 40
0.8000000000000682
 50
179.9999999999995
 51
300.0000000000022
 73
     0
 72
     2
 10
44.25034212252136
 20
61.46629936264247
 40
0.1999999999999516
 50
239.9999999999868
 51
360.0000000000143
 73
     1
 72
     1
 10
44.45034212252132
 20
61.46629936264251
 11
44.45034212252132
 21
68.64998053929666
 72
     2
 10
43.95034212252132
 20
68.64998053929666
 40
0.5
 50
0.0
 51
90.0
 73
     1
 72
     1
 10
43.95034212252132
 20
69.14998053929666
 11
-43.95034212252132
 21
69.14998053929666
 72
     2
 10
-43.95034212252132
 20
68.64998053929666
 40
0.5
 50
90.0
 51
180.0
 73
     1
 72
     1
 10
-44.45034212252132
 20
68.64998053929666
 11
-44.45034212252132
 21
61.46629936264251
 72
     2
 10
-44.25034212252137
 20
61.46629936264246
 40
0.199999999999946
 50
179.9999999999837
 51
300.0000000000124
 73
     1
 72
     2
 10
-43.75034212252129
 20
60.60027395885803
 40
0.8000000000000843
 50
239.9999999999971
 51
360.0
 73
     0
 72
     1
 10
-42.95034212252121
 20
60.60027395885803
 11
-42.95034212252132
 21
58.30043739766056
 72
     2
 10
-42.15034212252125
 20
58.30043739766056
 40
0.8000000000000682
 50
180.0
 51
360.0
 73
     1
 72
     1
 10
-41.35034212252118
 20
58.30043739766056
 11
-41.35034212252119
 21
60.60027395885803
 72
     2
 10
-43.75034212252131
 20
60.60027395885793
 40
2.400000000000119
 50
0.0000000000025444
 51
61.13427258499534
 73
     1
 72
     2
 10
-42.35034212252126
 20
63.13995897869812
 40
0.5000000000000157
 50
118.8657274150171
 51
180.0000000000065
 73
     0
 72
     1
 10
-42.85034212252128
 20
63.13995897869817
 11
-42.8503421225213
 21
66.54998053929664
 72
     2
 10
-41.85034212252129
 20
66.54998053929664
 40
1.0
 50
180.0
 51
270.0
 73
     0
 72
     1
 10
-41.85034212252129
 20
67.54998053929664
 11
-22.49999999999799
 21
67.54998053929664
 72
     2
 10
-22.49999999999799
 20
67.04998053929664
 40
0.5
 50
270.0
 51
360.0
 73
     0
 72
     1
 10
-21.99999999999799
 20
67.04998053929664
 11
-21.99999999999798
 21
53.24998053929663
 72
     1
 10
-21.99999999999798
 20
53.24998053929663
 11
-21.59999999999798
 21
52.84998053929663
 72
     1
 10
-21.59999999999798
 20
52.84998053929663
 11
-21.99999999999798
 21
52.44998053929649
 97
        1
330
7867
 75
     0
 76
     1
 98
        1
 10
0.0
 20
0.0
  0
ENDBLK
  5
5B4A
330
5B48
100
AcDbEntity
  8
0
 62
     7
 48
3.0
100
AcDbBlockEnd
  0
BLOCK
  5
5E9B
330
5E99
100
AcDbEntity
  8
0
 62
     7
 48
3.0
100
AcDbBlockBegin
  2
9010250L
 70
     0
 10
0.0
 20
0.0
 30
0.0
  3
9010250L
  1

  0
LWPOLYLINE
  5
5E9A
330
5E99
100
AcDbEntity
  8
APL Joinery
  6
Continuous
 62
   252
100
AcDbPolyline
 90
       35
 70
   129
 43
0.0
 10
6.44703759769132
 20
-5.223814239082557
 42
0.4340964952257526
 10
6.082059843849577
 20
-5.209309034231907
 42
-0.1536145893906839
 10
4.392218231910362
 20
-6.077348325469159
 42
-0.4648333009751577
 10
4.099999995644225
 20
-5.830938868413284
 10
4.099999995644225
 20
-4.651571529013864
 42
-0.2915390373815183
 10
4.388800495363284
 20
-4.198366530055267
 42
0.122912838877769
 10
6.56272970067701
 20
-2.437914397185934
 42
0.3152263475814818
 10
6.589934938151799
 20
-1.655903577981959
 10
6.531087620156512
 20
-1.56528665478649
 42
0.3630140704661038
 10
6.163200698857011
 20
-1.45213248458775
 42
-0.1219902707494916
 10
4.419208430897242
 20
-2.458282191302046
 42
-0.4989702342470917
 10
4.099999995644225
 20
-2.218052733304404
 10
4.099999995644338
 20
-1.17280761364293
 42
-0.3136800272017972
 10
4.426224443366351
 20
-0.7039770926329397
 42
0.1785411124350255
 10
6.636586807422759
 20
1.189434005323064
 42
0.1279718777770435
 10
6.699999995644247
 20
1.433138653988336
 10
6.699999995644247
 20
2.726869383082615
 42
0.4607623830565047
 10
6.411090109705128
 20
2.973822862054262
 10
0.2110901140605677
 20
1.99695347897159
 42
0.3941429072290372
 10
0.0009513254767768
 20
1.728211064312986
 10
0.1521502017843375
 20
-0.000000000000199
 10
1.699999995644247
 20
-0.000000000000199
 10
1.699999995644247
 20
-2.900000000000289
 10
1.199999995644247
 20
-2.900000000000289
 42
0.5486826681767417
 10
0.9734438043265214
 20
-3.255699064213771
 10
2.199999995644247
 20
-5.884709086297931
 10
2.199999995644247
 20
-6.364392571535034
 10
1.936602536022974
 20
-6.364392571535034
 42
0.5773502691896264
 10
1.731698725455132
 20
-6.71929638210301
 10
2.825833020563948
 20
-8.614392571535034
 42
0.2487009021145858
 10
3.222789489242927
 20
-8.863090825037559
 42
0.3109226116934106
 10
4.122894280104048
 20
-8.173236848605242
 42
-0.2088596723963019
 10
4.388553045802765
 20
-7.873849532333892
 42
0.1426663047989766
 10
6.629698845771201
 20
-5.921497873062122
 42
0.3321417186747404
 10
6.592250122233565
 20
-5.392085433604805
  0
ENDBLK
  5
5E9C
330
5E99
100
AcDbEntity
  8
0
 62
     7
 48
3.0
100
AcDbBlockEnd
  0
BLOCK
  5
6D96
330
6D95
100
AcDbEntity
  8
0
 62
     2
 48
3.0
100
AcDbBlockBegin
  2
04443
 70
     0
 10
0.0
 20
0.0
 30
0.0
  3
04443
  1
I:\DWG Master Blocks\04443.dwg
  0
LWPOLYLINE
  5
786D
102
{ACAD_REACTORS
330
786F
102
}
330
6D95
100
AcDbEntity
  8
APL Joinery
100
AcDbPolyline
 90
       62
 70
     1
 43
0.0
 10
1.074233258039839
 20
73.56053405027002
 10
18.95161829213014
 20
80.96558939115601
 42
-0.4142135623730937
 10
20.25818125700652
 20
80.42439329100979
 10
21.56314001225529
 20
77.27394416575068
 42
-0.2732608139402941
 10
21.49177381945392
 20
76.77042896619837
 42
0.2732608139403113
 10
21.1492160940069
 20
74.35355600834717
 10
22.02932544312466
 20
72.22878408133569
 42
0.9999999999999916
 10
23.50753269514285
 20
72.84107757311986
 10
22.62742334602497
 20
74.96584950013131
 42
-0.5773502691896458
 10
23.47094792581017
 20
76.06515213512256
 42
0.5773502691897905
 10
23.68182907075639
 20
76.3399777938703
 10
20.9327533010579
 20
82.97683380106768
 42
0.4142135623730951
 10
20.27947181861971
 20
83.24743185114078
 10
1.913417161825471
 20
75.63996292501108
 42
-0.1989123673796584
 10
-1.913417161825424
 20
75.63996292501108
 10
-20.27947181861962
 20
83.24743185114078
 42
0.4142135623730951
 10
-20.93275330105781
 20
82.9768338010677
 10
-23.6818290707563
 20
76.33997779387032
 42
0.577350269189788
 10
-23.47094792581008
 20
76.06515213512257
 42
-0.5773502691896433
 10
-22.62742334602488
 20
74.96584950013134
 10
-23.50753269514276
 20
72.84107757311989
 42
1.000000000000001
 10
-22.02932544312458
 20
72.22878408133571
 10
-21.14921609400681
 20
74.35355600834721
 42
0.273260813940311
 10
-21.49177381945384
 20
76.77042896619838
 42
-0.2732608139402938
 10
-21.56314001225519
 20
77.27394416575069
 10
-20.25818125700643
 20
80.42439329100981
 42
-0.4142135623730927
 10
-18.95161829213005
 20
80.96558939115601
 10
-1.074233258039754
 20
73.56053405026999
 42
-0.414213562373094
 10
-0.8036352079666571
 20
72.90725256783182
 10
-20.41591074124696
 20
25.55903098638855
 42
0.4142135623730943
 10
-17.70993024051596
 20
19.02621616200667
 10
-2.117316567634963
 20
12.56754410585517
 42
-0.303346683607342
 10
-1.499999999999996
 20
11.64366457334387
 10
-1.499999999999996
 20
5.365102707102316
 42
-0.5345111359507924
 10
-2.882683432365088
 20
4.44122317459103
 10
-4.896763935164362
 20
5.275482634561715
 42
-0.4142135623730951
 10
-5.167361985237461
 20
5.928764116999902
 10
-4.861215239345388
 20
6.66786774300893
 42
0.4142135623730951
 10
-4.969454459374627
 20
6.929180335984206
 10
-5.985721945137042
 20
7.350132111585804
 42
0.4142135623730946
 10
-6.247034538112317
 20
7.241892891556567
 10
-7.31854814873462
 20
4.655030200524848
 42
-0.1972991791518571
 10
-8.20206883057077
 20
3.766006574104458
 42
0.6659356650514708
 10
-8.200923026521572
 20
3.39693354156305
 10
-0.5740251485476339
 20
0.2377690016716609
 42
0.198912367379658
 10
0.5740251485476371
 20
0.2377690016716616
 10
8.200923026521579
 20
3.39693354156304
 42
0.6659356650514712
 10
8.20206883057078
 20
3.766006574104449
 42
-0.1972991791518575
 10
7.318548148734628
 20
4.655030200524837
 10
6.247034538112327
 20
7.241892891556558
 42
0.4142135623730951
 10
5.985721945137051
 20
7.3501321115858
 10
4.969454459374636
 20
6.929180335984201
 42
0.4142135623730951
 10
4.861215239345398
 20
6.667867743008926
 10
5.167361985237468
 20
5.928764116999898
 42
-0.4142135623730951
 10
4.896763935164369
 20
5.275482634561708
 10
2.882683432365096
 20
4.441223174591025
 42
-0.534511135950793
 10
1.500000000000007
 20
5.365102707102314
 10
1.500000000000069
 20
11.64366457334388
 42
-0.3033466836073421
 10
2.117316567634979
 20
12.56754410585517
 10
17.70993024051599
 20
19.02621616200666
 42
0.414213562373094
 10
20.41591074124698
 20
25.55903098638853
 10
0.8036352079667354
 20
72.90725256783183
 42
-0.4142135623730974
  0
LWPOLYLINE
  5
786E
102
{ACAD_REACTORS
330
786F
102
}
330
6D95
100
AcDbEntity
  8
APL Joinery
100
AcDbPolyline
 90
        8
 70
     1
 43
0.0
 10
19.12247939573118
 20
25.02327418107741
 10
0.4619397662556847
 20
70.07380203575786
 42
0.6681786379192991
 10
-0.4619397662556022
 20
70.07380203575786
 10
-19.12247939573115
 20
25.02327418107742
 42
0.4142135623730943
 10
-17.17417343520484
 20
20.31964750752247
 10
-1.148050301228083
 20
13.6814099515486
 42
0.1989123673796587
 10
1.148050292962461
 20
13.68140995136379
 10
17.17417343520487
 20
20.31964750752246
 42
0.414213562373094
  0
HATCH
  5
786F
330
6D95
100
AcDbEntity
  8
APL Hatch
100
AcDbHatch
 10
0.0
 20
0.0
 30
0.0
210
0.0
220
0.0
230
1.0
  2
SOLID
 70
     1
 71
     1
 91
        2
 92
       16
 93
        8
 72
     1
 10
19.12247939573118
 20
25.02327418107741
 11
0.4619397662556857
 21
70.07380203575786
 72
     2
 10
0.0000000000000412
 20
69.88246031957533
 40
0.4999999999999963
 50
22.49999999999895
 51
157.500000000001
 73
     1
 72
     1
 10
-0.4619397662556022
 20
70.07380203575786
 11
-19.12247939573115
 21
25.02327418107743
 72
     2
 10
-15.79651307869051
 20
23.64561382456311
 40
3.600000000000002
 50
157.5000000000001
 51
247.5
 73
     1
 72
     1
 10
-17.17417343520484
 20
20.31964750752247
 11
-1.148050301228085
 21
13.6814099515486
 72
     2
 10
-0.0000000039097297
 20
16.45304854899005
 40
3.0
 50
247.4999999953884
 51
292.4999999953885
 73
     1
 72
     1
 10
1.148050292962461
 20
13.68140995136379
 11
17.17417343520487
 21
20.31964750752246
 72
     2
 10
15.79651307869054
 20
23.64561382456309
 40
3.599999999999999
 50
292.5
 51
382.4999999999998
 73
     1
 97
        1
330
786E
 92
        1
 93
       62
 72
     1
 10
1.074233258039839
 20
73.56053405027002
 11
18.95161829213014
 21
80.96558939115601
 72
     2
 10
19.33430172449522
 20
80.04170985864471
 40
1.000000000000002
 50
247.5000000000006
 51
337.5000000000003
 73
     0
 72
     1
 10
20.25818125700652
 20
80.42439329100979
 11
21.56314001225529
 21
77.27394416575068
 72
     2
 10
21.10120024599965
 20
77.08260244956807
 40
0.5000000000000198
 50
337.4999999999933
 51
398.6342725849826
 73
     0
 72
     2
 10
23.36652697203415
 20
75.27199624602333
 40
2.40000000000013
 50
141.3657274150045
 51
202.4999999999974
 73
     1
 72
     1
 10
21.1492160940069
 20
74.35355600834717
 11
22.02932544312466
 21
72.22878408133569
 72
     2
 10
22.76842906913375
 20
72.53493082722778
 40
0.8000000000000641
 50
202.4999999999998
 51
382.4999999999986
 73
     1
 72
     1
 10
23.50753269514285
 20
72.84107757311986
 11
22.62742334602497
 21
74.96584950013131
 72
     2
 10
23.36652697203408
 20
75.27199624602343
 40
0.8000000000000913
 50
157.4999999999988
 51
277.5000000000026
 73
     0
 72
     2
 10
23.49705316425421
 20
76.26344110739726
 40
0.1999999999999388
 50
262.4999999999884
 51
382.5000000000167
 73
     1
 72
     1
 10
23.68182907075639
 20
76.3399777938703
 11
20.9327533010579
 21
82.97683380106768
 72
     2
 10
20.47081353480226
 20
82.78549208488513
 40
0.4999999999999981
 50
22.50000000000063
 51
112.5000000000006
 73
     1
 72
     1
 10
20.27947181861971
 20
83.24743185114078
 11
1.913417161825471
 21
75.63996292501108
 72
     2
 10
0.0000000000000232
 20
80.2593605875675
 40
4.99999999999999
 50
67.49999999999997
 51
112.5
 73
     0
 72
     1
 10
-1.913417161825424
 20
75.63996292501108
 11
-20.27947181861962
 21
83.24743185114078
 72
     2
 10
-20.47081353480217
 20
82.78549208488515
 40
0.4999999999999981
 50
67.49999999999936
 51
157.4999999999993
 73
     1
 72
     1
 10
-20.93275330105781
 20
82.9768338010677
 11
-23.6818290707563
 21
76.33997779387032
 72
     2
 10
-23.49705316425412
 20
76.26344110739727
 40
0.1999999999999418
 50
157.4999999999837
 51
277.5000000000117
 73
     1
 72
     2
 10
-23.36652697203398
 20
75.27199624602345
 40
0.8000000000000834
 50
262.4999999999969
 51
382.5000000000003
 73
     0
 72
     1
 10
-22.62742334602488
 20
74.96584950013134
 11
-23.50753269514276
 21
72.84107757311989
 72
     2
 10
-22.76842906913367
 20
72.5349308272278
 40
0.8000000000000641
 50
157.5000000000002
 51
337.5000000000004
 73
     1
 72
     1
 10
-22.02932544312458
 20
72.22878408133571
 11
-21.14921609400681
 21
74.35355600834721
 72
     2
 10
-23.36652697203404
 20
75.27199624602335
 40
2.400000000000101
 50
337.500000000003
 51
398.6342725849959
 73
     1
 72
     2
 10
-21.10120024599956
 20
77.08260244956807
 40
0.5000000000000147
 50
141.3657274150191
 51
202.5000000000083
 73
     0
 72
     1
 10
-21.56314001225519
 20
77.27394416575069
 11
-20.25818125700643
 21
80.42439329100981
 72
     2
 10
-19.33430172449513
 20
80.04170985864471
 40
1.000000000000009
 50
202.5000000000003
 51
292.4999999999998
 73
     0
 72
     1
 10
-18.95161829213005
 20
80.96558939115601
 11
-1.074233258039754
 21
73.56053405026999
 72
     2
 10
-1.265574974222294
 20
73.09859428401435
 40
0.4999999999999944
 50
292.4999999999996
 51
382.4999999999992
 73
     0
 72
     1
 10
-0.8036352079666571
 20
72.90725256783182
 11
-20.41591074124696
 21
25.55903098638855
 72
     2
 10
-15.79651307869051
 20
23.64561382456311
 40
5.000000000000001
 50
157.5000000000001
 51
247.5
 73
     1
 72
     1
 10
-17.70993024051596
 20
19.02621616200667
 11
-2.117316567634963
 21
12.56754410585517
 72
     2
 10
-2.500000000000038
 20
11.64366457334383
 40
1.000000000000042
 50
292.4999999999981
 51
359.999999999998
 73
     0
 72
     1
 10
-1.499999999999996
 20
11.64366457334387
 11
-1.499999999999996
 21
5.365102707102316
 72
     2
 10
-2.499999999999996
 20
5.365102707102316
 40
1.0
 50
360.0
 51
472.5000000000001
 73
     0
 72
     1
 10
-2.882683432365088
 20
4.44122317459103
 11
-4.896763935164362
 21
5.275482634561715
 72
     2
 10
-4.705422218981818
 20
5.737422400817358
 40
0.4999999999999993
 50
112.4999999999999
 51
202.4999999999999
 73
     0
 72
     1
 10
-5.167361985237461
 20
5.928764116999902
 11
-4.861215239345388
 21
6.66786774300893
 72
     2
 10
-5.045991145847645
 20
6.744404429481948
 40
0.2000000000000003
 50
337.4999999999998
 51
427.4999999999997
 73
     1
 72
     1
 10
-4.969454459374627
 20
6.929180335984206
 11
-5.985721945137042
 21
7.350132111585804
 72
     2
 10
-6.062258631610061
 20
7.165356205083547
 40
0.1999999999999999
 50
67.49999999999944
 51
157.4999999999993
 73
     1
 72
     1
 10
-6.247034538112317
 20
7.241892891556567
 11
-7.31854814873462
 21
4.655030200524848
 72
     2
 10
-8.842949377378252
 20
5.286457863927241
 40
1.650000000000006
 50
22.49999999999972
 51
67.14424642571973
 73
     0
 72
     2
 10
-8.124386340048477
 20
3.581709448065341
 40
0.2000000000000604
 50
112.8557535743269
 51
247.4999999999835
 73
     1
 72
     1
 10
-8.200923026521572
 20
3.39693354156305
 11
-0.5740251485476336
 21
0.2377690016716607
 72
     2
 10
0.0000000000000008
 20
1.623588300438593
 40
1.500000000000001
 50
247.5
 51
292.5
 73
     1
 72
     1
 10
0.5740251485476371
 20
0.2377690016716616
 11
8.200923026521579
 21
3.39693354156304
 72
     2
 10
8.124386340048486
 20
3.581709448065333
 40
0.200000000000061
 50
292.5000000000159
 51
427.1442464256725
 73
     1
 72
     2
 10
8.842949377378257
 20
5.286457863927232
 40
1.650000000000004
 50
112.8557535742801
 51
157.5000000000002
 73
     0
 72
     1
 10
7.318548148734628
 20
4.655030200524837
 11
6.247034538112327
 21
7.241892891556558
 72
     2
 10
6.062258631610068
 20
7.165356205083541
 40
0.2000000000000013
 50
22.49999999999956
 51
112.4999999999995
 73
     1
 72
     1
 10
5.985721945137051
 20
7.3501321115858
 11
4.969454459374636
 21
6.929180335984201
 72
     2
 10
5.045991145847654
 20
6.744404429481944
 40
0.1999999999999992
 50
112.5
 51
202.5000000000001
 73
     1
 72
     1
 10
4.861215239345398
 20
6.667867743008926
 11
5.167361985237468
 21
5.928764116999898
 72
     2
 10
4.705422218981823
 20
5.737422400817353
 40
0.5000000000000017
 50
337.5
 51
427.5
 73
     0
 72
     1
 10
4.896763935164369
 20
5.275482634561708
 11
2.882683432365096
 21
4.441223174591025
 72
     2
 10
2.500000000000006
 20
5.365102707102311
 40
0.9999999999999994
 50
67.49999999999997
 51
180.0000000000002
 73
     0
 72
     1
 10
1.500000000000007
 20
5.365102707102314
 11
1.500000000000069
 21
11.64366457334388
 72
     2
 10
2.500000000000072
 20
11.64366457334388
 40
1.000000000000003
 50
180.0
 51
247.4999999999999
 73
     0
 72
     1
 10
2.117316567634979
 20
12.56754410585517
 11
17.70993024051599
 21
19.02621616200666
 72
     2
 10
15.79651307869054
 20
23.64561382456309
 40
5.000000000000001
 50
292.5
 51
382.4999999999998
 73
     1
 72
     1
 10
20.41591074124698
 20
25.55903098638853
 11
0.8036352079667352
 21
72.90725256783183
 72
     2
 10
1.265574974222379
 20
73.09859428401438
 40
0.5000000000000023
 50
157.4999999999995
 51
247.5000000000004
 73
     0
 97
        1
330
786D
 75
     0
 76
     1
 98
        1
 10
0.0
 20
0.0
  0
ENDBLK
  5
6D97
330
6D95
100
AcDbEntity
  8
0
 62
     2
 48
3.0
100
AcDbBlockEnd
  0
BLOCK
  5
6DB1
330
6DB0
100
AcDbEntity
  8
0
 62
     2
 48
3.0
100
AcDbBlockBegin
  2
04444
 70
     0
 10
0.0
 20
0.0
 30
0.0
  3
04444
  1
I:\DWG Master Blocks\04444.dwg
  0
LWPOLYLINE
  5
7873
102
{ACAD_REACTORS
330
7875
102
}
330
6DB0
100
AcDbEntity
  8
APL Joinery
100
AcDbPolyline
 90
       46
 70
     1
 43
0.0
 10
46.19998053929879
 20
49.04998053929866
 10
37.39934573747224
 20
49.04998053929865
 42
-0.4142135623730951
 10
36.89934573747224
 20
49.54998053929866
 10
36.89934573747223
 20
64.14998053929664
 42
0.4142135623730943
 10
31.89934573747225
 20
69.14998053929664
 10
-19.34999999999797
 20
69.14998053929666
 42
-0.4142135623730951
 10
-19.84999999999797
 20
69.64998053929666
 10
-19.84999999999795
 20
89.00032266181998
 42
-0.4142135623730951
 10
-18.84999999999795
 20
90.00032266181998
 10
-15.43997843939949
 20
90.00032266181996
 42
-0.2732608139402959
 10
-15.00210171184083
 20
89.74170197216485
 42
0.2732608139403113
 10
-12.90029341955936
 20
88.50032266181987
 10
-10.60045685836188
 20
88.50032266181987
 42
0.9999999999999998
 10
-10.60045685836188
 20
90.10032266181999
 10
-12.90029341955936
 20
90.10032266181989
 42
-0.577350269189642
 10
-13.59311374258697
 20
91.30032266182004
 42
0.5773502691897898
 10
-13.76631882334384
 20
91.60032266182
 10
-20.94999999999798
 20
91.60032266182
 42
0.4142135623730951
 10
-21.44999999999798
 20
91.10032266182001
 10
-21.44999999999799
 20
70.14998053929666
 42
-0.4142135623730951
 10
-22.44999999999799
 20
69.14998053929666
 10
-43.40034212252132
 20
69.14998053929666
 42
0.4142135623730951
 10
-43.90034212252132
 20
68.64998053929666
 10
-43.90034212252131
 20
61.46629936264251
 42
0.5773502691897928
 10
-43.60034212252137
 20
61.29309428188564
 42
-0.5773502691896424
 10
-42.40034212252121
 20
60.60027395885803
 10
-42.40034212252132
 20
58.30043739766056
 42
0.9999999999999998
 10
-40.80034212252118
 20
58.30043739766056
 10
-40.80034212252119
 20
60.60027395885803
 42
0.273260813940311
 10
-42.04172143286618
 20
62.70208225113951
 42
-0.2732608139402948
 10
-42.30034212252128
 20
63.13995897869817
 10
-42.3003421225213
 20
66.54998053929664
 42
-0.4142135623730951
 10
-41.30034212252129
 20
67.54998053929664
 10
-21.94999999999799
 20
67.54998053929664
 42
-0.4142135623730951
 10
-21.44999999999799
 20
67.04998053929664
 10
-21.44999999999797
 20
15.80063480182643
 42
0.4142135623730943
 10
-16.44999999999797
 20
10.80063480182644
 10
-1.849999999999993
 20
10.80063480182643
 42
-0.4142135623730948
 10
-1.349999999999994
 20
10.30063480182643
 10
-1.349999999999998
 20
1.499999999999872
 42
-0.1972991791518571
 10
-1.82605206168662
 20
0.3405405405405118
 42
0.6659356650514701
 10
-1.683755341890957
 20
0.0
 10
46.19998053929866
 20
0.0
 42
0.4142135623730951
 10
47.69998053929866
 20
1.499999999999999
 10
47.69998053929866
 20
49.38373588118962
 42
0.6659356650514608
 10
47.35943999875816
 20
49.52603260098529
 42
-0.1972991791518571
  0
LWPOLYLINE
  5
7874
102
{ACAD_REACTORS
330
7875
102
}
330
6DB0
100
AcDbEntity
  8
APL Joinery
100
AcDbPolyline
 90
       16
 70
     1
 43
0.0
 10
31.89934573747225
 20
67.74998053929663
 10
-19.04999999999799
 20
67.74998053929666
 42
0.4142135623730951
 10
-20.04999999999799
 20
66.74998053929666
 10
-20.04999999999797
 20
15.80063480182644
 42
0.4142135623730943
 10
-16.44999999999797
 20
12.20063480182645
 10
-1.849999999999992
 20
12.20063480182643
 42
-0.4142135623730948
 10
0.0500000000000056
 20
10.30063480182643
 10
0.0500000000000021
 20
1.9
 42
0.4142135623730951
 10
0.5500000000000021
 20
1.4
 10
46.19998053929866
 20
1.399999999999999
 42
0.4142135623730951
 10
46.29998053929866
 20
1.5
 10
46.29998053929866
 20
47.14998053929866
 42
0.4142135623730954
 10
45.79998053929866
 20
47.64998053929866
 10
37.39934573747224
 20
47.64998053929866
 42
-0.4142135623730951
 10
35.49934573747224
 20
49.54998053929866
 10
35.49934573747223
 20
64.14998053929664
 42
0.4142135623730943
  0
HATCH
  5
7875
330
6DB0
100
AcDbEntity
  8
APL Hatch
100
AcDbHatch
 10
0.0
 20
0.0
 30
0.0
210
0.0
220
0.0
230
1.0
  2
SOLID
 70
     1
 71
     1
 91
        2
 92
       16
 93
       16
 72
     1
 10
31.89934573747225
 20
67.74998053929663
 11
-19.04999999999799
 21
67.74998053929666
 72
     2
 10
-19.04999999999799
 20
66.74998053929666
 40
1.0
 50
90.0
 51
180.0
 73
     1
 72
     1
 10
-20.04999999999799
 20
66.74998053929666
 11
-20.04999999999797
 21
15.80063480182644
 72
     2
 10
-16.44999999999797
 20
15.80063480182644
 40
3.600000000000001
 50
180.0000000000001
 51
270.0
 73
     1
 72
     1
 10
-16.44999999999797
 20
12.20063480182645
 11
-1.849999999999992
 21
12.20063480182643
 72
     2
 10
-1.849999999999994
 20
10.30063480182643
 40
1.9
 50
270.0000000000001
 51
360.0
 73
     0
 72
     1
 10
0.0500000000000056
 20
10.30063480182643
 11
0.0500000000000021
 21
1.9
 72
     2
 10
0.5500000000000021
 20
1.9
 40
0.5
 50
180.0
 51
270.0
 73
     1
 72
     1
 10
0.5500000000000021
 20
1.4
 11
46.19998053929866
 21
1.399999999999999
 72
     2
 10
46.19998053929866
 20
1.5
 40
0.1000000000000007
 50
270.0
 51
359.9999999999996
 73
     1
 72
     1
 10
46.29998053929866
 20
1.5
 11
46.29998053929866
 21
47.14998053929866
 72
     2
 10
45.79998053929866
 20
47.14998053929866
 40
0.5
 50
0.0
 51
90.0
 73
     1
 72
     1
 10
45.79998053929866
 20
47.64998053929866
 11
37.39934573747224
 21
47.64998053929866
 72
     2
 10
37.39934573747225
 20
49.54998053929866
 40
1.899999999999998
 50
90.00000000000019
 51
180.0
 73
     0
 72
     1
 10
35.49934573747224
 20
49.54998053929866
 11
35.49934573747223
 21
64.14998053929664
 72
     2
 10
31.89934573747224
 20
64.14998053929664
 40
3.59999999999999
 50
0.0
 51
89.99999999999994
 73
     1
 97
        1
330
7874
 92
        1
 93
       46
 72
     1
 10
46.19998053929879
 20
49.04998053929866
 11
37.39934573747224
 21
49.04998053929865
 72
     2
 10
37.39934573747224
 20
49.54998053929866
 40
0.5
 50
90.0
 51
180.0
 73
     0
 72
     1
 10
36.89934573747224
 20
49.54998053929866
 11
36.89934573747223
 21
64.14998053929664
 72
     2
 10
31.89934573747223
 20
64.14998053929664
 40
5.0
 50
0.0
 51
89.99999999999984
 73
     1
 72
     1
 10
31.89934573747225
 20
69.14998053929664
 11
-19.34999999999797
 21
69.14998053929666
 72
     2
 10
-19.34999999999797
 20
69.64998053929666
 40
0.5
 50
90.0
 51
180.0
 73
     0
 72
     1
 10
-19.84999999999797
 20
69.64998053929666
 11
-19.84999999999795
 21
89.00032266181998
 72
     2
 10
-18.84999999999795
 20
89.00032266181998
 40
1.0
 50
180.0
 51
270.0
 73
     0
 72
     1
 10
-18.84999999999795
 20
90.00032266181998
 11
-15.43997843939949
 21
90.00032266181996
 72
     2
 10
-15.43997843939943
 20
89.50032266181995
 40
0.5000000000000142
 50
269.9999999999933
 51
331.1342725849829
 73
     0
 72
     2
 10
-12.90029341955924
 20
90.90032266181998
 40
2.400000000000118
 50
208.8657274150043
 51
269.9999999999972
 73
     1
 72
     1
 10
-12.90029341955936
 20
88.50032266181987
 11
-10.60045685836188
 21
88.50032266181987
 72
     2
 10
-10.60045685836188
 20
89.30032266181994
 40
0.8000000000000682
 50
270.0
 51
450.0
 73
     1
 72
     1
 10
-10.60045685836188
 20
90.10032266181999
 11
-12.90029341955936
 21
90.10032266181989
 72
     2
 10
-12.90029341955936
 20
90.90032266181998
 40
0.8000000000000824
 50
90.0
 51
210.0000000000028
 73
     0
 72
     2
 10
-13.76631882334378
 20
91.40032266182005
 40
0.1999999999999419
 50
329.9999999999875
 51
450.0000000000157
 73
     1
 72
     1
 10
-13.76631882334384
 20
91.60032266182
 11
-20.94999999999798
 21
91.60032266182
 72
     2
 10
-20.94999999999798
 20
91.10032266182001
 40
0.5
 50
90.0
 51
180.0
 73
     1
 72
     1
 10
-21.44999999999798
 20
91.10032266182001
 11
-21.44999999999799
 21
70.14998053929666
 72
     2
 10
-22.44999999999799
 20
70.14998053929666
 40
1.0
 50
360.0
 51
450.0
 73
     0
 72
     1
 10
-22.44999999999799
 20
69.14998053929666
 11
-43.40034212252132
 21
69.14998053929666
 72
     2
 10
-43.40034212252132
 20
68.64998053929666
 40
0.5
 50
90.0
 51
180.0
 73
     1
 72
     1
 10
-43.90034212252132
 20
68.64998053929666
 11
-43.90034212252131
 21
61.46629936264251
 72
     2
 10
-43.70034212252138
 20
61.46629936264246
 40
0.1999999999999389
 50
179.9999999999837
 51
300.0000000000124
 73
     1
 72
     2
 10
-43.20034212252129
 20
60.60027395885803
 40
0.8000000000000843
 50
239.9999999999971
 51
360.0
 73
     0
 72
     1
 10
-42.40034212252121
 20
60.60027395885803
 11
-42.40034212252132
 21
58.30043739766056
 72
     2
 10
-41.60034212252125
 20
58.30043739766056
 40
0.8000000000000682
 50
180.0
 51
360.0
 73
     1
 72
     1
 10
-40.80034212252118
 20
58.30043739766056
 11
-40.80034212252119
 21
60.60027395885803
 72
     2
 10
-43.20034212252131
 20
60.60027395885793
 40
2.400000000000119
 50
0.0000000000027141
 51
61.13427258499556
 73
     1
 72
     2
 10
-41.80034212252127
 20
63.13995897869812
 40
0.5000000000000157
 50
118.8657274150171
 51
180.0000000000065
 73
     0
 72
     1
 10
-42.30034212252128
 20
63.13995897869817
 11
-42.3003421225213
 21
66.54998053929664
 72
     2
 10
-41.30034212252129
 20
66.54998053929664
 40
1.0
 50
180.0
 51
270.0
 73
     0
 72
     1
 10
-41.30034212252129
 20
67.54998053929664
 11
-21.94999999999799
 21
67.54998053929664
 72
     2
 10
-21.94999999999799
 20
67.04998053929664
 40
0.5
 50
270.0
 51
360.0
 73
     0
 72
     1
 10
-21.44999999999799
 20
67.04998053929664
 11
-21.44999999999797
 21
15.80063480182643
 72
     2
 10
-16.44999999999797
 20
15.80063480182644
 40
5.0
 50
180.0000000000001
 51
270.0
 73
     1
 72
     1
 10
-16.44999999999797
 20
10.80063480182644
 11
-1.849999999999994
 21
10.80063480182643
 72
     2
 10
-1.849999999999994
 20
10.30063480182643
 40
0.5
 50
270.0000000000001
 51
360.0
 73
     0
 72
     1
 10
-1.349999999999994
 20
10.30063480182643
 11
-1.349999999999998
 21
1.499999999999872
 72
     2
 10
-3.000000000000003
 20
1.499999999999864
 40
1.650000000000005
 50
359.9999999999997
 51
404.6442464257197
 73
     0
 72
     2
 10
-1.683755341890901
 20
0.2000000000000596
 40
0.2000000000000596
 50
135.3557535743272
 51
269.9999999999838
 73
     1
 72
     1
 10
-1.683755341890957
 20
0.0
 11
46.19998053929866
 21
0.0
 72
     2
 10
46.19998053929866
 20
1.5
 40
1.5
 50
270.0
 51
360.0
 73
     1
 72
     1
 10
47.69998053929866
 20
1.499999999999999
 11
47.69998053929866
 21
49.38373588118962
 72
     2
 10
47.4999805392986
 20
49.38373588118956
 40
0.2000000000000668
 50
0.0000000000162844
 51
134.6442464256698
 73
     1
 72
     2
 10
46.19998053929881
 20
50.69998053929868
 40
1.650000000000007
 50
45.3557535742805
 51
90.00000000000051
 73
     0
 97
        1
330
7873
 75
     0
 76
     1
 98
        1
 10
0.0
 20
0.0
  0
ENDBLK
  5
6DB2
330
6DB0
100
AcDbEntity
  8
0
 62
     2
 48
3.0
100
AcDbBlockEnd
  0
BLOCK
  5
6E65
330
6E64
100
AcDbEntity
  8
0
 62
     7
 48
3.0
100
AcDbBlockBegin
  2
08638
 70
     0
 10
265.902225526263
 20
627.8565575453155
 30
0.0
  3
08638
  1
I:\DWG Master Blocks\08638.dwg
  0
LWPOLYLINE
  5
7879
102
{ACAD_REACTORS
330
787A
102
}
330
6E64
100
AcDbEntity
  8
APL Joinery
  6
Continuous
100
AcDbPolyline
 90
       48
 70
     1
 43
0.0
 10
282.9022255262626
 20
625.1565575453155
 42
-0.4142135623731117
 10
281.8022255262631
 20
626.2565575453159
 42
0.4142135623730951
 10
281.3022255262631
 20
626.7565575453159
 10
269.5022255262632
 20
626.7565575453161
 10
269.5022255262632
 20
624.799450764122
 42
-0.6681786379193133
 10
269.0754488309663
 20
624.6226740688253
 10
267.9754488309681
 20
625.7226740688241
 42
-0.4142135623730951
 10
267.9754488309663
 20
626.0762274594156
 10
268.402225526263
 20
626.5030041547123
 10
268.4022255262632
 20
627.6065575453156
 42
0.4142135623730951
 10
268.152225526263
 20
627.8565575453153
 10
266.1900934919069
 20
627.8565575453155
 42
-0.4142135623730951
 10
265.902225526263
 20
628.1444255109597
 10
265.9022255262628
 20
649.6065575453155
 42
-0.4142135623730951
 10
266.1522255262628
 20
649.8565575453156
 10
268.7022255262629
 20
649.8565575453156
 42
-0.4142135623730951
 10
269.202225526263
 20
649.3565575453158
 10
269.202225526263
 20
647.8565575453156
 10
270.402225526263
 20
647.8565575453155
 42
-0.4142135623730951
 10
270.902225526263
 20
647.3565575453155
 10
270.902225526263
 20
645.8065575453154
 42
-0.9999999999999998
 10
269.902225526263
 20
645.8065575453154
 10
269.902225526263
 20
646.5565575453156
 10
268.4022255262632
 20
646.5565575453156
 10
268.402225526263
 20
645.5565575453154
 42
-0.4142135623730617
 10
268.152225526263
 20
645.3065575453154
 10
267.6522255262628
 20
645.3065575453154
 42
0.4142135623730951
 10
267.4022255262628
 20
645.0565575453154
 10
267.4022255262627
 20
642.5565575453155
 42
0.4142135623730951
 10
267.6522255262628
 20
642.3065575453153
 10
268.152225526263
 20
642.3065575453155
 42
-0.4142135623730951
 10
268.402225526263
 20
642.0565575453155
 10
268.402225526263
 20
641.0565575453156
 10
269.902225526263
 20
641.0565575453155
 10
269.902225526263
 20
641.8065575453155
 42
-0.9999999999999998
 10
270.902225526263
 20
641.8065575453157
 10
270.9022255262632
 20
640.2565575453157
 42
-0.4142135623730951
 10
270.4022255262632
 20
639.7565575453157
 10
268.1422839132624
 20
639.7565575453154
 42
0.4216277665658041
 10
267.6424432595641
 20
639.2439353065858
 10
267.852995449367
 20
630.9060685903965
 42
0.3742242816206427
 10
269.6264661042266
 20
628.9693552852431
 42
-0.3814371313443093
 10
270.602225526263
 20
627.8763940422031
 10
270.602225526263
 20
627.856557545316
 10
281.3022255262634
 20
627.8565575453154
 42
-0.4142135623730284
 10
282.9022255262632
 20
626.2565575453156
 10
284.0422750324269
 20
626.2565575453156
 42
-3.927182716064489
 10
284.0422750324274
 20
625.1565575453152
  0
HATCH
  5
787A
330
6E64
100
AcDbEntity
  8
APL Hatch
100
AcDbHatch
 10
0.0
 20
0.0
 30
0.0
210
0.0
220
0.0
230
1.0
  2
SOLID
 70
     1
 71
     1
 91
        1
 92
        1
 93
       48
 72
     2
 10
282.9022255262629
 20
626.2565575453154
 40
1.099999999999909
 50
90.00000000001776
 51
180.0000000000236
 73
     0
 72
     2
 10
281.3022255262631
 20
626.2565575453159
 40
0.5
 50
0.0
 51
90.0
 73
     1
 72
     1
 10
281.3022255262631
 20
626.7565575453159
 11
269.5022255262632
 21
626.7565575453161
 72
     1
 10
269.5022255262632
 20
626.7565575453161
 11
269.5022255262632
 21
624.799450764122
 72
     2
 10
269.252225526263
 20
624.799450764122
 40
0.2500000000001705
 50
360.0
 51
494.9999999999907
 73
     0
 72
     1
 10
269.0754488309663
 20
624.6226740688253
 11
267.9754488309681
 21
625.7226740688241
 72
     2
 10
268.152225526263
 20
625.8994507641208
 40
0.249999999998756
 50
134.9999999997052
 51
224.9999999997053
 73
     0
 72
     1
 10
267.9754488309663
 20
626.0762274594156
 11
268.402225526263
 21
626.5030041547123
 72
     1
 10
268.402225526263
 20
626.5030041547123
 11
268.4022255262632
 21
627.6065575453156
 72
     2
 10
268.1522255262632
 20
627.6065575453153
 40
0.25
 50
0.0000000000521102
 51
90.00000000005213
 73
     1
 72
     1
 10
268.152225526263
 20
627.8565575453153
 11
266.1900934919069
 21
627.8565575453155
 72
     2
 10
266.190093491907
 20
628.1444255109595
 40
0.2878679656439544
 50
90.00000000002259
 51
180.0000000000226
 73
     0
 72
     1
 10
265.902225526263
 20
628.1444255109597
 11
265.9022255262628
 21
649.6065575453155
 72
     2
 10
266.1522255262628
 20
649.6065575453155
 40
0.25
 50
180.0
 51
270.0
 73
     0
 72
     1
 10
266.1522255262628
 20
649.8565575453156
 11
268.7022255262629
 21
649.8565575453156
 72
     2
 10
268.7022255262631
 20
649.3565575453157
 40
0.4999999999998864
 50
269.999999999987
 51
359.999999999987
 73
     0
 72
     1
 10
269.202225526263
 20
649.3565575453158
 11
269.202225526263
 21
647.8565575453156
 72
     1
 10
269.202225526263
 20
647.8565575453156
 11
270.402225526263
 21
647.8565575453155
 72
     2
 10
270.402225526263
 20
647.3565575453155
 40
0.5
 50
270.0
 51
360.0
 73
     0
 72
     1
 10
270.902225526263
 20
647.3565575453155
 11
270.902225526263
 21
645.8065575453154
 72
     2
 10
270.402225526263
 20
645.8065575453154
 40
0.5
 50
360.0
 51
540.0
 73
     0
 72
     1
 10
269.902225526263
 20
645.8065575453154
 11
269.902225526263
 21
646.5565575453156
 72
     1
 10
269.902225526263
 20
646.5565575453156
 11
268.4022255262632
 21
646.5565575453156
 72
     1
 10
268.4022255262632
 20
646.5565575453156
 11
268.402225526263
 21
645.5565575453154
 72
     2
 10
268.152225526263
 20
645.5565575453154
 40
0.25
 50
360.0
 51
450.0
 73
     0
 72
     1
 10
268.152225526263
 20
645.3065575453154
 11
267.6522255262628
 21
645.3065575453154
 72
     2
 10
267.6522255262628
 20
645.0565575453154
 40
0.25
 50
90.0
 51
180.0
 73
     1
 72
     1
 10
267.4022255262628
 20
645.0565575453154
 11
267.4022255262627
 21
642.5565575453155
 72
     2
 10
267.6522255262629
 20
642.5565575453154
 40
0.2500000000001137
 50
179.9999999999739
 51
269.999999999987
 73
     1
 72
     1
 10
267.6522255262628
 20
642.3065575453153
 11
268.152225526263
 21
642.3065575453155
 72
     2
 10
268.152225526263
 20
642.0565575453155
 40
0.25
 50
270.0
 51
360.0
 73
     0
 72
     1
 10
268.402225526263
 20
642.0565575453155
 11
268.402225526263
 21
641.0565575453156
 72
     1
 10
268.402225526263
 20
641.0565575453156
 11
269.902225526263
 21
641.0565575453155
 72
     1
 10
269.902225526263
 20
641.0565575453155
 11
269.902225526263
 21
641.8065575453155
 72
     2
 10
270.402225526263
 20
641.8065575453156
 40
0.5
 50
179.999999999987
 51
359.999999999987
 73
     0
 72
     1
 10
270.902225526263
 20
641.8065575453157
 11
270.9022255262632
 21
640.2565575453157
 72
     2
 10
270.4022255262632
 20
640.2565575453157
 40
0.5
 50
360.0
 51
450.0
 73
     0
 72
     1
 10
270.4022255262632
 20
639.7565575453157
 11
268.1422839132624
 21
639.7565575453154
 72
     2
 10
268.1422839132622
 20
639.2565575453154
 40
0.5
 50
89.99999999998046
 51
181.4465556865554
 73
     1
 72
     1
 10
267.6424432595641
 20
639.2439353065858
 11
267.852995449367
 21
630.9060685903965
 72
     2
 10
269.8523580641601
 20
630.9565575453157
 40
2.000000000000211
 50
181.446555686578
 51
263.5148335461263
 73
     1
 72
     2
 10
269.5022255262632
 20
627.8763940422031
 40
1.099999999999996
 50
276.4851664538729
 51
360.0
 73
     0
 72
     1
 10
270.602225526263
 20
627.8763940422031
 11
270.602225526263
 21
627.856557545316
 72
     1
 10
270.602225526263
 20
627.856557545316
 11
281.3022255262634
 21
627.8565575453154
 72
     2
 10
281.3022255262632
 20
626.2565575453154
 40
1.600000000000022
 50
270.0000000000061
 51
359.9999999999919
 73
     0
 72
     1
 10
282.9022255262632
 20
626.2565575453156
 11
284.0422750324269
 21
626.2565575453156
 72
     2
 10
285.0522255262633
 20
625.7065575453159
 40
1.15
 50
208.5718781422934
 51
511.428121857656
 73
     0
 72
     1
 10
284.0422750324274
 20
625.1565575453152
 11
282.9022255262626
 21
625.1565575453155
 97
        1
330
7879
 75
     0
 76
     1
 98
        1
 10
0.0
 20
0.0
  0
ENDBLK
  5
6E66
330
6E64
100
AcDbEntity
  8
0
 62
     7
 48
3.0
100
AcDbBlockEnd
  0
BLOCK
  5
6E83
330
6E7B
100
AcDbEntity
  8
0
 62
     2
 48
3.0
100
AcDbBlockBegin
  2
A$C6DC3226B
 70
     0
 10
0.0
 20
0.0
 30
0.0
  3
A$C6DC3226B
  1

  0
INSERT
  5
6E7C
330
6E7B
100
AcDbEntity
  8
APL Joinery
 62
     7
 48
3.0
100
AcDbBlockReference
  2
9010250L
 10
23.30710790602211
 20
37.69983759695089
 30
0.0
 50
270.0
  0
INSERT
  5
6E7D
330
6E7B
100
AcDbEntity
  8
APL Joinery
 48
3.0
100
AcDbBlockReference
  2
6Glass
 10
-22.30710790602188
 20
37.50000051896313
 30
0.0
 41
-1.0
 43
-1.0
 50
270.0
210
0.0
220
0.0
230
-1.0
  0
INSERT
  5
6E7E
330
6E7B
100
AcDbEntity
  8
APL Joinery
 48
3.0
100
AcDbBlockReference
  2
08638
 10
3.307107906021656
 20
0.0000005189629633
 30
0.0
 41
-1.0
 50
270.0
  0
INSERT
  5
6E7F
330
6E7B
100
AcDbEntity
  8
APL Joinery
 48
3.0
100
AcDbBlockReference
  2
6Glass
 10
-22.307107906022
 20
19.50000051896313
 30
0.0
 41
-1.0
 43
-1.0
 50
270.0
210
0.0
220
0.0
230
-1.0
  0
LINE
  5
6E80
330
6E7B
100
AcDbEntity
  8
APL Joinery
 62
     7
 48
3.0
100
AcDbLine
 10
9.30710790602211
 20
25.00000051896319
 30
0.0
 11
9.30710790602211
 21
13.00000051896319
 31
0.0
  0
LINE
  5
6E81
330
6E7B
100
AcDbEntity
  8
APL Joinery
 62
     7
 48
3.0
100
AcDbLine
 10
15.30710790602211
 20
25.00000051896319
 30
0.0
 11
15.30710790602211
 21
13.00000051896319
 31
0.0
  0
INSERT
  5
6E82
330
6E7B
100
AcDbEntity
  8
APL Joinery
 48
3.0
100
AcDbBlockReference
  2
9010312r
 10
23.30710790602177
 20
3.300000518962917
 30
0.0
 50
270.0
  0
ENDBLK
  5
6E84
330
6E7B
100
AcDbEntity
  8
0
 62
     2
 48
3.0
100
AcDbBlockEnd
  0
BLOCK
  5
724F
330
7244
100
AcDbEntity
  8
0
 62
     2
 48
3.0
100
AcDbBlockBegin
  2
vantage a4 SM attributes (4)
 70
     2
 10
0.0
 20
0.0
 30
0.0
  3
vantage a4 SM attributes (4)
  1

  0
ATTDEF
  5
7245
330
7244
100
AcDbEntity
  8
APL Border
100
AcDbText
 10
41.78979785863009
 20
276.19
 30
0.0
 40
3.5
  1
DRAWING TITLE LINE 1
  7
Arial-Bold
100
AcDbAttributeDefinition
  3
Drawing Title Line 1
  2
DRAWINGTITLE_1
 70
     0
1001
AcDbBlockRepETag
1070
     1
1071
        0
1005
0
  0
ATTDEF
  5
7246
330
7244
100
AcDbEntity
  8
APL Border
100
AcDbText
 10
41.78979785863009
 20
270.19
 30
0.0
 40
3.5
  1
DRAWING TITLE LINE 2
  7
Arial-Bold
100
AcDbAttributeDefinition
  3
Drawing Title Line 2
  2
DRAWINGTITLE_2
 70
     0
1001
AcDbBlockRepETag
1070
     1
1071
        1
1005
0
  0
ATTDEF
  5
7247
330
7244
100
AcDbEntity
  8
APL Border
100
AcDbText
 10
41.78979785863009
 20
264.19
 30
0.0
 40
3.5
  1
DRAWING TITLE LINE 3
  7
Arial-Bold
100
AcDbAttributeDefinition
  3
Drawing Title Line 3
  2
DRAWINGTITLE_3
 70
     0
1001
AcDbBlockRepETag
1070
     1
1071
        2
1005
0
  0
ATTDEF
  5
7248
330
7244
100
AcDbEntity
  8
APL Border
100
AcDbText
 10
41.78979785863009
 20
258.19
 30
0.0
 40
3.0
  1
CROSS SECTION
  7
Arial-Regular
100
AcDbAttributeDefinition
  3
Drawing Title Line 4
  2
DRAWINGTITLE_4
 70
     0
1001
AcDbBlockRepETag
1070
     1
1071
        3
1005
0
  0
ATTDEF
  5
7249
330
7244
100
AcDbEntity
  8
APL Border
100
AcDbText
 10
165.845
 20
273.69
 30
0.0
 40
2.5
  1
AW123-456
  7
Arial-Regular
100
AcDbAttributeDefinition
  3
CAD Reference
  2
AW12-0
 70
     0
1001
AcDbBlockRepETag
1070
     1
1071
        4
1005
0
  0
ATTDEF
  5
724A
330
7244
100
AcDbEntity
  8
APL Border
100
AcDbText
 10
147.5475920873124
 20
257.1899999999999
 30
0.0
 40
2.5
  1
25.07.08
  7
Arial-Regular
 72
     1
 11
154.345
 21
257.1899999999999
 31
0.0
100
AcDbAttributeDefinition
  3
Date
  2
25.07.08
 70
     0
1001
AcDbBlockRepETag
1070
     1
1071
        5
1005
0
  0
ATTDEF
  5
724B
330
7244
100
AcDbEntity
  8
APL Border
100
AcDbText
 10
175.4174761255116
 20
257.1899999999999
 30
0.0
 40
2.5
  1
1:2
  7
Arial-Regular
 72
     1
 11
177.845
 21
257.1899999999999
 31
0.0
100
AcDbAttributeDefinition
  3
Scale
  2
1:2
 70
     0
1001
AcDbBlockRepETag
1070
     1
1071
        6
1005
0
  0
ATTDEF
  5
724C
330
7244
100
AcDbEntity
  8
APL Border
100
AcDbText
 10
189.595
 20
1.189999999999997
 30
0.0
 40
3.75
  1

  7
Arial-Bold
 72
     2
 11
189.595
 21
1.189999999999997
 31
0.0
100
AcDbAttributeDefinition
  3
Page Number (Right)
  2
1.2.34
 70
     0
1001
AcDbBlockRepETag
1070
     1
1071
        7
1005
0
  0
ATTDEF
  5
724D
330
7244
100
AcDbEntity
  8
APL Border
100
AcDbText
 10
11.59500000000003
 20
1.189999999999997
 30
0.0
 40
3.75
  1

  7
Arial-Bold
100
AcDbAttributeDefinition
  3
Page Number (Left)
  2
1.2.34
 70
     0
1001
AcDbBlockRepETag
1070
     1
1071
        8
1005
0
  0
ENDBLK
  5
7250
330
7244
100
AcDbEntity
  8
0
 62
     2
 48
3.0
100
AcDbBlockEnd
  0
BLOCK
  5
735B
330
735A
100
AcDbEntity
  8
0
 62
     2
 48
3.0
100
AcDbBlockBegin
  2
04461
 70
     0
 10
0.0
 20
0.0
 30
0.0
  3
04461
  1
I:\DWG Master Blocks\04461.dwg
  0
LWPOLYLINE
  5
787C
102
{ACAD_REACTORS
330
787E
102
}
330
735A
100
AcDbEntity
  8
APL Joinery
100
AcDbPolyline
 90
      112
 70
     1
 43
0.0
 10
35.29936520027508
 20
43.39949707257048
 42
0.4142135623731004
 10
36.09936520027509
 20
44.19949707257051
 10
36.09936520027506
 20
45.49949707257034
 10
38.59936519817313
 20
45.49949707257034
 10
38.59936519817313
 20
44.48939502112312
 42
0.3563939586871138
 10
38.99936519816362
 20
43.99949707256841
 42
0.3563939586980815
 10
39.39936519817314
 20
44.489395021127
 10
39.39936519817314
 20
45.49949707257034
 10
40.69936519817315
 20
45.49949707257034
 10
40.69936519817315
 20
31.99949707257037
 10
38.39936519817314
 20
31.99949707257033
 10
38.39936519817312
 20
32.19949707257049
 42
0.4142135623730535
 10
37.59936519817311
 20
32.99949707257039
 10
35.79936519817213
 20
32.99949707257039
 10
35.79936519817213
 20
33.59949707072053
 42
0.4142135623730895
 10
34.39936519817218
 20
34.99949707072051
 10
32.69936519817321
 20
34.99949707072051
 42
0.4142135623731783
 10
31.69936519817321
 20
33.99949707072023
 10
31.69936519817324
 20
33.8994970707204
 42
0.4142135623729847
 10
31.99936519817314
 20
33.59949707072056
 10
34.39936519817326
 20
33.59949707072056
 10
34.39936519817326
 20
30.38817220531527
 42
-0.2679491924311141
 10
34.14936519817326
 20
29.95515950342304
 10
28.62808390606062
 20
26.76744626315015
 42
-0.1316524975873956
 10
27.62808390606063
 20
26.49949707071903
 10
10.59936519817319
 20
26.49949707071903
 10
10.19936519817435
 20
26.09949707072022
 10
9.799365198173234
 20
26.49949707072167
 10
-0.0006348018276583
 20
26.49949707072167
 10
-0.4006348018279767
 20
26.09949707072076
 10
-0.8006348018276412
 20
26.49949707072051
 10
-3.675763671233056
 20
26.49949707072051
 42
-0.1316524975873979
 10
-4.175763671233113
 20
26.63347166693609
 10
-10.20063480182952
 20
30.11193263601879
 42
0.1316524975874104
 10
-10.90063480182962
 20
30.29949707072058
 10
-12.90063480182462
 20
30.29949707072046
 10
-12.90063480182462
 20
33.59949707072459
 10
-10.20063480177282
 20
33.59949707072457
 42
0.4142135623730125
 10
-9.900634801773236
 20
33.89949707072407
 10
-9.900634801773207
 20
33.99949707072179
 42
0.4142135623730951
 10
-10.90063480177281
 20
34.99949707072139
 10
-13.30063480180055
 20
34.99949707072145
 42
0.4142135623731034
 10
-14.30063480182653
 20
33.9994970706955
 10
-14.30063480182653
 20
-13.5005029247328
 42
0.4142135623730951
 10
-12.80063480182653
 20
-15.00050292473281
 10
-5.19999999999996
 20
-15.00050292473281
 42
0.4142135623730847
 10
-4.999999999999971
 20
-14.80050292473282
 10
-4.999999999999914
 20
-13.60050292475435
 42
0.414213562373147
 10
-5.199999999999988
 20
-13.4005029247543
 10
-5.390575869498007
 20
-13.40050292475432
 42
-0.5400716694641157
 10
-5.849144516574682
 20
-12.7012172104687
 42
0.2787975541389039
 10
-6.263345180014169
 20
-9.624693599574399
 42
1.0
 10
-7.412474029365796
 20
-10.54942485112151
 42
-0.3523955204325988
 10
-7.412474029368695
 20
-12.46158099839201
 42
0.1212234127598626
 10
-7.561421477185774
 20
-12.78098921666702
 42
-0.2394382480806993
 10
-7.840930924712722
 20
-13.13736356180801
 42
-0.2214711245079699
 10
-9.360966073437509
 20
-13.13699829007947
 42
-0.2387944948639684
 10
-9.640067257942803
 20
-12.78168424972881
 42
0.1189205426546311
 10
-9.787918064533698
 20
-12.4624758999757
 42
-0.3528190902717477
 10
-9.787918064423308
 20
-10.54852994939606
 42
1.15829496639959
 10
-11.07270859590804
 20
-9.805954892043978
 42
0.1517161906336193
 10
-11.60055639903422
 20
-11.50550292475498
 42
-1.0
 10
-12.90055639903406
 20
-11.50550292475498
 10
-12.90055639903411
 20
-5.899866481293486
 42
-0.4142188467482642
 10
-12.40054737805835
 20
-5.399866481374914
 10
-6.900034279708108
 20
-5.399965721366143
 42
0.4142188467482527
 10
-4.999999999999971
 20
-3.499965721675309
 10
-5.0
 20
4.499990978942811
 42
-0.4142188467482601
 10
-4.499990979024175
 20
4.999990978861433
 10
22.91668046509446
 20
4.999496328601679
 42
0.1989109448737893
 10
27.44217291331651
 20
6.87390651060641
 10
33.15780869611399
 20
12.58927348865339
 42
-0.1989062559300922
 10
34.57198900228013
 20
13.17502667085537
 10
41.59996023022796
 20
13.17502667085537
 10
41.59999541613879
 20
5.999023861561823
 42
0.4142087697623647
 10
42.59998395637865
 20
4.999028764903471
 10
43.39998095632284
 20
4.999019597139302
 10
43.79998554019448
 20
5.399015013212199
 10
50.09998853978237
 20
5.398942816763828
 10
50.49998395585754
 20
4.998938232890175
 10
52.29998095573967
 20
4.998917605377506
 42
1.0
 10
52.29999699938841
 20
6.398917605310153
 10
43.0
 20
6.399024180933743
 10
42.99999999999997
 20
13.17502667087143
 42
0.4142135623731005
 10
41.59999999999993
 20
14.57502667087144
 10
41.01814137475995
 20
14.57502667087144
 42
-0.5353652366461965
 10
40.55671149546575
 20
15.26759475362287
 42
0.3308192540555145
 10
39.63605081913559
 20
18.97166600440575
 42
-0.5237321830321465
 10
39.70363764949587
 20
19.79087763520601
 10
41.50024157814345
 20
20.82809107116799
 42
0.26794919179956
 10
43.0003026683592
 20
23.42613200404004
 10
43.00036082848271
 20
25.89936630520157
 10
46.30019974149795
 20
25.89936630520167
 42
1.044748832512316
 10
46.23901039500037
 20
27.29668679384012
 10
43.18677855241443
 20
27.02885575366574
 42
-0.4400876988358291
 10
42.09936520027503
 20
28.02502788029233
 10
42.09936520027508
 20
51.49949707257056
 42
0.4142135623730951
 10
41.59936520027492
 20
51.99949707257073
 10
35.34936520027498
 20
51.99949707257073
 42
0.4142135623730951
 10
35.09936520027495
 20
51.7494970725707
 10
35.09936520027495
 20
50.64949707257054
 42
0.4142135623730951
 10
35.34936520027495
 20
50.39949707257054
 10
40.44936520027493
 20
50.39949707257054
 42
-0.4142135623730951
 10
40.69936520027494
 20
50.14949707257054
 10
40.69936520027499
 20
47.14949707257065
 42
-0.4142135623730951
 10
40.44936520027488
 20
46.89949707257054
 10
37.09936520027495
 20
46.89949707257054
 10
37.099365200275
 20
47.64949707257051
 42
0.6681786379193894
 10
36.67258850497845
 20
47.82627376786713
 10
35.15794384403782
 20
46.31162910692658
 42
0.198912367379666
 10
35.09936520027506
 20
46.17020775068914
 10
35.099365200275
 20
43.59949707257058
 42
0.4142135623730951
  0
LWPOLYLINE
  5
787D
102
{ACAD_REACTORS
330
787E
102
}
330
735A
100
AcDbEntity
  8
APL Joinery
100
AcDbPolyline
 90
       62
 70
     1
 43
0.0
 10
38.39936519817317
 20
30.59949707257033
 10
40.69936520027454
 20
30.59949707257033
 10
40.69936520027454
 20
28.02502788029236
 42
0.2053812698978989
 10
41.44501723517268
 20
26.2863120293368
 42
-0.2053873968422769
 10
41.60036140897154
 20
25.9240678024796
 10
41.60030266874639
 20
23.42616492779183
 42
-0.2679491918419578
 10
40.80027008729809
 20
22.04054309667356
 10
36.00362543378029
 20
19.27134939580615
 42
0.0347852867130393
 10
35.63486805045631
 20
19.02277718880269
 42
1.0
 10
36.66535303923018
 20
17.70227996448886
 42
-0.3440117692676485
 10
38.54176750077073
 20
17.70227996448781
 42
0.1139152748905307
 10
38.88328126818521
 20
17.54324755812777
 42
-0.2345456280218748
 10
39.23187089658757
 20
17.26723612844731
 42
-0.223785336166082
 10
39.23187089659069
 20
15.73282483634031
 42
-0.2345456273666463
 10
38.88328126940459
 20
15.45681340691615
 42
0.113915274581731
 10
38.54176750319158
 20
15.29778100033489
 42
-0.3440117698443135
 10
36.6653530373793
 20
15.29778099988785
 42
0.614971049277533
 10
35.3129415899383
 20
14.66101009662375
 42
-0.0433574129250482
 10
35.30303604145746
 20
14.57502667087138
 10
34.57198900227374
 20
14.57502667087144
 42
0.1989062559301117
 10
32.16788248179103
 20
13.57924626112807
 10
26.45225913169042
 20
7.863891715193332
 42
-0.1989114241878744
 10
22.91670893508723
 20
6.399508760677051
 10
-4.499962216148503
 20
6.400053975113173
 42
0.4142193869292209
 10
-6.399999999999948
 20
4.500053975488803
 10
-6.400000000000005
 20
-3.499965721938565
 42
-0.4142188467482285
 10
-6.900009020975772
 20
-3.999965721857194
 10
-12.90066004670871
 20
-3.999857458138471
 10
-12.90028298156537
 20
16.89949707072051
 10
-10.90063480182945
 20
16.89949707072051
 42
0.4142135623730951
 10
-9.900634801829454
 20
17.89949707072051
 10
-9.900634801829454
 20
18.89949707072051
 42
1.0
 10
-10.90063480182945
 20
18.89949707072051
 10
-10.90063480182945
 20
17.89949707072051
 10
-12.90055639904014
 20
17.89949707072051
 10
-12.90055639904014
 20
22.96949708501589
 42
1.0
 10
-12.90055639903627
 20
23.82949707072047
 10
-12.90055639903627
 20
28.89949707072048
 10
-10.90063480182957
 20
28.89949707072048
 10
-10.90063480182945
 20
27.99949707072045
 42
1.0
 10
-9.900634801829454
 20
27.99949707072051
 10
-9.900634801829454
 20
28.32214680153084
 10
-4.875763671233045
 20
25.42103610163774
 42
0.1316524975873993
 10
-3.675763671232886
 20
25.09949707072035
 10
-2.900634801827976
 20
25.09949707072034
 10
-2.900634801828005
 20
24.29949707072271
 42
0.4142135623731368
 10
-2.700634801828016
 20
24.09949707072275
 10
1.899365198174308
 20
24.09949707072275
 42
0.4142135623730951
 10
2.099365198174268
 20
24.29949707072271
 10
2.099365198174268
 20
25.09949707072278
 10
12.29936519817391
 20
25.09949707072278
 10
12.29936519817391
 20
24.29949707072274
 42
0.4142135623730951
 10
12.4993651981739
 20
24.09949707072275
 10
17.09936519817398
 20
24.09949707072278
 42
0.4142135623729911
 10
17.29936519817397
 20
24.2994970707227
 10
17.29936519817426
 20
25.09949707072022
 10
27.62808390606063
 20
25.09949707072022
 42
0.1316524975873967
 10
29.32808390606007
 20
25.55501069785298
 10
34.84936519817271
 20
28.74272393812588
 42
0.267949192431127
 10
35.79936519817215
 20
30.38817220531539
 10
35.7993651981721
 20
31.59949707257039
 10
37.05772441167309
 20
31.59949707257107
 42
0.3316792665684287
  0
HATCH
  5
787E
330
735A
100
AcDbEntity
  8
APL Hatch
100
AcDbHatch
 10
0.0
 20
0.0
 30
0.0
210
0.0
220
0.0
230
1.0
  2
SOLID
 70
     1
 71
     1
 91
        2
 92
       16
 93
       62
 72
     1
 10
38.39936519817317
 20
30.59949707257033
 11
40.69936520027454
 21
30.59949707257033
 72
     1
 10
40.69936520027454
 20
30.59949707257033
 11
40.69936520027454
 21
28.02502788029236
 72
     2
 10
43.09936520027503
 20
28.02502788029235
 40
2.400000000000488
 50
179.9999999999998
 51
226.4243551586338
 73
     1
 72
     2
 10
41.10036140910972
 20
25.92407956038775
 40
0.5000000000000636
 50
313.5756448413661
 51
360.0013473570264
 73
     0
 72
     1
 10
41.60036140897154
 20
25.9240678024796
 11
41.60030266874639
 21
23.42616492779183
 72
     2
 10
40.00030266918881
 20
23.42620255338128
 40
1.599999999999983
 50
0.0013473671732148
 51
60.00134724119168
 73
     0
 72
     1
 10
40.80027008729809
 20
22.04054309667356
 11
36.00362543378029
 21
19.27134939580615
 72
     2
 10
37.60356026999908
 20
16.50003048239043
 40
3.200000000000339
 50
119.9986527588094
 51
127.9676400653496
 73
     1
 72
     2
 10
36.15011054484325
 20
18.36252857664578
 40
0.8374980942528791
 50
127.9676400653723
 51
307.9676400653724
 73
     1
 72
     2
 10
37.60356026999978
 20
16.50003048238986
 40
1.525003811495462
 50
232.0323599346675
 51
307.9676400653967
 73
     0
 72
     2
 10
39.05700999515861
 20
18.36252857664536
 40
0.8374980942539519
 50
232.0323599346036
 51
258.0277595682277
 73
     1
 72
     2
 10
38.77956238920185
 20
17.05412344898714
 40
0.5000000000001837
 50
281.9722404317716
 51
334.7717506865551
 73
     0
 72
     2
 10
37.60356026999875
 20
16.50003048239049
 40
1.800000000000975
 50
334.7717506865521
 51
385.2282493132144
 73
     0
 72
     2
 10
38.77956238920418
 20
15.94593751579865
 40
0.500000000000127
 50
25.22824931321658
 51
78.02775942566269
 73
     0
 72
     2
 10
39.0570099984163
 20
14.63753238883243
 40
0.8374980942523489
 50
101.9722405743433
 51
127.9676401381024
 73
     1
 72
     2
 10
37.60356026999902
 20
16.50003048239046
 40
1.525003812951864
 50
52.03235986189689
 51
127.9676401108024
 73
     0
 72
     2
 10
36.15011054246894
 20
14.63753238813961
 40
0.8374980942527107
 50
52.03235988919665
 51
178.3936084558003
 73
     1
 72
     2
 10
34.8131380929039
 20
14.67502667089739
 40
0.5000000000021903
 50
1.606391544199527
 51
11.53695903580613
 73
     0
 72
     1
 10
35.30303604145746
 20
14.57502667087138
 11
34.57198900227374
 21
14.57502667087144
 72
     2
 10
34.57198900227348
 20
11.17502667087142
 40
3.400000000000011
 50
89.99999999999557
 51
134.9986526660834
 73
     1
 72
     1
 10
32.16788248179103
 20
13.57924626112807
 11
26.45225913169042
 21
7.863891715193332
 72
     2
 10
22.91680836627509
 20
11.39950875968835
 40
4.999999999999952
 50
45.00134733391637
 51
90.00113939748338
 73
     0
 72
     1
 10
22.91670893508723
 20
6.399508760677051
 11
-4.499962216148503
 21
6.400053975113173
 72
     2
 10
-4.499999999999884
 20
4.500053975488798
 40
1.900000000000064
 50
89.99886060251682
 51
179.9999999999998
 73
     1
 72
     1
 10
-6.399999999999948
 20
4.500053975488803
 11
-6.400000000000005
 21
-3.499965721938565
 72
     2
 10
-6.900000000000007
 20
-3.499965721938569
 40
0.5000000000000018
 50
359.9999999999995
 51
450.0010337276769
 73
     0
 72
     1
 10
-6.900009020975772
 20
-3.999965721857194
 11
-12.90066004670871
 21
-3.999857458138471
 72
     1
 10
-12.90066004670871
 20
-3.999857458138471
 11
-12.90028298156537
 21
16.89949707072051
 72
     1
 10
-12.90028298156537
 20
16.89949707072051
 11
-10.90063480182945
 21
16.89949707072051
 72
     2
 10
-10.90063480182945
 20
17.89949707072051
 40
1.0
 50
270.0
 51
360.0
 73
     1
 72
     1
 10
-9.900634801829454
 20
17.89949707072051
 11
-9.900634801829454
 21
18.89949707072051
 72
     2
 10
-10.40063480182945
 20
18.89949707072051
 40
0.5
 50
0.0
 51
180.0
 73
     1
 72
     1
 10
-10.90063480182945
 20
18.89949707072051
 11
-10.90063480182945
 21
17.89949707072051
 72
     1
 10
-10.90063480182945
 20
17.89949707072051
 11
-12.90055639904014
 21
17.89949707072051
 72
     1
 10
-12.90055639904014
 20
17.89949707072051
 11
-12.90055639904014
 21
22.96949708501589
 72
     2
 10
-12.90055639903821
 20
23.39949707786818
 40
0.429999992852288
 50
269.9999999997425
 51
449.9999999997425
 73
     1
 72
     1
 10
-12.90055639903627
 20
23.82949707072047
 11
-12.90055639903627
 21
28.89949707072048
 72
     1
 10
-12.90055639903627
 20
28.89949707072048
 11
-10.90063480182957
 21
28.89949707072048
 72
     1
 10
-10.90063480182957
 20
28.89949707072048
 11
-10.90063480182945
 21
27.99949707072045
 72
     2
 10
-10.40063480182945
 20
27.99949707072048
 40
0.5
 50
180.0000000000032
 51
360.0000000000032
 73
     1
 72
     1
 10
-9.900634801829454
 20
27.99949707072051
 11
-9.900634801829454
 21
28.32214680153084
 72
     1
 10
-9.900634801829454
 20
28.32214680153084
 11
-4.875763671233045
 21
25.42103610163774
 72
     2
 10
-3.675763671232897
 20
27.4994970707206
 40
2.400000000000257
 50
239.9999999999995
 51
270.0000000000002
 73
     1
 72
     1
 10
-3.675763671232886
 20
25.09949707072035
 11
-2.900634801827976
 21
25.09949707072034
 72
     1
 10
-2.900634801827976
 20
25.09949707072034
 11
-2.900634801828005
 21
24.29949707072271
 72
     2
 10
-2.700634801828044
 20
24.29949707072271
 40
0.1999999999999602
 50
180.0
 51
270.0000000000081
 73
     1
 72
     1
 10
-2.700634801828016
 20
24.09949707072275
 11
1.899365198174308
 21
24.09949707072275
 72
     2
 10
1.899365198174308
 20
24.29949707072271
 40
0.1999999999999602
 50
270.0
 51
360.0
 73
     1
 72
     1
 10
2.099365198174268
 20
24.29949707072271
 11
2.099365198174268
 21
25.09949707072278
 72
     1
 10
2.099365198174268
 20
25.09949707072278
 11
12.29936519817391
 21
25.09949707072278
 72
     1
 10
12.29936519817391
 20
25.09949707072278
 11
12.29936519817391
 21
24.29949707072274
 72
     2
 10
12.4993651981739
 20
24.29949707072274
 40
0.1999999999999886
 50
180.0
 51
270.0
 73
     1
 72
     1
 10
12.4993651981739
 20
24.09949707072275
 11
17.09936519817398
 21
24.09949707072278
 72
     2
 10
17.09936519817398
 20
24.29949707072277
 40
0.1999999999999886
 50
270.0
 51
359.9999999999797
 73
     1
 72
     1
 10
17.29936519817397
 20
24.2994970707227
 11
17.29936519817426
 21
25.09949707072022
 72
     1
 10
17.29936519817426
 20
25.09949707072022
 11
27.62808390606063
 21
25.09949707072022
 72
     2
 10
27.62808390606063
 20
28.49949707071909
 40
3.399999999998875
 50
269.9999999999999
 51
300.0
 73
     1
 72
     1
 10
29.32808390606007
 20
25.55501069785298
 11
34.84936519817271
 21
28.74272393812588
 72
     2
 10
33.89936519817326
 20
30.38817220531536
 40
1.899999999998898
 50
300.0
 51
360.0000000000008
 73
     1
 72
     1
 10
35.79936519817215
 20
30.38817220531539
 11
35.7993651981721
 21
31.59949707257039
 72
     1
 10
35.7993651981721
 20
31.59949707257039
 11
37.05772441167309
 21
31.59949707257107
 72
     2
 10
38.39936519817319
 20
31.99949707257033
 40
1.399999999999997
 50
196.6015495989885
 51
269.9999999999994
 73
     1
 97
        1
330
787D
 92
        1
 93
      112
 72
     2
 10
35.29936520027508
 20
44.19949707257049
 40
0.8000000000000113
 50
270.0
 51
360.000000000001
 73
     1
 72
     1
 10
36.09936520027509
 20
44.19949707257051
 11
36.09936520027506
 21
45.49949707257034
 72
     1
 10
36.09936520027506
 20
45.49949707257034
 11
38.59936519817313
 21
45.49949707257034
 72
     1
 10
38.59936519817313
 20
45.49949707257034
 11
38.59936519817313
 21
44.48939502112312
 72
     2
 10
39.09936519817316
 20
44.48939502112312
 40
0.5000000000000285
 50
180.0
 51
258.4630409660689
 73
     1
 72
     2
 10
38.89936519817315
 20
44.489395021127
 40
0.4999999999999982
 50
281.5369590317013
 51
360.0
 73
     1
 72
     1
 10
39.39936519817314
 20
44.489395021127
 11
39.39936519817314
 21
45.49949707257034
 72
     1
 10
39.39936519817314
 20
45.49949707257034
 11
40.69936519817315
 21
45.49949707257034
 72
     1
 10
40.69936519817315
 20
45.49949707257034
 11
40.69936519817315
 21
31.99949707257037
 72
     1
 10
40.69936519817315
 20
31.99949707257037
 11
38.39936519817314
 21
31.99949707257033
 72
     1
 10
38.39936519817314
 20
31.99949707257033
 11
38.39936519817312
 21
32.19949707257049
 72
     2
 10
37.59936519817311
 20
32.19949707257038
 40
0.8000000000000113
 50
0.0000000000081422
 51
90.0
 73
     1
 72
     1
 10
37.59936519817311
 20
32.99949707257039
 11
35.79936519817213
 21
32.99949707257039
 72
     1
 10
35.79936519817213
 20
32.99949707257039
 11
35.79936519817213
 21
33.59949707072053
 72
     2
 10
34.39936519817215
 20
33.59949707072053
 40
1.399999999999977
 50
0.0
 51
89.99999999999884
 73
     1
 72
     1
 10
34.39936519817218
 20
34.99949707072051
 11
32.69936519817321
 21
34.99949707072051
 72
     2
 10
32.69936519817321
 20
33.99949707072051
 40
1.0
 50
90.0
 51
180.0000000000163
 73
     1
 72
     1
 10
31.69936519817321
 20
33.99949707072023
 11
31.69936519817324
 21
33.8994970707204
 72
     2
 10
31.99936519817317
 20
33.89949707072049
 40
0.2999999999999261
 50
180.0000000000163
 51
269.9999999999946
 73
     1
 72
     1
 10
31.99936519817314
 20
33.59949707072056
 11
34.39936519817326
 21
33.59949707072056
 72
     1
 10
34.39936519817326
 20
33.59949707072056
 11
34.39936519817326
 21
30.38817220531527
 72
     2
 10
33.89936519817323
 20
30.38817220531527
 40
0.5000000000000285
 50
360.0
 51
419.9999999999982
 73
     0
 72
     1
 10
34.14936519817326
 20
29.95515950342304
 11
28.62808390606062
 21
26.76744626315015
 72
     2
 10
27.62808390606063
 20
28.49949707071903
 40
2.0
 50
60.00000000000023
 51
90.00000000000019
 73
     0
 72
     1
 10
27.62808390606063
 20
26.49949707071903
 11
10.59936519817319
 21
26.49949707071903
 72
     1
 10
10.59936519817319
 20
26.49949707071903
 11
10.19936519817435
 21
26.09949707072022
 72
     1
 10
10.19936519817435
 20
26.09949707072022
 11
9.799365198173234
 21
26.49949707072167
 72
     1
 10
9.799365198173234
 20
26.49949707072167
 11
-0.0006348018276583
 21
26.49949707072167
 72
     1
 10
-0.0006348018276583
 20
26.49949707072167
 11
-0.4006348018279767
 21
26.09949707072076
 72
     1
 10
-0.4006348018279767
 20
26.09949707072076
 11
-0.8006348018276412
 21
26.49949707072051
 72
     1
 10
-0.8006348018276412
 20
26.49949707072051
 11
-3.675763671233056
 21
26.49949707072051
 72
     2
 10
-3.675763671233053
 20
27.49949707072061
 40
1.000000000000099
 50
90.00000000000015
 51
120.0000000000007
 73
     0
 72
     1
 10
-4.175763671233113
 20
26.63347166693609
 11
-10.20063480182952
 21
30.11193263601879
 72
     2
 10
-10.90063480182953
 20
28.89949707072054
 40
1.400000000000041
 50
60.0000000000006
 51
90.00000000000385
 73
     1
 72
     1
 10
-10.90063480182962
 20
30.29949707072058
 11
-12.90063480182462
 21
30.29949707072046
 72
     1
 10
-12.90063480182462
 20
30.29949707072046
 11
-12.90063480182462
 21
33.59949707072459
 72
     1
 10
-12.90063480182462
 20
33.59949707072459
 11
-10.20063480177282
 21
33.59949707072457
 72
     2
 10
-10.20063480177282
 20
33.89949707072415
 40
0.299999999999585
 50
270.0
 51
359.9999999999837
 73
     1
 72
     1
 10
-9.900634801773236
 20
33.89949707072407
 11
-9.900634801773207
 21
33.99949707072179
 72
     2
 10
-10.90063480177281
 20
33.99949707072179
 40
0.999999999999602
 50
0.0
 51
90.0
 73
     1
 72
     1
 10
-10.90063480177281
 20
34.99949707072139
 11
-13.30063480180055
 21
34.99949707072145
 72
     2
 10
-13.30063480180058
 20
33.9994970706955
 40
1.000000000025949
 50
89.99999999999836
 51
180.0
 73
     1
 72
     1
 10
-14.30063480182653
 20
33.9994970706955
 11
-14.30063480182653
 21
-13.5005029247328
 72
     2
 10
-12.80063480182653
 20
-13.5005029247328
 40
1.5
 50
180.0
 51
270.0
 73
     1
 72
     1
 10
-12.80063480182653
 20
-15.00050292473281
 11
-5.19999999999996
 21
-15.00050292473281
 72
     2
 10
-5.19999999999996
 20
-14.80050292473282
 40
0.1999999999999886
 50
270.0
 51
359.999999999998
 73
     1
 72
     1
 10
-4.999999999999971
 20
-14.80050292473282
 11
-4.999999999999914
 21
-13.60050292475435
 72
     2
 10
-5.19999999999996
 20
-13.60050292475434
 40
0.2000000000000455
 50
359.999999999998
 51
450.0000000000081
 73
     1
 72
     1
 10
-5.199999999999988
 20
-13.4005029247543
 11
-5.390575869498007
 21
-13.40050292475432
 72
     2
 10
-5.390575869498081
 20
-12.90050292475433
 40
0.4999999999999929
 50
89.99999999999156
 51
203.4889019113232
 73
     0
 72
     2
 10
-8.600556399034324
 20
-11.50550292475499
 40
2.999999999999993
 50
336.5110980886776
 51
398.8244586925554
 73
     1
 72
     2
 10
-6.837909604689983
 20
-10.08705922534796
 40
0.7375000000000149
 50
38.82445869255385
 51
218.8244586925538
 73
     1
 72
     2
 10
-8.600556399034211
 20
-11.50550292475496
 40
1.524999999999854
 50
321.1755413074414
 51
398.8244586927322
 73
     0
 72
     2
 10
-6.837909604716241
 20
-12.92394662414975
 40
0.7374999999719004
 50
141.1755413072657
 51
168.8230001411709
 73
     1
 72
     2
 10
-8.051938000913461
 20
-12.68406894040371
 40
0.5000000000008514
 50
11.17699985882694
 51
65.03818519606145
 73
     0
 72
     2
 10
-8.600556399034269
 20
-11.50550292475494
 40
1.800000000000407
 50
65.0381851960611
 51
114.9893517040363
 73
     0
 72
     2
 10
-9.149741163880449
 20
-12.68380513304361
 40
0.5000000000015185
 50
114.9893517040377
 51
168.7109791280229
 73
     0
 72
     2
 10
-10.37555639903485
 20
-12.9285029247563
 40
0.7500000000007634
 50
11.28902087197611
 51
38.4162019613841
 73
     1
 72
     2
 10
-8.600556399034839
 20
-11.50550292475436
 40
1.525000000000066
 50
141.1323712046115
 51
218.8676288019976
 73
     0
 72
     2
 10
-10.37555639903697
 20
-10.08250292475826
 40
0.7500000000001915
 50
321.5837980525042
 51
518.3626418190773
 73
     1
 72
     2
 10
-8.600556399034241
 20
-11.505502924755
 40
2.999999999999977
 50
145.4923678270225
 51
179.9999999999996
 73
     1
 72
     2
 10
-12.25055639903414
 20
-11.50550292475498
 40
0.6499999999999205
 50
0.0000000000003053
 51
180.0000000000003
 73
     0
 72
     1
 10
-12.90055639903406
 20
-11.50550292475498
 11
-12.90055639903411
 21
-5.899866481293486
 72
     2
 10
-12.40055639903417
 20
-5.899866481293479
 40
0.4999999999999432
 50
179.9999999999992
 51
270.0010337276836
 73
     0
 72
     1
 10
-12.40054737805835
 20
-5.399866481374914
 11
-6.900034279708108
 21
-5.399965721366143
 72
     2
 10
-6.900000000000034
 20
-3.499965721675317
 40
1.900000000000062
 50
269.9989662723181
 51
360.0000000000002
 73
     1
 72
     1
 10
-4.999999999999971
 20
-3.499965721675309
 11
-5.0
 21
4.499990978942811
 72
     2
 10
-4.5
 20
4.499990978942811
 40
0.5
 50
180.0
 51
270.0010337276836
 73
     0
 72
     1
 10
-4.499990979024175
 20
4.999990978861433
 11
22.91668046509446
 21
4.999496328601679
 72
     2
 10
22.9167959335848
 20
11.39949632756005
 40
6.400000000000013
 50
269.9989662723181
 51
314.998652666084
 73
     1
 72
     1
 10
27.44217291331651
 20
6.87390651060641
 11
33.15780869611399
 21
12.58927348865339
 72
     2
 10
34.57198900228014
 20
11.17502667085537
 40
2.000000000000001
 50
225.0013473339162
 51
269.9999999999998
 73
     0
 72
     1
 10
34.57198900228013
 20
13.17502667085537
 11
41.59996023022796
 21
13.17502667085537
 72
     1
 10
41.59996023022796
 20
13.17502667085537
 11
41.59999541613879
 21
5.999023861561823
 72
     2
 10
42.59999541612685
 20
5.999028764837894
 40
1.000000000000083
 50
180.0002809370246
 51
269.9993434047934
 73
     1
 72
     1
 10
42.59998395637865
 20
4.999028764903471
 11
43.39998095632284
 21
4.999019597139302
 72
     1
 10
43.39998095632284
 20
4.999019597139302
 11
43.79998554019448
 21
5.399015013212199
 72
     1
 10
43.79998554019448
 20
5.399015013212199
 11
50.09998853978237
 21
5.398942816763828
 72
     1
 10
50.09998853978237
 20
5.398942816763828
 11
50.49998395585754
 21
4.998938232890175
 72
     1
 10
50.49998395585754
 20
4.998938232890175
 11
52.29998095573967
 21
4.998917605377506
 72
     2
 10
52.29998897756404
 20
5.698917605343829
 40
0.7000000000122873
 50
269.9993434047422
 51
449.9993434047421
 73
     1
 72
     1
 10
52.29999699938841
 20
6.398917605310153
 11
43.0
 21
6.399024180933743
 72
     1
 10
43.0
 20
6.399024180933743
 11
42.99999999999997
 21
13.17502667087143
 72
     2
 10
41.59999999999996
 20
13.17502667087143
 40
1.400000000000005
 50
0.0000000000000727
 51
90.00000000000115
 73
     1
 72
     1
 10
41.59999999999993
 20
14.57502667087144
 11
41.01814137475995
 21
14.57502667087144
 72
     2
 10
41.01814137475996
 20
15.07502667087146
 40
0.5000000000000285
 50
90.00000000000163
 51
202.6521938425299
 73
     0
 72
     2
 10
37.60356026999921
 20
16.50003048239033
 40
3.199999997815175
 50
337.3478061574704
 51
410.5686448509185
 73
     1
 72
     2
 10
39.95362746765517
 20
19.35785905498457
 40
0.5000000000003084
 50
129.4313551490803
 51
240.0013472411933
 73
     0
 72
     1
 10
39.70363764949587
 20
19.79087763520601
 11
41.50024157814345
 21
20.82809107116799
 72
     2
 10
40.00030266918867
 20
23.42620255249512
 40
3.000000000000056
 50
299.9986527588051
 51
359.9986526237575
 73
     1
 72
     1
 10
43.0003026683592
 20
23.42613200404004
 11
43.00036082848271
 21
25.89936630520157
 72
     1
 10
43.00036082848271
 20
25.89936630520157
 11
46.30019974149795
 21
25.89936630520167
 72
     2
 10
46.30019974149791
 20
26.59936630520159
 40
0.6999999999999176
 50
270.0000000000023
 51
455.0148164792164
 73
     1
 72
     1
 10
46.23901039500037
 20
27.29668679384012
 11
43.18677855241443
 21
27.02885575366574
 72
     2
 10
43.09936520027503
 20
28.02502788029233
 40
0.9999999999999985
 50
84.98518352078063
 51
179.9999999999998
 73
     0
 72
     1
 10
42.09936520027503
 20
28.02502788029233
 11
42.09936520027508
 21
51.49949707257056
 72
     2
 10
41.59936520027492
 20
51.49949707257056
 40
0.5000000000001706
 50
0.0
 51
90.0
 73
     1
 72
     1
 10
41.59936520027492
 20
51.99949707257073
 11
35.34936520027498
 21
51.99949707257073
 72
     2
 10
35.34936520027498
 20
51.7494970725707
 40
0.2500000000000284
 50
90.0
 51
180.0
 73
     1
 72
     1
 10
35.09936520027495
 20
51.7494970725707
 11
35.09936520027495
 21
50.64949707257054
 72
     2
 10
35.34936520027495
 20
50.64949707257054
 40
0.25
 50
180.0
 51
270.0
 73
     1
 72
     1
 10
35.34936520027495
 20
50.39949707257054
 11
40.44936520027493
 21
50.39949707257054
 72
     2
 10
40.44936520027493
 20
50.14949707257054
 40
0.25
 50
270.0
 51
360.0
 73
     0
 72
     1
 10
40.69936520027494
 20
50.14949707257054
 11
40.69936520027499
 21
47.14949707257065
 72
     2
 10
40.44936520027488
 20
47.14949707257065
 40
0.2500000000001137
 50
360.0
 51
450.0
 73
     0
 72
     1
 10
40.44936520027488
 20
46.89949707257054
 11
37.09936520027495
 21
46.89949707257054
 72
     1
 10
37.09936520027495
 20
46.89949707257054
 11
37.099365200275
 21
47.64949707257051
 72
     2
 10
36.84936520027506
 20
47.64949707257055
 40
0.2499999999999432
 50
359.9999999999902
 51
495.0000000000046
 73
     1
 72
     1
 10
36.67258850497845
 20
47.82627376786713
 11
35.15794384403782
 21
46.31162910692658
 72
     2
 10
35.29936520027525
 20
46.17020775068913
 40
0.2000000000001905
 50
134.9999999999942
 51
179.9999999999959
 73
     1
 72
     1
 10
35.09936520027506
 20
46.17020775068914
 11
35.099365200275
 21
43.59949707257058
 72
     2
 10
35.29936520027509
 20
43.59949707257057
 40
0.2000000000000881
 50
179.9999999999959
 51
269.9999999999959
 73
     1
 97
        1
330
787C
 75
     0
 76
     1
 98
        1
 10
0.0
 20
0.0
1001
ACAD
1010
0.0
1020
0.0
1030
0.0
  0
ENDBLK
  5
735C
330
735A
100
AcDbEntity
  8
0
 62
     2
 48
3.0
100
AcDbBlockEnd
  0
BLOCK
  5
7419
330
7418
100
AcDbEntity
  8
0
 62
     2
 48
3.0
100
AcDbBlockBegin
  2
08678
 70
     0
 10
0.0
 20
0.0
 30
0.0
  3
08678
  1
I:\DWG Master Blocks\08678.dwg
  0
LWPOLYLINE
  5
7883
102
{ACAD_REACTORS
330
7884
102
}
330
7418
100
AcDbEntity
  8
APL Joinery
  6
Continuous
370
     0
100
AcDbPolyline
 90
      126
 70
     1
 43
0.0
 10
41.66194517346911
 20
16.5483739142212
 42
0.3440117692688345
 10
43.53835963593655
 20
16.54837391422308
 42
-0.5143431142500389
 10
44.8450295195862
 20
16.16207008739172
 42
0.3196562203749147
 10
45.31752455849505
 20
15.82561958511831
 10
46.00000000117188
 20
15.82561958511826
 42
-0.4142135623730951
 10
48.00000000117188
 20
13.82561958511826
 10
48.00000000117188
 20
6.400000000000147
 10
57.29999700265569
 20
6.400000000000261
 42
-1.000000000000081
 10
57.2999970026558
 20
5.000000000000056
 10
46.99999999999977
 20
5.0
 42
-0.4142135623730617
 10
46.49999999999965
 20
5.500000000000056
 10
46.49999999999965
 20
13.72499618775754
 42
0.4142135623730951
 10
45.99999999999965
 20
14.22499618775754
 10
39.8001524040385
 20
14.22499618775754
 42
-0.4142135623730951
 10
38.8001524040385
 20
15.22499618775754
 10
38.8001524040385
 20
18.20000000000209
 42
0.4142135623730951
 10
38.3001524040385
 20
18.70000000000209
 10
17.8159913281554
 20
18.70000000000209
 42
0.4142135623730951
 10
17.3159913281554
 20
18.20000000000209
 10
17.3159913281554
 20
15.2249961877576
 42
-0.4142135623730951
 10
16.3159913281554
 20
14.22499618775759
 10
9.221595303580102
 20
14.22499618775754
 10
9.221595303580215
 20
13.70000000000215
 42
-0.4322173332770392
 10
6.032537624680117
 20
10.70000000000215
 10
-6.499999999999772
 20
10.7000000000022
 42
0.4142135623730951
 10
-7.499999999999772
 20
9.700000000002205
 10
-7.5
 20
1.600000000002069
 10
-5.600000000000022
 20
1.600000000002069
 42
-0.4142135623730118
 10
-5.399999999999977
 20
1.40000000000208
 10
-5.399999999999863
 20
-0.7999999999979082
 42
-0.9999999999999998
 10
-6.200000000000045
 20
-0.7999999999979082
 10
-6.200000000000045
 20
0.1000000000020691
 10
-7.5
 20
0.1000000000020691
 10
-7.5
 20
-13.59999999999792
 10
-5.200000000000272
 20
-13.59999999999792
 10
-5.200000000000272
 20
-12.79999999999791
 42
-0.4142135623730951
 10
-5.000000000000227
 20
-12.59999999999792
 10
-3.900000000000204
 20
-12.59999999999797
 42
-0.4142135623730951
 10
-3.700000000000272
 20
-12.79999999999791
 10
-3.700000000000272
 20
-13.89999999999793
 10
-0.2000000000000455
 20
-13.89999999999787
 42
-0.4142135623730951
 10
0.0
 20
-14.09999999999792
 10
0.0
 20
-14.89999999999793
 42
-0.4142135623730951
 10
-0.2000000000000455
 20
-15.09999999999792
 10
-7.800000000000068
 20
-15.09999999999792
 42
-0.4142135623730951
 10
-9.300000000000068
 20
-13.59999999999792
 10
-9.300000000000068
 20
20.65000000000208
 42
-0.4142135623730951
 10
-9.050000000000068
 20
20.90000000000208
 10
-8.27474487139159
 20
20.90000000000214
 42
-0.356393958692598
 10
-6.805051025721695
 20
19.70000000000215
 42
-0.4744978678079126
 10
-7.050000000000068
 20
19.40000000000202
 10
-7.800000000000068
 20
19.40000000000208
 10
-7.800000000000068
 20
16.40000000000208
 10
-7.699999999999818
 20
16.40000000000213
 42
-0.4142135623730951
 10
-7.499999999999772
 20
16.20000000000209
 10
-7.5
 20
13.70000000000215
 42
0.4142135623730951
 10
-6.5
 20
12.70000000000215
 10
-0.7000000000000455
 20
12.70000000000215
 10
-0.3000000000000682
 20
12.30000000000206
 10
0.1000000000000227
 20
12.70000000000215
 10
6.215991327492247
 20
12.70000000000215
 42
0.4142135623730951
 10
7.215991327492247
 20
13.70000000000215
 10
7.215991327492247
 20
16.10000000028026
 42
-0.4142135623730951
 10
8.215991327492247
 20
17.10000000028026
 10
11.68057184447843
 20
17.10000000028026
 42
-0.226172756148961
 10
12.33122118996744
 20
16.7898144197157
 42
0.3440117692688793
 10
14.15947212126491
 20
16.36740494164036
 42
-0.1139152748892414
 10
14.52802058052998
 20
16.44547537635316
 42
0.2345456279508703
 10
14.92979703857918
 20
16.63592934978021
 42
0.2237853363051945
 10
15.27521639374697
 20
18.13095559931617
 42
0.2345456279510232
 10
14.99770869000019
 20
18.47835524323994
 42
-0.1139152748892648
 10
14.7007614650156
 20
18.71018558029016
 42
0.3440117692689895
 10
12.8725105337171
 20
19.13259505836254
 42
-0.5515352456530599
 10
11.68166644581129
 20
19.90000000000174
 10
8.699999999999931
 20
19.90000000000179
 42
-1.000000000000113
 10
8.700000000000272
 20
20.90000000000214
 10
21.29999999999995
 20
20.90000000000208
 10
21.69999999999993
 20
20.50000000000199
 10
22.10000000000014
 20
20.90000000000208
 10
26.69999999999993
 20
20.90000000000208
 10
26.70000000000005
 20
22.20000000000215
 42
-0.4142135623731782
 10
26.89999999999998
 20
22.40000000000214
 10
28.9000000000002
 20
22.40000000000208
 10
28.9000000000002
 20
26.40000000000208
 10
27.20000000000005
 20
26.40000000000208
 42
-0.9999999999999998
 10
27.20000000000005
 20
27.40000000000208
 10
28.9000000000002
 20
27.40000000000208
 10
28.9000000000002
 20
32.80000000000206
 10
27.19999999999993
 20
32.80000000000206
 42
-0.4142135623730951
 10
26.69999999999993
 20
33.30000000000206
 10
26.69999999999993
 20
34.85000000000201
 42
-0.9999999999999998
 10
27.69999999999993
 20
34.85000000000201
 10
27.69999999999993
 20
34.10000000000201
 10
29.19999999999993
 20
34.10000000000201
 10
29.19999999999993
 20
39.60000000000298
 10
27.70000000000016
 20
39.60000000000298
 10
27.69999999999993
 20
38.85000000000207
 42
-0.9999999999999998
 10
26.69999999999993
 20
38.85000000000207
 10
26.69999999999993
 20
40.40000000000214
 42
-0.4142135623730951
 10
27.19999999999993
 20
40.90000000000213
 10
28.40000000000021
 20
40.90000000000208
 10
28.40000000000032
 20
42.70000000000215
 42
-0.4142135623730118
 10
28.60000000000037
 20
42.90000000000219
 10
30.5
 20
42.90000000000214
 42
-0.4142135623729286
 10
30.69999999999993
 20
42.70000000000209
 10
30.70000000000005
 20
22.0000000000021
 42
0.4142135623730785
 10
31.70000000000005
 20
21.00000000000211
 10
36.95421535940443
 20
21.00000000000216
 42
0.1270166537925872
 10
45.66842788837152
 20
23.25000000000233
 42
0.2728421326631841
 10
46.70018205181941
 20
25.00000000000216
 10
46.70018205181918
 20
25.70845599941816
 42
-0.3888043079714917
 10
47.88654469403787
 20
27.00347976403282
 10
51.23908461236033
 20
27.29766261116208
 42
-1.044748832512541
 10
51.30027395885815
 20
25.90034212252329
 10
48.00018205181936
 20
25.90034212252329
 10
48.0001820518089
 20
24.25166852264647
 42
-0.1313259594335767
 10
47.73351538514305
 20
23.25389321951127
 42
-0.136620875811071
 10
46.39461226577862
 20
21.93750000001512
 42
-0.024170952955879
 10
44.70376152560937
 20
21.10601960944905
 42
0.5472548167821746
 10
44.56884659778928
 20
20.2733685641623
 42
-0.9999985058097129
 10
43.53835963593667
 20
18.9528728795949
 42
0.3440117692690878
 10
41.66194517346844
 20
18.9528728795965
 42
-0.1139152748891516
 10
41.32043140605889
 20
18.79384047323702
 42
0.2345456279507033
 10
40.97184177771566
 20
18.51782904367621
 42
0.2237853363052803
 10
40.97184177771589
 20
16.98341775014131
 42
0.2345456279508953
 10
41.32043140605936
 20
16.7074063205805
 42
-0.1139152748892422
  0
HATCH
  5
7884
330
7418
100
AcDbEntity
  8
APL Hatch
100
AcDbHatch
 10
0.0
 20
0.0
 30
0.0
210
0.0
220
0.0
230
1.0
  2
SOLID
 70
     1
 71
     1
 91
        1
 92
        1
 93
      126
 72
     2
 10
42.60015240470163
 20
17.75062339690923
 40
1.52500381224462
 50
232.0323599345711
 51
307.9676400655434
 73
     1
 72
     2
 10
44.05360213032579
 20
15.88812530206742
 40
0.837498094253304
 50
232.0323599344506
 51
340.9072094075262
 73
     0
 72
     2
 10
45.31752455849506
 20
16.32561958511848
 40
0.5000000000001585
 50
199.0927905924803
 51
269.9999999999984
 73
     1
 72
     1
 10
45.31752455849505
 20
15.82561958511831
 11
46.00000000117188
 21
15.82561958511826
 72
     2
 10
46.00000000117188
 20
13.82561958511826
 40
2.0
 50
270.0
 51
360.0
 73
     0
 72
     1
 10
48.00000000117188
 20
13.82561958511826
 11
48.00000000117188
 21
6.400000000000147
 72
     1
 10
48.00000000117188
 20
6.400000000000147
 11
57.29999700265569
 21
6.400000000000261
 72
     2
 10
57.2999970026558
 20
5.700000000000159
 40
0.7000000000001024
 50
269.9999999999907
 51
450.0
 73
     0
 72
     1
 10
57.2999970026558
 20
5.000000000000056
 11
46.99999999999977
 21
5.0
 72
     2
 10
46.99999999999977
 20
5.500000000000113
 40
0.5000000000001137
 50
90.0
 51
179.9999999999935
 73
     0
 72
     1
 10
46.49999999999965
 20
5.500000000000056
 11
46.49999999999965
 21
13.72499618775754
 72
     2
 10
45.99999999999965
 20
13.72499618775754
 40
0.5
 50
0.0
 51
90.0
 73
     1
 72
     1
 10
45.99999999999965
 20
14.22499618775754
 11
39.8001524040385
 21
14.22499618775754
 72
     2
 10
39.8001524040385
 20
15.22499618775754
 40
1.0
 50
90.0
 51
180.0
 73
     0
 72
     1
 10
38.8001524040385
 20
15.22499618775754
 11
38.8001524040385
 21
18.20000000000209
 72
     2
 10
38.3001524040385
 20
18.20000000000209
 40
0.5
 50
0.0
 51
90.0
 73
     1
 72
     1
 10
38.3001524040385
 20
18.70000000000209
 11
17.8159913281554
 21
18.70000000000209
 72
     2
 10
17.8159913281554
 20
18.20000000000209
 40
0.5
 50
90.0
 51
180.0
 73
     1
 72
     1
 10
17.3159913281554
 20
18.20000000000209
 11
17.3159913281554
 21
15.2249961877576
 72
     2
 10
16.3159913281554
 20
15.2249961877576
 40
1.0
 50
360.0
 51
450.0
 73
     0
 72
     1
 10
16.3159913281554
 20
14.22499618775759
 11
9.221595303580102
 21
14.22499618775754
 72
     1
 10
9.221595303580102
 20
14.22499618775754
 11
9.221595303580215
 21
13.70000000000215
 72
     2
 10
6.215991327492274
 20
13.70000000000217
 40
3.005603976087941
 50
0.000000000000458
 51
93.4993500679994
 73
     0
 72
     1
 10
6.032537624680117
 20
10.70000000000215
 11
-6.499999999999772
 21
10.7000000000022
 72
     2
 10
-6.499999999999772
 20
9.700000000002205
 40
1.0
 50
90.0
 51
180.0
 73
     1
 72
     1
 10
-7.499999999999772
 20
9.700000000002205
 11
-7.5
 21
1.600000000002069
 72
     1
 10
-7.5
 20
1.600000000002069
 11
-5.600000000000022
 21
1.600000000002069
 72
     2
 10
-5.600000000000022
 20
1.400000000002023
 40
0.2000000000000455
 50
270.0
 51
359.9999999999837
 73
     0
 72
     1
 10
-5.399999999999977
 20
1.40000000000208
 11
-5.399999999999863
 21
-0.7999999999979082
 72
     2
 10
-5.799999999999954
 20
-0.7999999999979082
 40
0.400000000000091
 50
360.0
 51
540.0
 73
     0
 72
     1
 10
-6.200000000000045
 20
-0.7999999999979082
 11
-6.200000000000045
 21
0.1000000000020691
 72
     1
 10
-6.200000000000045
 20
0.1000000000020691
 11
-7.5
 21
0.1000000000020691
 72
     1
 10
-7.5
 20
0.1000000000020691
 11
-7.5
 21
-13.59999999999792
 72
     1
 10
-7.5
 20
-13.59999999999792
 11
-5.200000000000272
 21
-13.59999999999792
 72
     1
 10
-5.200000000000272
 20
-13.59999999999792
 11
-5.200000000000272
 21
-12.79999999999791
 72
     2
 10
-5.000000000000255
 20
-12.79999999999793
 40
0.200000000000017
 50
180.0000000000081
 51
270.0000000000081
 73
     0
 72
     1
 10
-5.000000000000227
 20
-12.59999999999792
 11
-3.900000000000204
 21
-12.59999999999797
 72
     2
 10
-3.900000000000204
 20
-12.79999999999791
 40
0.1999999999999318
 50
270.0
 51
360.0
 73
     0
 72
     1
 10
-3.700000000000272
 20
-12.79999999999791
 11
-3.700000000000272
 21
-13.89999999999793
 72
     1
 10
-3.700000000000272
 20
-13.89999999999793
 11
-0.2000000000000455
 21
-13.89999999999787
 72
     2
 10
-0.2000000000000455
 20
-14.09999999999792
 40
0.2000000000000455
 50
270.0
 51
360.0
 73
     0
 72
     1
 10
0.0
 20
-14.09999999999792
 11
0.0
 21
-14.89999999999793
 72
     2
 10
-0.200000000000017
 20
-14.8999999999979
 40
0.200000000000017
 50
0.0000000000081422
 51
90.00000000000815
 73
     0
 72
     1
 10
-0.2000000000000455
 20
-15.09999999999792
 11
-7.800000000000068
 21
-15.09999999999792
 72
     2
 10
-7.800000000000068
 20
-13.59999999999792
 40
1.5
 50
90.0
 51
180.0
 73
     0
 72
     1
 10
-9.300000000000068
 20
-13.59999999999792
 11
-9.300000000000068
 21
20.65000000000208
 72
     2
 10
-9.050000000000068
 20
20.65000000000208
 40
0.25
 50
180.0
 51
270.0
 73
     0
 72
     1
 10
-9.050000000000068
 20
20.90000000000208
 11
-8.27474487139159
 21
20.90000000000214
 72
     2
 10
-8.274744871391595
 20
19.40000000000214
 40
1.499999999999992
 50
270.0000000000002
 51
348.4630409671843
 73
     0
 72
     2
 10
-7.050000000000159
 20
19.65000000000216
 40
0.2500000000001399
 50
348.463040967195
 51
449.999999999979
 73
     0
 72
     1
 10
-7.050000000000068
 20
19.40000000000202
 11
-7.800000000000068
 21
19.40000000000208
 72
     1
 10
-7.800000000000068
 20
19.40000000000208
 11
-7.800000000000068
 21
16.40000000000208
 72
     1
 10
-7.800000000000068
 20
16.40000000000208
 11
-7.699999999999818
 21
16.40000000000213
 72
     2
 10
-7.699999999999818
 20
16.20000000000209
 40
0.2000000000000455
 50
270.0
 51
360.0
 73
     0
 72
     1
 10
-7.499999999999772
 20
16.20000000000209
 11
-7.5
 21
13.70000000000215
 72
     2
 10
-6.5
 20
13.70000000000215
 40
1.0
 50
180.0
 51
270.0
 73
     1
 72
     1
 10
-6.5
 20
12.70000000000215
 11
-0.7000000000000455
 21
12.70000000000215
 72
     1
 10
-0.7000000000000455
 20
12.70000000000215
 11
-0.3000000000000682
 21
12.30000000000206
 72
     1
 10
-0.3000000000000682
 20
12.30000000000206
 11
0.1000000000000227
 21
12.70000000000215
 72
     1
 10
0.1000000000000227
 20
12.70000000000215
 11
6.215991327492247
 21
12.70000000000215
 72
     2
 10
6.215991327492247
 20
13.70000000000215
 40
1.0
 50
270.0
 51
360.0
 73
     1
 72
     1
 10
7.215991327492247
 20
13.70000000000215
 11
7.215991327492247
 21
16.10000000028026
 72
     2
 10
8.215991327492247
 20
16.10000000028026
 40
1.0
 50
180.0
 51
270.0
 73
     0
 72
     1
 10
8.215991327492247
 20
17.10000000028026
 11
11.68057184447843
 21
17.10000000028026
 72
     2
 10
11.68057184447851
 20
16.26250190602697
 40
0.8374980942532843
 50
269.9999999999949
 51
320.9772944068379
 73
     0
 72
     2
 10
13.5159913274923
 20
17.7500000000022
 40
1.525003812244683
 50
219.022705593151
 51
294.9579857241323
 73
     1
 72
     2
 10
14.51285742702345
 20
15.6081145600658
 40
0.8374980942531708
 50
245.0420142758706
 51
271.037413909203
 73
     0
 72
     2
 10
14.53707323008847
 20
16.94539341917231
 40
0.5000000000001656
 50
268.9625860908094
 51
321.7620963301682
 73
     1
 72
     2
 10
13.5159913274922
 20
17.75000000000205
 40
1.800000000663297
 50
321.762096330164
 51
372.2185949871879
 73
     1
 72
     2
 10
14.78654276441137
 20
18.02513459954564
 40
0.5000000000004628
 50
12.21859498718127
 51
65.01810522657336
 73
     1
 72
     2
 10
15.35141081050377
 20
19.23749809397918
 40
0.8374980942528914
 50
114.9818947734514
 51
140.9772944067891
 73
     0
 72
     2
 10
13.51599132749223
 20
17.750000000002
 40
1.525003812244566
 50
39.02270559323466
 51
114.9579857242386
 73
     1
 72
     2
 10
12.51912522795702
 20
19.89188543993662
 40
0.8374980942533928
 50
65.04201427576081
 51
180.5551503009488
 73
     0
 72
     1
 10
11.68166644581129
 20
19.90000000000174
 11
8.699999999999931
 21
19.90000000000179
 72
     2
 10
8.700000000000045
 20
20.40000000000197
 40
0.5000000000001706
 50
90.00000000001303
 51
270.000000000026
 73
     0
 72
     1
 10
8.700000000000272
 20
20.90000000000214
 11
21.29999999999995
 21
20.90000000000208
 72
     1
 10
21.29999999999995
 20
20.90000000000208
 11
21.69999999999993
 21
20.50000000000199
 72
     1
 10
21.69999999999993
 20
20.50000000000199
 11
22.10000000000014
 21
20.90000000000208
 72
     1
 10
22.10000000000014
 20
20.90000000000208
 11
26.69999999999993
 21
20.90000000000208
 72
     1
 10
26.69999999999993
 20
20.90000000000208
 11
26.70000000000005
 21
22.20000000000215
 72
     2
 10
26.89999999999998
 20
22.2000000000022
 40
0.1999999999999318
 50
179.9999999999837
 51
270.0
 73
     0
 72
     1
 10
26.89999999999998
 20
22.40000000000214
 11
28.9000000000002
 21
22.40000000000208
 72
     1
 10
28.9000000000002
 20
22.40000000000208
 11
28.9000000000002
 21
26.40000000000208
 72
     1
 10
28.9000000000002
 20
26.40000000000208
 11
27.20000000000005
 21
26.40000000000208
 72
     2
 10
27.20000000000005
 20
26.90000000000208
 40
0.5
 50
90.0
 51
270.0
 73
     0
 72
     1
 10
27.20000000000005
 20
27.40000000000208
 11
28.9000000000002
 21
27.40000000000208
 72
     1
 10
28.9000000000002
 20
27.40000000000208
 11
28.9000000000002
 21
32.80000000000206
 72
     1
 10
28.9000000000002
 20
32.80000000000206
 11
27.19999999999993
 21
32.80000000000206
 72
     2
 10
27.19999999999993
 20
33.30000000000206
 40
0.5
 50
90.0
 51
180.0
 73
     0
 72
     1
 10
26.69999999999993
 20
33.30000000000206
 11
26.69999999999993
 21
34.85000000000201
 72
     2
 10
27.19999999999993
 20
34.85000000000201
 40
0.5
 50
180.0
 51
360.0
 73
     0
 72
     1
 10
27.69999999999993
 20
34.85000000000201
 11
27.69999999999993
 21
34.10000000000201
 72
     1
 10
27.69999999999993
 20
34.10000000000201
 11
29.19999999999993
 21
34.10000000000201
 72
     1
 10
29.19999999999993
 20
34.10000000000201
 11
29.19999999999993
 21
39.60000000000298
 72
     1
 10
29.19999999999993
 20
39.60000000000298
 11
27.70000000000016
 21
39.60000000000298
 72
     1
 10
27.70000000000016
 20
39.60000000000298
 11
27.69999999999993
 21
38.85000000000207
 72
     2
 10
27.19999999999993
 20
38.85000000000207
 40
0.5
 50
360.0
 51
540.0
 73
     0
 72
     1
 10
26.69999999999993
 20
38.85000000000207
 11
26.69999999999993
 21
40.40000000000214
 72
     2
 10
27.19999999999993
 20
40.40000000000214
 40
0.5
 50
180.0
 51
270.0
 73
     0
 72
     1
 10
27.19999999999993
 20
40.90000000000213
 11
28.40000000000021
 21
40.90000000000208
 72
     1
 10
28.40000000000021
 20
40.90000000000208
 11
28.40000000000032
 21
42.70000000000215
 72
     2
 10
28.60000000000039
 20
42.70000000000211
 40
0.2000000000000739
 50
180.0000000000081
 51
269.9999999999919
 73
     0
 72
     1
 10
28.60000000000037
 20
42.90000000000219
 11
30.5
 21
42.90000000000214
 72
     2
 10
30.49999999999989
 20
42.70000000000209
 40
0.2000000000000455
 50
270.0000000000326
 51
360.0
 73
     0
 72
     1
 10
30.69999999999993
 20
42.70000000000209
 11
30.70000000000005
 21
22.0000000000021
 72
     2
 10
31.70000000000007
 20
22.00000000000213
 40
1.000000000000028
 50
180.0000000000016
 51
269.9999999999984
 73
     1
 72
     1
 10
31.70000000000005
 20
21.00000000000211
 11
36.95421535940443
 21
21.00000000000216
 72
     2
 10
36.95421535940445
 20
39.00000000000247
 40
18.0000000000003
 50
269.9999999999999
 51
298.9550243718607
 73
     1
 72
     2
 10
44.70018205181985
 20
25.00000000000192
 40
1.999999999999551
 50
298.9550243718607
 51
360.0000000000068
 73
     1
 72
     1
 10
46.70018205181941
 20
25.00000000000216
 11
46.70018205181918
 21
25.70845599941816
 72
     2
 10
48.00018205181927
 20
25.70845599941818
 40
1.300000000000082
 50
179.9999999999994
 51
264.9851835207734
 73
     0
 72
     1
 10
47.88654469403787
 20
27.00347976403282
 11
51.23908461236033
 21
27.29766261116208
 72
     2
 10
51.30027395885815
 20
26.60034212252339
 40
0.7000000000000999
 50
264.9851835207615
 51
450.0
 73
     0
 72
     1
 10
51.30027395885815
 20
25.90034212252329
 11
48.00018205181936
 21
25.90034212252329
 72
     1
 10
48.00018205181936
 20
25.90034212252329
 11
48.0001820518089
 21
24.25166852264647
 72
     2
 10
46.00018205181925
 20
24.25166852264681
 40
1.999999999989654
 50
0.0000000000098724
 51
29.92643486664687
 73
     0
 72
     2
 10
44.70018205182532
 20
25.00000000000757
 40
3.499999999987365
 50
29.92643486676722
 51
61.0449756282587
 73
     0
 72
     2
 10
36.95421535935685
 20
38.99999999997638
 40
19.49999999998605
 50
61.04497562797912
 51
66.58347156636269
 73
     0
 72
     2
 10
44.9027622859853
 20
20.6465197074542
 40
0.5007409136105031
 50
113.416528433458
 51
228.1761111843648
 73
     1
 72
     2
 10
44.05360213032632
 20
19.61312149175098
 40
0.8374980942538865
 50
307.9678112872761
 51
487.9676400655539
 73
     0
 72
     2
 10
42.60015240470153
 20
17.75062339690922
 40
1.525003812244385
 50
52.03235993443925
 51
127.9676400654633
 73
     1
 72
     2
 10
41.14670267907999
 20
19.6131214917528
 40
0.8374980942533314
 50
52.03235993452046
 51
78.02775956783261
 73
     0
 72
     2
 10
41.42415028504548
 20
18.30471636409681
 40
0.5000000000004378
 50
101.9722404321425
 51
154.771750671465
 73
     1
 72
     2
 10
42.60015240470181
 20
17.750623396909
 40
1.800000000663199
 50
154.7717506714871
 51
205.2282493285298
 73
     1
 72
     2
 10
41.42415028504557
 20
17.19653042972062
 40
0.5000000000002732
 50
205.2282493285327
 51
258.0277595678968
 73
     1
 72
     2
 10
41.14670267908119
 20
15.88812530206492
 40
0.837498094252982
 50
281.9722404321193
 51
307.9676400654519
 73
     0
 97
        1
330
7883
 75
     0
 76
     1
 98
        1
 10
0.0
 20
0.0
1001
ACAD
1010
0.0
1020
0.0
1030
0.0
  0
ENDBLK
  5
741A
330
7418
100
AcDbEntity
  8
0
 62
     2
 48
3.0
100
AcDbBlockEnd
  0
BLOCK
  5
7825
330
7822
100
AcDbEntity
  8
0
 62
     9
100
AcDbBlockBegin
  2
vantage black & white logo
 70
     0
 10
0.0
 20
0.0
 30
0.0
  3
vantage black & white logo
  1

  0
SPLINE
  5
7826
102
{ACAD_REACTORS
330
7856
102
}
330
7822
100
AcDbEntity
  8
APL Border
 62
     8
100
AcDbSpline
210
0.0
220
0.0
230
1.0
 70
     8
 71
     3
 72
    16
 73
    12
 74
    10
 42
0.0000000001
 43
0.0000000001
 44
0.0000000001
 40
0.0
 40
0.0
 40
0.0
 40
0.0
 40
0.1978277931646383
 40
0.361463118001824
 40
0.5540499897785108
 40
0.7796220130725381
 40
0.979106605438038
 40
1.222151590302332
 40
1.40748727220097
 40
1.607226525619232
 40
1.815049166761618
 40
1.815049166761618
 40
1.815049166761618
 40
1.815049166761618
 10
-6.679452083611295
 20
24.89125032803118
 30
0.0
 10
-6.685371732996674
 20
24.82559351525051
 30
0.0
 10
-6.696187882184245
 20
24.70562798418881
 30
0.0
 10
-6.721757155054659
 20
24.52229576436942
 30
0.0
 10
-6.768469983285688
 20
24.33480615160983
 30
0.0
 10
-6.86071972339088
 20
24.14153771241002
 30
0.0
 10
-7.051789745146238
 20
24.01851519430105
 30
0.0
 10
-7.233921808197289
 20
23.91285203345822
 30
0.0
 10
-7.443451931375125
 20
23.87675735439051
 30
0.0
 10
-7.641222718647389
 20
23.88093312949101
 30
0.0
 10
-7.776581895343343
 20
23.89281010788354
 30
0.0
 10
-7.845603808282817
 20
23.89886637823479
 30
0.0
 11
-6.679452083611295
 21
24.89125032803118
 31
0.0
 11
-6.698967886443824
 21
24.69438750983487
 31
0.0
 11
-6.7229873764864
 21
24.53252465544059
 31
0.0
 11
-6.771947617386814
 21
24.34626516442952
 31
0.0
 11
-6.880972027936735
 21
24.14879006322128
 31
0.0
 11
-7.039699899396197
 21
24.02796140183178
 31
0.0
 11
-7.25666078222261
 21
23.91842218515177
 31
0.0
 11
-7.438645676318543
 21
23.88333923622035
 31
0.0
 11
-7.638384704687155
 21
23.88303939885124
 31
0.0
 11
-7.845603808282817
 21
23.89886637823479
 31
0.0
1001
AcDbBlockRepETag
1070
     1
1071
      590
1005
7826
  0
SPLINE
  5
7827
102
{ACAD_REACTORS
330
7856
102
}
330
7822
100
AcDbEntity
  8
APL Border
 62
     8
100
AcDbSpline
210
0.0
220
0.0
230
1.0
 70
     8
 71
     3
 72
    11
 73
     7
 74
     5
 42
0.0000000001
 43
0.0000000001
 44
0.0000000001
 40
0.0
 40
0.0
 40
0.0
 40
0.0
 40
0.0680840587483313
 40
0.1752723045973904
 40
0.2784233367375334
 40
0.4826852714337078
 40
0.4826852714337078
 40
0.4826852714337078
 40
0.4826852714337078
 10
-7.465264214605014
 20
24.80065518845331
 30
0.0
 10
-7.468646137215252
 20
24.77808681972154
 30
0.0
 10
-7.47735239504952
 20
24.719987903891
 30
0.0
 10
-7.524447891091254
 20
24.63752792323728
 30
0.0
 10
-7.635129760920157
 20
24.54333837224584
 30
0.0
 10
-7.743266182308203
 20
24.55714977626708
 30
0.0
 10
-7.815117916056323
 20
24.56632682606847
 30
0.0
 11
-7.465264214605014
 21
24.80065518845331
 31
0.0
 11
-7.478569823577657
 21
24.73388393846117
 31
0.0
 11
-7.530473398252325
 21
24.64010046985295
 31
0.0
 11
-7.611072397370236
 21
24.57572705319073
 31
0.0
 11
-7.815117916056323
 21
24.56632682606847
 31
0.0
1001
AcDbBlockRepETag
1070
     1
1071
      593
1005
7827
  0
SPLINE
  5
7828
102
{ACAD_REACTORS
330
7856
102
}
330
7822
100
AcDbEntity
  8
APL Border
 62
     8
100
AcDbSpline
210
0.0
220
0.0
230
1.0
 70
     8
 71
     3
 72
    20
 73
    16
 74
     0
 42
0.0000000001
 43
0.0000000001
 40
0.0
 40
0.0
 40
0.0
 40
0.0
 40
0.1774120264923274
 40
0.3258093286713144
 40
0.4834060703451958
 40
0.6311237014699663
 40
0.811161917566129
 40
0.9605198197290178
 40
1.289502400757101
 40
1.459697744220917
 40
1.604754171475458
 40
1.794797311213428
 40
2.030760379210173
 40
2.301729078160567
 40
2.393267743077617
 40
2.393267743077617
 40
2.393267743077617
 40
2.393267743077617
 10
5.780015564168593
 20
26.87985997284487
 30
0.0
 10
5.839056126904296
 20
26.87337384475878
 30
0.0
 10
5.947481505327601
 20
26.86146235781404
 30
0.0
 10
6.098807931884806
 20
26.80185114122353
 30
0.0
 10
6.227972759762906
 20
26.72168911843352
 30
0.0
 10
6.347510602881385
 20
26.61140356622764
 30
0.0
 10
6.442310149474394
 20
26.48207375794227
 30
0.0
 10
6.536759215535255
 20
26.28338234239492
 30
0.0
 10
6.578465181725675
 20
26.06469589684353
 30
0.0
 10
6.553150099427256
 20
25.85079503063701
 30
0.0
 10
6.524121382020268
 20
25.68499989147718
 30
0.0
 10
6.464236525716046
 20
25.50199988960434
 30
0.0
 10
6.327150620479812
 20
25.31187331731421
 30
0.0
 10
6.179477266233362
 20
25.17172660684537
 30
0.0
 10
6.072729148555964
 20
25.11631253421805
 30
0.0
 10
6.045077525535504
 20
25.10350570839811
 30
0.0
1001
AcDbBlockRepETag
1070
     1
1071
      594
1005
7828
  0
SPLINE
  5
7829
102
{ACAD_REACTORS
330
7856
102
}
330
7822
100
AcDbEntity
  8
APL Border
 62
     8
100
AcDbSpline
210
0.0
220
0.0
230
1.0
 70
     8
 71
     3
 72
    17
 73
    13
 74
    11
 42
0.0000000001
 43
0.0000000001
 44
0.0000000001
 40
0.0
 40
0.0
 40
0.0
 40
0.0
 40
0.0975027714782739
 40
0.2117924486065133
 40
0.317678689712162
 40
0.4843960423119905
 40
0.5983164751676271
 40
0.7475672999664091
 40
0.8854036234346642
 40
1.040732215041493
 40
1.197661337444246
 40
1.243973057737614
 40
1.243973057737614
 40
1.243973057737614
 40
1.243973057737614
 10
5.580769717272147
 20
26.18861664944085
 30
0.0
 10
5.613502616848285
 20
26.1875961553427
 30
0.0
 10
5.684603990133519
 20
26.18537947021098
 30
0.0
 10
5.781919321100519
 20
26.1258482190374
 30
0.0
 10
5.832561030472812
 20
26.0011917111029
 30
0.0
 10
5.820388894698232
 20
25.86817511516085
 30
0.0
 10
5.765298612935113
 20
25.7349784962169
 30
0.0
 10
5.67725421213275
 20
25.62965962372396
 30
0.0
 10
5.546675458142082
 20
25.55725132865025
 30
0.0
 10
5.401760839408257
 20
25.51345804330555
 30
0.0
 10
5.281860155064943
 20
25.50729075876586
 30
0.0
 10
5.21427201805345
 20
25.50302975767877
 30
0.0
 10
5.198870965514487
 20
25.50205881951548
 30
0.0
 11
5.580769717272147
 21
26.18861664944085
 31
0.0
 11
5.67764963039707
 21
26.17761333726443
 31
0.0
 11
5.774085473546278
 21
26.11627608549865
 31
0.0
 11
5.81791994770495
 21
26.01988918322082
 31
0.0
 11
5.809153052873227
 21
25.85340249542595
 31
0.0
 11
5.765318578714499
 21
25.74825305939683
 31
0.0
 11
5.668882735565347
 21
25.63434108961652
 31
0.0
 11
5.55010046754208
 21
25.56441523695462
 31
0.0
 11
5.401316428353624
 21
25.51980267086244
 31
0.0
 11
5.245093480229996
 21
25.50493189624708
 31
0.0
 11
5.198870965514487
 21
25.50205881951548
 31
0.0
1001
AcDbBlockRepETag
1070
     1
1071
      595
1005
7829
  0
SPLINE
  5
782A
102
{ACAD_REACTORS
330
7860
330
7861
102
}
330
7822
100
AcDbEntity
  8
APL Border
 62
     8
100
AcDbSpline
210
0.0
220
0.0
230
1.0
 70
     8
 71
     3
 72
    25
 73
    21
 74
     0
 42
0.0000000001
 43
0.0000000001
 40
0.0289432764998855
 40
0.0289432764998855
 40
0.0289432764998855
 40
0.0289432764998855
 40
0.7134165119202287
 40
1.411731005087882
 40
2.041147618059464
 40
3.036171077105474
 40
3.957911241576911
 40
4.83592253147705
 40
5.676684481733094
 40
6.271141751551381
 40
6.974058201941041
 40
7.825808739104269
 40
8.5265481701528
 40
9.125733480364379
 40
9.891766509798275
 40
10.6767880070383
 40
11.66821110410527
 40
12.42950909475574
 40
13.09855121203093
 40
13.70132750762923
 40
13.70132750762923
 40
13.70132750762923
 40
13.70132750762923
 10
13.141643811855
 20
43.40554077871886
 30
0.0
 10
12.91988216430481
 20
43.459256627421
 30
0.0
 10
12.47168844867874
 20
43.5669624691983
 30
0.0
 10
11.80600758681791
 20
43.66484839798013
 30
0.0
 10
11.02988777388427
 20
43.6649333207477
 30
0.0
 10
10.1361516270939
 20
43.55263717791944
 30
0.0
 10
9.306733533720876
 20
43.19741938393827
 30
0.0
 10
8.599762003673276
 20
42.45478219212527
 30
0.0
 10
8.236440109363229
 20
41.77191325718488
 30
0.0
 10
8.073464067873601
 20
41.07996170309042
 30
0.0
 10
8.007035995439764
 20
40.3638923215899
 30
0.0
 10
7.98103501985804
 20
39.60493317412716
 30
0.0
 10
8.107710769833204
 20
38.92055182387923
 30
0.0
 10
8.442098079777224
 20
38.21445924826959
 30
0.0
 10
9.036296716232907
 20
37.66873436641545
 30
0.0
 10
9.909689132144507
 20
37.42421376773082
 30
0.0
 10
10.75775873959412
 20
37.35554609345542
 30
0.0
 10
11.56487972715851
 20
37.38454149767491
 30
0.0
 10
12.23983007222788
 20
37.44815687239099
 30
0.0
 10
12.66077873273661
 20
37.49837935861893
 30
0.0
 10
12.86026661033734
 20
37.52234731786496
 30
0.0
1001
AcDbBlockRepETag
1070
     1
1071
      596
1005
782A
  0
SPLINE
  5
782B
102
{ACAD_REACTORS
330
7860
330
7861
102
}
330
7822
100
AcDbEntity
  8
APL Border
 62
     8
100
AcDbSpline
210
0.0
220
0.0
230
1.0
 70
     8
 71
     3
 72
    19
 73
    15
 74
     0
 42
0.0000000001
 43
0.0000000001
 40
1.529304964685563
 40
1.529304964685563
 40
1.529304964685563
 40
1.529304965389289
 40
2.032016958536417
 40
2.556791262130423
 40
2.964493033520332
 40
3.465275586793771
 40
4.160836826595903
 40
4.71800698457321
 40
5.304510401169525
 40
5.733359288828643
 40
6.099728421126306
 40
6.422629926283571
 40
6.722447272622213
 40
6.957123473755099
 40
6.957123473755099
 40
6.957123473755099
 40
6.957123473755099
 10
11.64369617822672
 20
42.03297741382947
 30
0.0
 10
11.47589856643677
 20
42.04574754506741
 30
0.0
 10
11.13485165915975
 20
42.01473204050012
 30
0.0
 10
10.65553906793815
 20
41.91613810684326
 30
0.0
 10
10.23036575101369
 20
41.67654609785123
 30
0.0
 10
9.854221329784113
 20
41.27113304911427
 30
0.0
 10
9.717431528044755
 20
40.66388266631498
 30
0.0
 10
9.641062203095145
 20
40.05806431643046
 30
0.0
 10
9.716968816830743
 20
39.48770259248511
 30
0.0
 10
10.00680770225198
 20
39.09661486818469
 30
0.0
 10
10.3797311442331
 20
38.98358798973799
 30
0.0
 10
10.70216182646531
 20
38.92661434152812
 30
0.0
 10
10.99026249243499
 20
38.92783484269152
 30
0.0
 10
11.24302802126629
 20
38.95177692242413
 30
0.0
 10
11.33360452536307
 20
38.96406177273881
 30
0.0
1001
AcDbBlockRepETag
1070
     1
1071
      597
1005
782B
  0
LWPOLYLINE
  5
782C
102
{ACAD_REACTORS
330
785D
102
}
330
7822
100
AcDbEntity
  8
APL Border
 62
     8
100
AcDbPolyline
 90
       12
 70
     1
 43
0.0
 10
14.13627631352983
 20
43.61979184908029
 10
18.38986203356285
 20
43.61979184908029
 10
18.21321428445671
 20
41.9726305274507
 10
15.84058876400877
 20
41.9726305274507
 10
15.75340373709809
 20
41.15966911198297
 10
17.71732334684157
 20
41.15966911198297
 10
17.56969663746741
 20
39.57967635988449
 10
15.58395939694927
 20
39.57967635988449
 10
15.5052467299167
 20
38.84571591422678
 10
17.87787225036464
 20
38.84571591422678
 10
17.72077299807506
 20
37.38083558975206
 10
13.46718727804204
 20
37.38083558975206
1001
AcDbBlockRepETag
1070
     1
1071
      599
1005
782C
  0
LWPOLYLINE
  5
782D
102
{ACAD_REACTORS
330
7860
330
7861
102
}
330
7822
100
AcDbEntity
  8
APL Border
 62
     8
100
AcDbPolyline
 90
        2
 70
     0
 43
0.0
 10
13.141643811855
 20
43.40554077871887
 10
13.141643811855
 20
41.76981947766621
1001
AcDbBlockRepETag
1070
     1
1071
      600
1005
782D
  0
LWPOLYLINE
  5
782E
102
{ACAD_REACTORS
330
7860
330
7861
102
}
330
7822
100
AcDbEntity
  8
APL Border
 62
     8
100
AcDbPolyline
 90
        6
 70
     0
 43
0.0
 10
11.33358781659778
 20
38.96390597096916
 10
11.39962533929804
 20
39.57967635988449
 10
10.96889270630695
 20
39.57967635988449
 10
11.12639005748273
 20
41.04826877857415
 10
13.23839963312048
 20
41.04826877857415
 10
12.86026661033734
 20
37.52234731786496
1001
AcDbBlockRepETag
1070
     1
1071
      601
1005
782E
  0
LWPOLYLINE
  5
782F
102
{ACAD_REACTORS
330
785A
102
}
330
7822
100
AcDbEntity
  8
APL Border
 62
     8
100
AcDbPolyline
 90
        8
 70
     1
 43
0.0
 10
3.105743226874893
 20
43.61998313276061
 10
2.929095477768755
 20
41.97282181113101
 10
1.466301152475638
 20
41.97282181113101
 10
0.9741138955425029
 20
37.38339558452146
 10
-0.867968570535281
 20
37.38102687343238
 10
-0.3755272841536326
 20
41.97282181113101
 10
-1.891167362926863
 20
41.97282181113101
 10
-1.725754035154749
 20
43.61998313276061
1001
AcDbBlockRepETag
1070
     1
1071
      604
1005
782F
  0
LWPOLYLINE
  5
7830
102
{ACAD_REACTORS
330
7859
102
}
330
7822
100
AcDbEntity
  8
APL Border
 62
     8
100
AcDbPolyline
 90
       10
 70
     1
 43
0.0
 10
-4.228474015381578
 20
40.14164596649268
 10
-3.855464624526035
 20
43.61979184908029
 10
-2.181839912298443
 20
43.61979184908029
 10
-2.850928947786229
 20
37.38083558975206
 10
-5.032306754624556
 20
37.38083558975206
 10
-6.131920885667284
 20
40.6246666384634
 10
-6.479801476178323
 20
37.38083558975206
 10
-8.135186891292875
 20
37.38083558975206
 10
-7.466097855805088
 20
43.61979184908029
 10
-5.40751765387219
 20
43.61979184908029
1001
AcDbBlockRepETag
1070
     1
1071
      605
1005
7830
  0
LWPOLYLINE
  5
7831
102
{ACAD_REACTORS
330
7860
102
}
330
7822
100
AcDbEntity
  8
APL Border
  6
Continuous
 62
     8
100
AcDbPolyline
 90
        8
 70
     1
 43
0.0
 10
-8.449177928734428
 20
37.38083558975206
 10
-9.847253547555595
 20
43.61979184908029
 10
-12.02298966350147
 20
43.61979184908029
 10
-14.82679588919473
 20
37.38083558975206
 10
-12.95240022532295
 20
37.38083558975206
 10
-12.35252874042399
 20
38.71565392391761
 10
-10.64639685172309
 20
38.71565392391761
 10
-10.34727999772013
 20
37.38083558975206
1001
AcDbBlockRepETag
1070
     1
1071
      606
1005
7831
  0
LWPOLYLINE
  5
7832
330
7822
100
AcDbEntity
  8
APL Border
  6
Continuous
 62
     8
100
AcDbPolyline
 90
        7
 70
     1
 43
0.0
 10
-18.99614352503855
 20
43.61979184908029
 10
-17.7875751270476
 20
37.38083558975206
 10
-15.77022638070494
 20
37.38083558975206
 10
-12.96642015501169
 20
43.61979184908029
 10
-14.7664201550117
 20
43.61979184908029
 10
-16.54136876356097
 20
39.42215966960597
 10
-17.19614352503853
 20
43.61979184908029
1001
AcDbBlockRepETag
1070
     1
1071
      608
1005
7832
  0
LWPOLYLINE
  5
7833
102
{ACAD_REACTORS
330
7863
102
}
330
7822
100
AcDbEntity
  8
APL Border
  6
Continuous
 62
     8
100
AcDbPolyline
 90
        4
 70
     1
 43
0.0
 10
16.33779773177886
 20
35.29789574745093
 10
-16.33747952551644
 20
35.29789574745093
 10
-12.98884796421711
 20
29.49789574745094
 10
12.98916617047902
 20
29.49789574745094
1001
AcDbBlockRepETag
1070
     1
1071
      609
1005
7833
  0
LWPOLYLINE
  5
7834
102
{ACAD_REACTORS
330
7856
102
}
330
7822
100
AcDbEntity
  8
APL Border
 62
     8
100
AcDbPolyline
 90
        9
 70
     1
 43
0.0
 10
7.455500104221528
 20
25.00957443408062
 10
6.800478684667126
 20
26.87985997284487
 10
7.607536311785906
 20
26.87985997284487
 10
7.963471882016364
 20
25.86355557445326
 10
8.538893993587493
 20
26.87985997284487
 10
9.414203966725494
 20
26.87985997284487
 10
8.232331174709315
 20
25.00957443408062
 10
8.120338037129926
 20
23.87985997284487
 10
7.343506966642138
 20
23.87985997284487
1001
AcDbBlockRepETag
1070
     1
1071
      611
1005
7834
  0
LWPOLYLINE
  5
7835
102
{ACAD_REACTORS
330
7856
102
}
330
7822
100
AcDbEntity
  8
APL Border
 62
     8
100
AcDbPolyline
 90
        4
 70
     1
 43
0.0
 10
12.20974330707307
 20
28.14789574745094
 10
8.850698786449385
 20
22.32985997284487
 10
-8.850380580188158
 20
22.32985997284487
 10
-12.20942510081127
 20
28.14789574745094
1001
AcDbBlockRepETag
1070
     1
1071
      613
1005
7835
  0
LWPOLYLINE
  5
7836
102
{ACAD_REACTORS
330
7856
102
}
330
7822
100
AcDbEntity
  8
APL Border
 62
     8
100
AcDbPolyline
 90
        6
 70
     0
 43
0.0
 10
5.580769717272147
 20
26.18861664944085
 10
5.137953374950967
 20
26.18861664944085
 10
4.909077041159065
 20
23.87985997284487
 10
4.132245970671277
 20
23.87985997284487
 10
4.429648034880159
 20
26.87985997284487
 10
5.793677369303878
 20
26.87985997284487
1001
AcDbBlockRepETag
1070
     1
1071
      614
1005
7836
  0
LWPOLYLINE
  5
7837
102
{ACAD_REACTORS
330
7863
102
}
330
7822
100
AcDbEntity
  8
APL Border
  6
Continuous
 62
     8
100
AcDbPolyline
 90
        4
 70
     1
 43
0.0
 10
1.119422795136273
 20
34.02289574745092
 10
0.3425917246484857
 20
34.02289574745092
 10
0.0451896604396041
 20
31.02289574745093
 10
0.8220207309273916
 20
31.02289574745093
1001
AcDbBlockRepETag
1070
     1
1071
      620
1005
7837
  0
LWPOLYLINE
  5
7838
102
{ACAD_REACTORS
330
7856
102
}
330
7822
100
AcDbEntity
  8
APL Border
 62
     8
100
AcDbPolyline
 90
        4
 70
     0
 43
0.0
 10
6.045077525535504
 20
25.1035057083981
 10
6.339444173005233
 20
23.87985997284487
 10
5.532386545886623
 20
23.87985997284487
 10
5.142141867913778
 20
25.50205881951548
1001
AcDbBlockRepETag
1070
     1
1071
      621
1005
7838
  0
LWPOLYLINE
  5
7839
102
{ACAD_REACTORS
330
7857
102
}
330
7822
100
AcDbEntity
  8
APL Border
 62
     8
100
AcDbPolyline
 90
        4
 70
     1
 43
0.0
 10
0.0001591031300165
 20
7.000275566930961
 10
3.563095122801513
 20
13.17146177711931
 10
-0.9450856774407441
 20
20.97985997284487
 10
-8.070957716782203
 20
20.97985997284487
1001
AcDbBlockRepETag
1070
     1
1071
      622
1005
7839
  0
LWPOLYLINE
  5
783A
102
{ACAD_REACTORS
330
785B
102
}
330
7822
100
AcDbEntity
  8
APL Border
 62
     8
100
AcDbPolyline
 90
        3
 70
     1
 43
0.0
 10
0.8484489512626112
 20
20.97985997284487
 10
4.459862437153191
 20
14.72470832814346
 10
8.071275923043373
 20
20.97985997284487
1001
AcDbBlockRepETag
1070
     1
1071
      623
1005
783A
  0
LWPOLYLINE
  5
783B
102
{ACAD_REACTORS
330
7856
102
}
330
7822
100
AcDbEntity
  8
APL Border
 62
     8
100
AcDbPolyline
 90
        4
 70
     0
 43
0.0
 10
-7.465264214605014
 20
24.80065518845331
 10
-7.259144283007998
 20
26.87985997284487
 10
-6.48231321252021
 20
26.87985997284487
 10
-6.679452083611295
 20
24.89125032803118
1001
AcDbBlockRepETag
1070
     1
1071
      626
1005
783B
  0
LWPOLYLINE
  5
783C
102
{ACAD_REACTORS
330
7856
102
}
330
7822
100
AcDbEntity
  8
APL Border
 62
     8
100
AcDbPolyline
 90
        4
 70
     0
 43
0.0
 10
-7.845603808282817
 20
23.89886637823479
 10
-8.399876560405061
 20
23.98304774476413
 10
-8.399876560405061
 20
24.64579492155148
 10
-7.81511791605564
 20
24.56632682606838
1001
AcDbBlockRepETag
1070
     1
1071
      627
1005
783C
  0
LWPOLYLINE
  5
783D
102
{ACAD_REACTORS
330
7863
102
}
330
7822
100
AcDbEntity
  8
APL Border
  6
Continuous
 62
     8
100
AcDbPolyline
 90
        6
 70
     1
 43
0.0
 10
-7.549934049473819
 20
34.02289574745092
 10
-8.326765119961606
 20
34.02289574745092
 10
-8.624167184170488
 20
31.02289574745093
 10
-6.770246795158442
 20
31.02289574745093
 10
-6.700109532938455
 20
31.73039516316516
 10
-7.777198851462713
 20
31.73039516316516
1001
AcDbBlockRepETag
1070
     1
1071
      628
1005
783D
  0
LWPOLYLINE
  5
783E
102
{ACAD_REACTORS
330
7863
102
}
330
7822
100
AcDbEntity
  8
APL Border
  6
Continuous
 62
     8
100
AcDbPolyline
 90
        3
 70
     1
 43
0.0
 10
-10.14693849009504
 20
33.12550842600547
 10
-10.00044093617224
 20
32.51653621849665
 10
-10.45444607654239
 20
32.51653621849665
1001
AcDbBlockRepETag
1070
     1
1071
      629
1005
783E
  0
LWPOLYLINE
  5
783F
102
{ACAD_REACTORS
330
7863
102
}
330
7822
100
AcDbEntity
  8
APL Border
  6
Continuous
 62
     8
100
AcDbPolyline
 90
        8
 70
     1
 43
0.0
 10
-8.834065309397374
 20
31.02289574745093
 10
-9.555761072109191
 20
34.02289574745092
 10
-10.50084997043805
 20
34.02289574745092
 10
-12.01573480092304
 20
31.02289574745093
 10
-11.20867717380426
 20
31.02289574745093
 10
-10.74455961985978
 20
31.94201027933759
 10
-9.862229957552528
 20
31.94201027933759
 10
-9.641122936515984
 20
31.02289574745093
1001
AcDbBlockRepETag
1070
     1
1071
      630
1005
783F
  0
LWPOLYLINE
  5
7840
102
{ACAD_REACTORS
330
785C
102
}
330
7822
100
AcDbEntity
  8
APL Border
 62
     8
100
AcDbPolyline
 90
        3
 70
     1
 43
0.0
 10
0.0000000003145431
 20
4.000000000000009
 10
23.60256143704041
 20
44.88083558975217
 10
-23.60256142783933
 20
44.88083558975206
1001
AcDbBlockRepETag
1070
     1
1071
      631
1005
7840
  0
LWPOLYLINE
  5
7841
102
{ACAD_REACTORS
330
785C
102
}
330
7822
100
AcDbEntity
  8
APL Border
 62
     8
100
AcDbPolyline
 90
        3
 70
     1
 43
0.0
 10
27.06666305249243
 20
46.88083558975206
 10
-27.06666304266244
 20
46.88083558975206
 10
-0.0000000000000284
 20
0.0000000000000238
1001
AcDbBlockRepETag
1070
     1
1071
      703
1005
7841
  0
LWPOLYLINE
  5
7842
102
{ACAD_REACTORS
330
7860
330
7862
102
}
330
7822
100
AcDbEntity
  8
APL Border
  6
Continuous
 62
     8
100
AcDbPolyline
 90
        8
 70
     1
 43
0.0
 10
7.980630193374565
 20
37.38083558975206
 10
6.582554574553398
 20
43.61979184908029
 10
4.406818458607517
 20
43.61979184908029
 10
1.603012232914267
 20
37.38083558975206
 10
3.477407896786047
 20
37.38083558975206
 10
4.077279381685002
 20
38.71565392391761
 10
5.783411270385897
 20
38.71565392391761
 10
6.082528124388858
 20
37.38083558975206
1001
AcDbBlockRepETag
1070
     1
1071
      760
1005
7842
  0
LWPOLYLINE
  5
7843
102
{ACAD_REACTORS
330
7860
330
7862
102
}
330
7822
100
AcDbEntity
  8
APL Border
  6
Continuous
 62
     8
100
AcDbPolyline
 90
        3
 70
     1
 43
0.0
 10
5.206046831612667
 20
41.69367581194667
 10
5.552066120962537
 20
40.14955389030274
 10
4.512113667606024
 20
40.14955389030274
1001
AcDbBlockRepETag
1070
     1
1071
      761
1005
7843
  0
LWPOLYLINE
  5
7844
102
{ACAD_REACTORS
330
7863
102
}
330
7822
100
AcDbEntity
  8
APL Border
  6
Continuous
 62
     8
100
AcDbPolyline
 90
        4
 70
     1
 43
0.0
 10
5.615530392135354
 20
34.02289574745092
 10
4.838699321647567
 20
34.02289574745092
 10
4.541297257438685
 20
31.02289574745093
 10
5.318128327926473
 20
31.02289574745093
1001
AcDbBlockRepETag
1070
     1
1071
      785
1005
7844
  0
LWPOLYLINE
  5
7845
102
{ACAD_REACTORS
330
7863
102
}
330
7822
100
AcDbEntity
  8
APL Border
 62
     8
100
AcDbPolyline
 90
       13
 70
     0
 43
0.0
 10
-5.535628094882099
 20
32.1870929174454
 10
-5.353790768486447
 20
34.02289574745092
 10
-6.130425112774389
 20
34.0248801943346
 10
-6.333826921263238
 20
31.9730940808461
 42
0.1695250701542156
 10
-6.106840682758871
 20
31.39301551086222
 42
0.0826087127293405
 10
-5.813961912619959
 20
31.13108995311734
 42
0.1017056431856583
 10
-5.510404689928634
 20
31.02488019433462
 10
-4.760057203160528
 20
31.0248801943346
 42
0.1918846087154957
 10
-4.136172756560569
 20
31.41919793838074
 42
0.1021851328841131
 10
-3.889225876952792
 20
31.97309408084612
 10
-3.685824068463887
 20
34.0248801943346
 10
-4.462655138951674
 20
34.0248801943346
 10
-4.65073703420694
 20
32.12763147393075
1001
AcDbBlockRepETag
1070
     1
1071
      866
1005
7845
  0
SPLINE
  5
7846
102
{ACAD_REACTORS
330
7863
102
}
330
7822
100
AcDbEntity
  8
APL Border
 62
     8
100
AcDbSpline
210
0.0
220
0.0
230
1.0
 70
     8
 71
     3
 72
    24
 73
    20
 74
    18
 42
0.0000000001
 43
0.0000000001
 44
0.0000000001
 40
0.0
 40
0.0
 40
0.0
 40
0.0
 40
0.1612668085855933
 40
0.2532303870616441
 40
0.3214574742553387
 40
0.4101806452459026
 40
0.5031588697521256
 40
0.5664511009171887
 40
0.624871878778038
 40
0.6731644290699905
 40
0.7797386132933425
 40
0.9206747739903356
 40
1.025058962643435
 40
1.116412352300609
 40
1.212929457806147
 40
1.276240530363035
 40
1.339961572016457
 40
1.386280507025952
 40
1.435584820291647
 40
1.435584820291647
 40
1.435584820291647
 40
1.435584820291647
 10
-5.535628094882099
 20
32.1870929174454
 30
0.0
 10
-5.53213414748617
 20
32.13312332644234
 30
0.0
 10
-5.526647751003197
 20
32.04837718097616
 30
0.0
 10
-5.488860432547518
 20
31.94683424540268
 30
0.0
 10
-5.447171648840961
 20
31.8753242559261
 30
0.0
 10
-5.395818187958767
 20
31.80737001333622
 30
0.0
 10
-5.320761662408248
 20
31.77062767698265
 30
0.0
 10
-5.254477128417399
 20
31.74466351916423
 30
0.0
 10
-5.200112096792143
 20
31.72723210184819
 30
0.0
 10
-5.128888988289486
 20
31.72198763189771
 30
0.0
 10
-5.030042811850907
 20
31.72786870372271
 30
0.0
 10
-4.915707066470194
 20
31.75812586881066
 30
0.0
 10
-4.815771266393483
 20
31.81405298527761
 30
0.0
 10
-4.754740567305573
 20
31.89193427605802
 30
0.0
 10
-4.714673995441981
 20
31.96546823314959
 30
0.0
 10
-4.683526695854578
 20
32.03313813212702
 30
0.0
 10
-4.662006183068958
 20
32.08703079743258
 30
0.0
 10
-4.651792807669443
 20
32.13930455656534
 30
0.0
 10
-4.647206914869654
 20
32.17083533130903
 30
0.0
 10
-4.644842382192905
 20
32.1870929174454
 30
0.0
 11
-5.535628094882099
 21
32.1870929174454
 31
0.0
 11
-5.515298846223288
 21
32.02711258990369
 31
0.0
 11
-5.483433995220536
 21
31.94084596230824
 31
0.0
 11
-5.44947766231354
 21
31.88166908437061
 31
0.0
 11
-5.392321718875223
 21
31.8138089399536
 31
0.0
 11
-5.311535231450477
 21
31.76778184269665
 31
0.0
 11
-5.252609732475718
 21
31.74468006578604
 31
0.0
 11
-5.196420818688864
 21
31.72868652792477
 31
0.0
 11
-5.148347479287053
 21
31.72409039341204
 31
0.0
 11
-5.041949649235618
 21
31.73021889267523
 31
0.0
 11
-4.906104524581394
 21
31.76775692005663
 31
0.0
 11
-4.816802280674096
 21
31.82180475140893
 31
0.0
 11
-4.758009512288197
 21
31.89172507883507
 31
0.0
 11
-4.710553499371997
 21
31.97576958188711
 31
0.0
 11
-4.684063009443377
 21
32.03327215445256
 31
0.0
 11
-4.662061522518769
 21
32.09307437617135
 31
0.0
 11
-4.652346246099511
 21
32.13836297456555
 31
0.0
 11
-4.644842382192905
 21
32.1870929174454
 31
0.0
1001
AcDbBlockRepETag
1070
     1
1071
      827
1005
7846
  0
LWPOLYLINE
  5
7847
102
{ACAD_REACTORS
330
7863
102
}
330
7822
100
AcDbEntity
  8
APL Border
 62
     8
100
AcDbPolyline
 90
       13
 70
     0
 43
0.0
 10
6.787553510813182
 20
32.18510847056172
 10
6.969390837208834
 20
34.02091130056725
 10
6.192756492920892
 20
34.02289574745092
 10
5.989354684432043
 20
31.97110963396243
 42
0.1695250701542156
 10
6.21634092293641
 20
31.39103106397854
 42
0.0826087127293405
 10
6.509219693075323
 20
31.12910550623367
 42
0.1017056431856583
 10
6.812776915766647
 20
31.02289574745094
 10
7.563124402534754
 20
31.02289574745093
 42
0.1918846087154957
 10
8.187008849134713
 20
31.41721349149707
 42
0.1021851328841131
 10
8.433955728742489
 20
31.97110963396244
 10
8.637357537231395
 20
34.02289574745092
 10
7.860526466743607
 20
34.02289574745092
 10
7.672444571488341
 20
32.12564702704707
1001
AcDbBlockRepETag
1070
     1
1071
      837
1005
7847
  0
LWPOLYLINE
  5
7848
102
{ACAD_REACTORS
330
7863
102
}
330
7822
100
AcDbEntity
  8
APL Border
  6
Continuous
 62
     8
100
AcDbPolyline
 90
       13
 70
     1
 43
0.0
 10
-1.295012624591635
 20
34.02807364104484
 10
-0.1975458970834154
 20
34.0280551402308
 10
-0.4949479612922972
 20
31.0280551402308
 10
-1.115886909891884
 20
31.0280551402308
 10
-0.9222174129992311
 20
32.98166797820307
 10
-1.611942464131544
 20
31.0280551402308
 10
-2.344230471214956
 20
31.0280551402308
 10
-2.63016252924163
 20
32.98166797820306
 10
-2.823832026134283
 20
31.0280551402308
 10
-3.44477097473387
 20
31.0280551402308
 10
-3.147349004861581
 20
34.02825593571061
 10
-2.047349004861558
 20
34.02825593571061
 10
-1.8272453185659
 20
32.52441131541936
1001
AcDbBlockRepETag
1070
     1
1071
      867
1005
7848
  0
LWPOLYLINE
  5
7849
102
{ACAD_REACTORS
330
7863
102
}
330
7822
100
AcDbEntity
  8
APL Border
  6
Continuous
 62
     8
100
AcDbPolyline
 90
       10
 70
     1
 43
0.0
 10
1.724974710806094
 20
34.02289574745092
 10
1.427552740933805
 20
31.02269495197112
 10
2.048491689533392
 20
31.02269495197112
 10
2.231899581960561
 20
32.87279534971117
 10
3.051434648859952
 20
31.02269495197112
 10
3.902826396438257
 20
31.02269495197112
 10
4.200228460647139
 20
34.02269495197112
 10
3.580266230192904
 20
34.02269495197112
 10
3.395920304875374
 20
32.17298478610545
 10
2.576558098165463
 20
34.02269495197112
1001
AcDbBlockRepETag
1070
     1
1071
      616
1005
7849
  0
LWPOLYLINE
  5
784A
102
{ACAD_REACTORS
330
7863
102
}
330
7822
100
AcDbEntity
  8
APL Border
  6
Continuous
 62
     8
100
AcDbPolyline
 90
       13
 70
     1
 43
0.0
 10
11.01183437133605
 20
34.02271345278515
 10
12.10930109884427
 20
34.02269495197111
 10
11.81189903463539
 20
31.02269495197111
 10
11.1909600860358
 20
31.02269495197111
 10
11.38462958292845
 20
32.97630778994339
 10
10.69490453179614
 20
31.02269495197111
 10
9.962616524712728
 20
31.02269495197111
 10
9.676684466686054
 20
32.97630778994338
 10
9.483014969793401
 20
31.02269495197111
 10
8.862076021193814
 20
31.02269495197111
 10
9.159497991066103
 20
34.02289574745092
 10
10.25949799106612
 20
34.02289574745092
 10
10.47960167736178
 20
32.51905112715967
1001
AcDbBlockRepETag
1070
     1
1071
      847
1005
784A
  0
SPLINE
  5
784B
102
{ACAD_REACTORS
330
7863
102
}
330
7822
100
AcDbEntity
  8
APL Border
 62
     8
100
AcDbSpline
210
0.0
220
0.0
230
1.0
 70
     8
 71
     3
 72
    24
 73
    20
 74
    18
 42
0.0000000001
 43
0.0000000001
 44
0.0000000001
 40
0.0
 40
0.0
 40
0.0
 40
0.0
 40
0.1612668085856004
 40
0.2532303870616512
 40
0.3214574742553458
 40
0.4101806452458731
 40
0.5031588697521455
 40
0.5664511009172086
 40
0.6248718787780579
 40
0.6731644290699537
 40
0.7797386132933625
 40
0.9206747739903555
 40
1.025058962643406
 40
1.116412352300617
 40
1.212929457806155
 40
1.276240530363043
 40
1.339961572016455
 40
1.386280507025956
 40
1.435584820291643
 40
1.435584820291643
 40
1.435584820291643
 40
1.435584820291643
 10
6.787553510813182
 20
32.18510847056172
 30
0.0
 10
6.791047458209138
 20
32.13113887955867
 30
0.0
 10
6.796533854692151
 20
32.04639273409249
 30
0.0
 10
6.834321173147815
 20
31.94484979851901
 30
0.0
 10
6.876009956854381
 20
31.87333980904243
 30
0.0
 10
6.927363417736518
 20
31.80538556645249
 30
0.0
 10
7.002419943287081
 20
31.76864323009899
 30
0.0
 10
7.068704477277941
 20
31.74267907228054
 30
0.0
 10
7.123069508903178
 20
31.72524765496453
 30
0.0
 10
7.194292617405833
 20
31.72000318501402
 30
0.0
 10
7.293138793844411
 20
31.72588425683905
 30
0.0
 10
7.407474539225143
 20
31.75614142192696
 30
0.0
 10
7.507410339301799
 20
31.81206853839397
 30
0.0
 10
7.568441038389779
 20
31.88994982917432
 30
0.0
 10
7.608507610253345
 20
31.96348378626594
 30
0.0
 10
7.639654909840773
 20
32.03115368524333
 30
0.0
 10
7.661175422626328
 20
32.08504635054892
 30
0.0
 10
7.671388798025919
 20
32.13732010968165
 30
0.0
 10
7.675974690825655
 20
32.16885088442535
 30
0.0
 10
7.678339223502376
 20
32.18510847056172
 30
0.0
 11
6.787553510813182
 21
32.18510847056172
 31
0.0
 11
6.80788275947205
 21
32.02512814302002
 31
0.0
 11
6.839747610474802
 21
31.93886151542456
 31
0.0
 11
6.873703943381798
 21
31.87968463748693
 31
0.0
 11
6.930859886820059
 21
31.81182449306993
 31
0.0
 11
7.011646374244861
 21
31.76579739581298
 31
0.0
 11
7.07057187321962
 21
31.74269561890237
 31
0.0
 11
7.126760787006475
 21
31.72670208104109
 31
0.0
 11
7.174834126408228
 21
31.72210594652836
 31
0.0
 11
7.28123195645972
 21
31.72823444579155
 31
0.0
 11
7.417077081113944
 21
31.76577247317295
 31
0.0
 11
7.506379325021185
 21
31.81982030452526
 31
0.0
 11
7.565172093407142
 21
31.88974063195139
 31
0.0
 11
7.612628106323342
 21
31.97378513500343
 31
0.0
 11
7.639118596251961
 21
32.03128770756889
 31
0.0
 11
7.661120083176541
 21
32.09108992928768
 31
0.0
 11
7.670835359595827
 21
32.13637852768188
 31
0.0
 11
7.678339223502376
 21
32.18510847056172
 31
0.0
1001
AcDbBlockRepETag
1070
     1
1071
      848
1005
784B
  0
LWPOLYLINE
  5
784C
102
{ACAD_REACTORS
330
7856
102
}
330
7822
100
AcDbEntity
  8
APL Border
  6
Continuous
 62
     8
100
AcDbPolyline
 90
        4
 70
     1
 43
0.0
 10
-1.87552020613694
 20
26.87985997284487
 10
-2.652351276624727
 20
26.87985997284487
 10
-2.949753340833609
 20
23.87985997284487
 10
-2.172922270345821
 20
23.87985997284487
1001
AcDbBlockRepETag
1070
     1
1071
      851
1005
784C
  0
LWPOLYLINE
  5
784D
102
{ACAD_REACTORS
330
7856
102
}
330
7822
100
AcDbEntity
  8
APL Border
  6
Continuous
 62
     8
100
AcDbPolyline
 90
       10
 70
     1
 43
0.0
 10
-1.269968290467119
 20
26.87985997284487
 10
-1.567390260339408
 20
23.87965917736506
 10
-0.9464513117398212
 20
23.87965917736506
 10
-0.7630434193126519
 20
25.72975957510511
 10
0.0564916475867392
 20
23.87965917736506
 10
0.9078833951650437
 20
23.87965917736506
 10
1.205285459373925
 20
26.87965917736506
 10
0.5853232289196911
 20
26.87965917736506
 10
0.4009773036021614
 20
25.0299490114994
 10
-0.41838490310775
 20
26.87965917736506
1001
AcDbBlockRepETag
1070
     1
1071
      852
1005
784D
  0
LWPOLYLINE
  5
784E
102
{ACAD_REACTORS
330
7856
102
}
330
7822
100
AcDbEntity
  8
APL Border
 62
     8
100
AcDbPolyline
 90
       13
 70
     0
 43
0.0
 10
1.882971499788112
 20
26.87985997284487
 10
3.847979515363789
 20
26.87985997284487
 10
3.788499102522024
 20
26.27985997284487
 10
2.600322157434135
 20
26.27985997284487
 10
2.540562294183217
 20
25.67704105755032
 10
3.542578834455781
 20
25.67704105755032
 10
3.476410183919
 20
25.07985997284487
 10
2.474393643646379
 20
25.07985997284487
 10
2.421932428393546
 20
24.48037956726917
 10
3.610109373481435
 20
24.48037956726917
 10
3.550577451154907
 20
23.87985997284487
 10
1.58556943557923
 20
23.87985997284487
 10
1.882971499788112
 20
26.87985997284487
1001
AcDbBlockRepETag
1070
     1
1071
      864
1005
784E
  0
LINE
  5
784F
102
{ACAD_REACTORS
330
7856
102
}
330
7822
100
AcDbEntity
  8
APL Border
 62
     8
100
AcDbLine
 10
5.198870965514487
 20
25.50205881951548
 30
0.0
 11
5.142141867913778
 21
25.50205881951548
 31
0.0
1001
AcDbBlockRepETag
1070
     1
1071
      865
1005
784F
  0
SPLINE
  5
7850
102
{ACAD_REACTORS
330
7856
102
}
330
7822
100
AcDbEntity
  8
APL Border
 62
     8
100
AcDbSpline
210
0.0
220
0.0
230
1.0
 70
     8
 71
     3
 72
    25
 73
    21
 74
     0
 42
0.0000000001
 43
0.0000000001
 40
0.0
 40
0.0
 40
0.0
 40
0.0
 40
0.3463130802699203
 40
0.6043703055549736
 40
0.8524756959462802
 40
1.099102870182333
 40
1.318598063912852
 40
1.521064627602771
 40
1.694788988362445
 40
1.912615757663666
 40
2.142780600046976
 40
2.483378398179008
 40
2.873129106540456
 40
3.09179617846886
 40
3.322387155839943
 40
3.509181810940893
 40
3.69147909649244
 40
3.927844502409028
 40
4.143063657146388
 40
4.406491840702669
 40
4.406491840702669
 40
4.406491840702669
 40
4.406491840702669
 10
-5.114032196843737
 20
23.8798599728377
 30
0.0
 10
-5.228982970363915
 20
23.89503832123493
 30
0.0
 10
-5.429589987754155
 20
23.92152690506636
 30
0.0
 10
-5.693675021857103
 20
24.03567408988205
 30
0.0
 10
-5.892941488864977
 20
24.19306688135278
 30
0.0
 10
-6.036314150572081
 20
24.38541826526996
 30
0.0
 10
-6.137502326421099
 20
24.58575647986304
 30
0.0
 10
-6.184089306330008
 20
24.77995730666768
 30
0.0
 10
-6.209030826709039
 20
24.97670983726675
 30
0.0
 10
-6.206060891535827
 20
25.18442176502657
 30
0.0
 10
-6.186178297010457
 20
25.44676950423098
 30
0.0
 10
-6.128537036390639
 20
25.76177491648128
 30
0.0
 10
-6.024273636684796
 20
26.06592307272473
 30
0.0
 10
-5.858617591962229
 20
26.29271170654482
 30
0.0
 10
-5.725334295882049
 20
26.45803039682342
 30
0.0
 10
-5.575727893531166
 20
26.59168695454355
 30
0.0
 10
-5.409633372236157
 20
26.70740493083671
 30
0.0
 10
-5.217340570729675
 20
26.79721770551459
 30
0.0
 10
-4.988026372094168
 20
26.86731869684436
 30
0.0
 10
-4.849424991220388
 20
26.87777876054341
 30
0.0
 10
-4.7645039250757
 20
26.87985997283595
 30
0.0
1001
AcDbBlockRepETag
1070
     1
1071
      875
1005
7850
  0
ELLIPSE
  5
7851
102
{ACAD_REACTORS
330
7855
330
7856
102
}
330
7822
100
AcDbEntity
  8
APL Border
 62
     8
100
AcDbEllipse
 10
-4.728528852722632
 20
25.3825150979867
 30
0.0
 11
-0.2732326585474372
 21
-0.8283682112856686
 31
0.0
210
0.0
220
0.0
230
-1.0
 40
0.767138872147242
 41
0.0
 42
6.283185307179586
1001
AcDbBlockRepETag
1070
     1
1071
      876
1005
7851
  0
SPLINE
  5
7852
102
{ACAD_REACTORS
330
7856
102
}
330
7822
100
AcDbEntity
  8
APL Border
 62
     8
100
AcDbSpline
210
0.0
220
0.0
230
1.0
 70
     8
 71
     3
 72
    26
 73
    22
 74
     0
 42
0.0000000001
 43
0.0000000001
 40
4.60284491300692
 40
4.60284491300692
 40
4.60284491300692
 40
4.60284491300692
 40
4.695921259854779
 40
4.963507654731998
 40
5.182979392648435
 40
5.397234555269768
 40
5.619529682274728
 40
5.869260387557257
 40
6.093250787730498
 40
6.263427758207029
 40
6.582064557968705
 40
6.800458868269094
 40
7.179401531729983
 40
7.575889850719137
 40
7.787844664578662
 40
8.01909420716162
 40
8.205730502580088
 40
8.387453763945252
 40
8.621856230932909
 40
8.833419194479944
 40
8.988019761194074
 40
8.988019761194074
 40
8.988019761194074
 40
8.988019761194074
 10
-4.486699891621668
 20
26.8798599728377
 30
0.0
 10
-4.440001835107608
 20
26.87954742494388
 30
0.0
 10
-4.335540249228728
 20
26.87475925711838
 30
0.0
 10
-4.164200665084621
 20
26.85307202884131
 30
0.0
 10
-3.96932086400659
 20
26.77880589501945
 30
0.0
 10
-3.766465201232762
 20
26.6658847706859
 30
0.0
 10
-3.60114437794968
 20
26.50570040783856
 30
0.0
 10
-3.471205788265336
 20
26.31143584383913
 30
0.0
 10
-3.381388817883674
 20
26.11392472080339
 30
0.0
 10
-3.317144182132551
 20
25.88552622199355
 30
0.0
 10
-3.281793375658168
 20
25.65006475492956
 30
0.0
 10
-3.30137826591374
 20
25.34538614523087
 30
0.0
 10
-3.327064239225308
 20
25.0112478652753
 30
0.0
 10
-3.471288581215731
 20
24.71021445059323
 30
0.0
 10
-3.60460091530777
 20
24.4641890220082
 30
0.0
 10
-3.737092402415015
 20
24.29954990084814
 30
0.0
 10
-3.882945983371143
 20
24.16225529150343
 30
0.0
 10
-4.046861838463826
 20
24.04508050911121
 30
0.0
 10
-4.233796525969012
 20
23.94884265716423
 30
0.0
 10
-4.427631511903911
 20
23.89220734010023
 30
0.0
 10
-4.549580407823555
 20
23.882511578974
 30
0.0
 10
-4.601116794093542
 20
23.87985997285202
 30
0.0
1001
AcDbBlockRepETag
1070
     1
1071
      877
1005
7852
  0
LWPOLYLINE
  5
7853
102
{ACAD_REACTORS
330
7856
102
}
330
7822
100
AcDbEntity
  8
APL Border
 62
     8
100
AcDbPolyline
 90
        2
 70
     0
 43
0.0
 10
-4.764503925211641
 20
26.8798599728377
 10
-4.486699891621924
 20
26.8798599728377
1001
AcDbBlockRepETag
1070
     1
1071
      878
1005
7853
  0
LWPOLYLINE
  5
7854
102
{ACAD_REACTORS
330
7856
102
}
330
7822
100
AcDbEntity
  8
APL Border
 62
     8
100
AcDbPolyline
 90
        2
 70
     0
 43
0.0
 10
-5.114032196843737
 20
23.8798599728377
 10
-4.601116794093513
 20
23.87985997285202
1001
AcDbBlockRepETag
1070
     1
1071
      879
1005
7854
  0
HATCH
  5
7855
330
7822
100
AcDbEntity
  8
APL Border
 62
     8
100
AcDbHatch
 10
0.0
 20
0.0
 30
0.0
210
0.0
220
0.0
230
1.0
  2
SOLID
 70
     1
 71
     1
 91
        1
 92
        5
 93
        1
 72
     3
 10
-4.728528852722632
 20
25.3825150979867
 11
-0.2732326585474372
 21
-0.8283682112856686
 40
0.767138872147242
 50
0.0
 51
360.0
 73
     0
 97
        1
330
7851
 75
     0
 76
     1
 47
0.0172809346375552
 98
        1
 10
-4.520972790815363
 20
25.15086651129009
1001
ACAD
1010
0.0
1020
0.0
1030
0.0
1001
AcDbBlockRepETag
1070
     1
1071
      880
1005
7855
  0
HATCH
  5
7856
330
7822
100
AcDbEntity
  8
APL Border
 62
     8
100
AcDbHatch
 10
0.0
 20
0.0
 30
0.0
210
0.0
220
0.0
230
1.0
  2
SOLID
 70
     1
 71
     1
 91
        9
 92
        7
 72
     0
 73
     1
 93
        4
 10
-12.20942510081127
 20
28.14789574745095
 10
-8.85038058018816
 20
22.32985997284487
 10
8.850698786449385
 20
22.32985997284487
 10
12.20974330707306
 20
28.14789574745094
 97
        1
330
7835
 92
       20
 93
        4
 72
     4
 94
        3
 73
     0
 74
     0
 95
       25
 96
       21
 40
0.0
 40
0.0
 40
0.0
 40
0.0
 40
0.3463130802699203
 40
0.6043703055549736
 40
0.8524756959462802
 40
1.099102870182333
 40
1.318598063912852
 40
1.521064627602771
 40
1.694788988362445
 40
1.912615757663666
 40
2.142780600046976
 40
2.483378398179008
 40
2.873129106540456
 40
3.09179617846886
 40
3.322387155839943
 40
3.509181810940893
 40
3.69147909649244
 40
3.927844502409028
 40
4.143063657146388
 40
4.406491840702669
 40
4.406491840702669
 40
4.406491840702669
 40
4.406491840702669
 10
-5.114032196843737
 20
23.8798599728377
 10
-5.228982970363915
 20
23.89503832123493
 10
-5.429589987754155
 20
23.92152690506636
 10
-5.693675021857103
 20
24.03567408988205
 10
-5.892941488864977
 20
24.19306688135278
 10
-6.036314150572081
 20
24.38541826526996
 10
-6.137502326421099
 20
24.58575647986304
 10
-6.184089306330008
 20
24.77995730666768
 10
-6.209030826709039
 20
24.97670983726675
 10
-6.206060891535827
 20
25.18442176502657
 10
-6.186178297010457
 20
25.44676950423098
 10
-6.128537036390639
 20
25.76177491648128
 10
-6.024273636684796
 20
26.06592307272473
 10
-5.858617591962229
 20
26.29271170654482
 10
-5.725334295882049
 20
26.45803039682342
 10
-5.575727893531166
 20
26.59168695454355
 10
-5.409633372236157
 20
26.70740493083671
 10
-5.217340570729675
 20
26.79721770551459
 10
-4.988026372094168
 20
26.86731869684436
 10
-4.849424991220388
 20
26.87777876054341
 10
-4.7645039250757
 20
26.87985997283595
 72
     1
 10
-4.764503925020689
 20
26.87985997283771
 11
-4.486699891621347
 21
26.8798599728377
 72
     4
 94
        3
 73
     0
 74
     0
 95
       26
 96
       22
 40
4.60284491300692
 40
4.60284491300692
 40
4.60284491300692
 40
4.60284491300692
 40
4.695921259854779
 40
4.963507654731998
 40
5.182979392648435
 40
5.397234555269768
 40
5.619529682274728
 40
5.869260387557257
 40
6.093250787730498
 40
6.263427758207029
 40
6.582064557968705
 40
6.800458868269094
 40
7.179401531729983
 40
7.575889850719137
 40
7.787844664578662
 40
8.01909420716162
 40
8.205730502580088
 40
8.387453763945252
 40
8.621856230932909
 40
8.833419194479944
 40
8.988019761194074
 40
8.988019761194074
 40
8.988019761194074
 40
8.988019761194074
 10
-4.486699891621668
 20
26.8798599728377
 10
-4.440001835107608
 20
26.87954742494388
 10
-4.335540249228728
 20
26.87475925711838
 10
-4.164200665084621
 20
26.85307202884131
 10
-3.96932086400659
 20
26.77880589501945
 10
-3.766465201232762
 20
26.6658847706859
 10
-3.60114437794968
 20
26.50570040783856
 10
-3.471205788265336
 20
26.31143584383913
 10
-3.381388817883674
 20
26.11392472080339
 10
-3.317144182132551
 20
25.88552622199355
 10
-3.281793375658168
 20
25.65006475492956
 10
-3.30137826591374
 20
25.34538614523087
 10
-3.327064239225308
 20
25.0112478652753
 10
-3.471288581215731
 20
24.71021445059323
 10
-3.60460091530777
 20
24.4641890220082
 10
-3.737092402415015
 20
24.29954990084814
 10
-3.882945983371143
 20
24.16225529150343
 10
-4.046861838463826
 20
24.04508050911121
 10
-4.233796525969012
 20
23.94884265716423
 10
-4.427631511903911
 20
23.89220734010023
 10
-4.549580407823555
 20
23.882511578974
 10
-4.601116794093542
 20
23.87985997285202
 72
     1
 10
-4.601116794093525
 20
23.87985997285202
 11
-5.114032196843729
 21
23.8798599728377
 97
        4
330
7850
330
7853
330
7852
330
7854
 92
        4
 93
        1
 72
     3
 10
-4.728528852722632
 20
25.3825150979867
 11
-0.2732326585474372
 21
-0.8283682112856686
 40
0.767138872147242
 50
0.0
 51
360.0
 73
     0
 97
        1
330
7851
 92
       20
 93
        8
 72
     1
 10
-6.482313212520211
 20
26.87985997284487
 11
-6.679452083611267
 21
24.89125032803125
 72
     4
 94
        3
 73
     0
 74
     0
 95
       16
 96
       12
 40
0.0
 40
0.0
 40
0.0
 40
0.0
 40
0.1978277931646383
 40
0.361463118001824
 40
0.5540499897785108
 40
0.7796220130725381
 40
0.979106605438038
 40
1.222151590302332
 40
1.40748727220097
 40
1.607226525619232
 40
1.815049166761618
 40
1.815049166761618
 40
1.815049166761618
 40
1.815049166761618
 10
-6.679452083611295
 20
24.89125032803118
 10
-6.685371732996685
 20
24.82559351525052
 10
-6.696187882184318
 20
24.70562798418881
 10
-6.721757155054632
 20
24.52229576436942
 10
-6.768469983285655
 20
24.33480615160982
 10
-6.860719723390843
 20
24.14153771241002
 10
-7.051789745146265
 20
24.01851519430106
 10
-7.233921808197266
 20
23.91285203345821
 10
-7.443451931375136
 20
23.87675735439051
 10
-7.641222718647384
 20
23.88093312949101
 10
-7.776581895343355
 20
23.89281010788354
 10
-7.845603808282817
 20
23.89886637823479
 72
     1
 10
-7.845603808282787
 20
23.89886637823479
 11
-8.399876560405061
 21
23.98304774476413
 72
     1
 10
-8.399876560405061
 20
23.98304774476413
 11
-8.399876560405061
 21
24.64579492155148
 72
     1
 10
-8.399876560405061
 20
24.64579492155148
 11
-7.815117916056302
 21
24.56632682606845
 72
     4
 94
        3
 73
     0
 74
     0
 95
       11
 96
        7
 40
0.0
 40
0.0
 40
0.0
 40
0.0
 40
0.2042619346961744
 40
0.3074129668363174
 40
0.4146012126853764
 40
0.4826852714337078
 40
0.4826852714337078
 40
0.4826852714337078
 40
0.4826852714337078
 10
-7.815117916056323
 20
24.56632682606847
 10
-7.743266182308218
 20
24.55714977626708
 10
-7.635129760920136
 20
24.54333837224583
 10
-7.524447891091284
 20
24.63752792323729
 10
-7.477352395049535
 20
24.71998790389099
 10
-7.468646137215245
 20
24.77808681972154
 10
-7.465264214605014
 20
24.80065518845331
 72
     1
 10
-7.465264214605014
 20
24.80065518845333
 11
-7.259144283007996
 21
26.87985997284487
 72
     1
 10
-7.259144283007996
 20
26.87985997284487
 11
-6.482313212520211
 21
26.87985997284487
 97
        4
330
783B
330
7826
330
783C
330
7827
 92
       22
 72
     0
 73
     1
 93
        4
 10
-2.652351276624725
 20
26.87985997284486
 10
-1.87552020613694
 20
26.87985997284486
 10
-2.172922270345821
 20
23.87985997284487
 10
-2.949753340833609
 20
23.87985997284487
 97
        1
330
784C
 92
       22
 72
     0
 73
     1
 93
       10
 10
-1.269968290467114
 20
26.87985997284487
 10
-0.4183849031077484
 20
26.87965917736506
 10
0.4009773036021615
 20
25.0299490114994
 10
0.5853232289196909
 20
26.87965917736506
 10
1.205285459373925
 20
26.87965917736506
 10
0.9078833951650439
 20
23.87965917736506
 10
0.056491647586738
 20
23.87965917736506
 10
-0.7630434193126518
 20
25.72975957510511
 10
-0.946451311739821
 20
23.87965917736506
 10
-1.567390260339408
 20
23.87965917736506
 97
        1
330
784D
 92
       22
 72
     0
 73
     1
 93
       12
 10
1.882971499788112
 20
26.87985997284486
 10
3.847979515363789
 20
26.87985997284486
 10
3.788499102522024
 20
26.27985997284486
 10
2.600322157434135
 20
26.27985997284487
 10
2.540562294183218
 20
25.67704105755032
 10
3.542578834455781
 20
25.67704105755032
 10
3.476410183919
 20
25.07985997284487
 10
2.47439364364638
 20
25.07985997284487
 10
2.421932428393546
 20
24.48037956726917
 10
3.610109373481436
 20
24.48037956726917
 10
3.550577451154907
 20
23.87985997284487
 10
1.585569435579231
 20
23.87985997284487
 97
        1
330
784E
 92
       20
 93
       11
 72
     1
 10
4.429648034880159
 20
26.87985997284486
 11
5.780015564168562
 21
26.87985997284487
 72
     4
 94
        3
 73
     0
 74
     0
 95
       20
 96
       16
 40
0.0
 40
0.0
 40
0.0
 40
0.0
 40
0.1774120264923274
 40
0.3258093286713144
 40
0.4834060703451958
 40
0.6311237014699663
 40
0.811161917566129
 40
0.9605198197290178
 40
1.289502400757101
 40
1.459697744220917
 40
1.604754171475458
 40
1.794797311213428
 40
2.030760379210173
 40
2.301729078160567
 40
2.393267743077617
 40
2.393267743077617
 40
2.393267743077617
 40
2.393267743077617
 10
5.780015564168593
 20
26.87985997284487
 10
5.839056126904296
 20
26.87337384475878
 10
5.947481505327601
 20
26.86146235781404
 10
6.098807931884806
 20
26.80185114122353
 10
6.227972759762906
 20
26.72168911843352
 10
6.347510602881385
 20
26.61140356622764
 10
6.442310149474394
 20
26.48207375794227
 10
6.536759215535255
 20
26.28338234239492
 10
6.578465181725675
 20
26.06469589684353
 10
6.553150099427256
 20
25.85079503063701
 10
6.524121382020268
 20
25.68499989147718
 10
6.464236525716046
 20
25.50199988960434
 10
6.327150620479812
 20
25.31187331731421
 10
6.179477266233362
 20
25.17172660684537
 10
6.072729148555964
 20
25.11631253421805
 10
6.045077525535504
 20
25.10350570839811
 72
     1
 10
6.045077525535502
 20
25.1035057083981
 11
6.339444173005232
 21
23.87985997284487
 72
     1
 10
6.339444173005232
 20
23.87985997284487
 11
5.532386545886621
 21
23.87985997284487
 72
     1
 10
5.532386545886621
 20
23.87985997284487
 11
5.142141867913776
 21
25.50205881951548
 72
     1
 10
5.142141867913776
 20
25.50205881951548
 11
5.19887096551445
 21
25.50205881951548
 72
     4
 94
        3
 73
     0
 74
     0
 95
       17
 96
       13
 40
0.0
 40
0.0
 40
0.0
 40
0.0
 40
0.0463117202933683
 40
0.2032408426961212
 40
0.3585694343029505
 40
0.4964057577712057
 40
0.6456565825699876
 40
0.7595770154256244
 40
0.9262943680254526
 40
1.032180609131101
 40
1.14647028625934
 40
1.243973057737614
 40
1.243973057737614
 40
1.243973057737614
 40
1.243973057737614
 10
5.198870965514487
 20
25.50205881951548
 10
5.214272018053407
 20
25.50302975767877
 10
5.28186015506489
 20
25.50729075876586
 10
5.40176083940824
 20
25.51345804330556
 10
5.546675458142118
 20
25.55725132865025
 10
5.67725421213268
 20
25.62965962372397
 10
5.765298612935083
 20
25.7349784962169
 10
5.820388894698254
 20
25.86817511516085
 10
5.832561030472788
 20
26.0011917111029
 10
5.781919321100474
 20
26.1258482190374
 10
5.684603990133524
 20
26.18537947021099
 10
5.613502616848251
 20
26.1875961553427
 10
5.580769717272147
 20
26.18861664944085
 72
     1
 10
5.580769717272125
 20
26.18861664944085
 11
5.137953374950967
 21
26.18861664944085
 72
     1
 10
5.137953374950967
 20
26.18861664944085
 11
4.909077041159065
 21
23.87985997284487
 72
     1
 10
4.909077041159065
 20
23.87985997284487
 11
4.132245970671278
 21
23.87985997284487
 72
     1
 10
4.132245970671278
 20
23.87985997284487
 11
4.429648034880159
 21
26.87985997284486
 97
        5
330
7836
330
7828
330
7838
330
784F
330
7829
 92
       22
 72
     0
 73
     1
 93
        9
 10
6.800478684667179
 20
26.87985997284487
 10
7.607536311785904
 20
26.87985997284487
 10
7.963471882016363
 20
25.86355557445326
 10
8.538893993587493
 20
26.87985997284487
 10
9.414203966725493
 20
26.87985997284487
 10
8.232331174709315
 20
25.00957443408062
 10
8.120338037129924
 20
23.87985997284486
 10
7.343506966642139
 20
23.87985997284486
 10
7.455500104221528
 20
25.00957443408062
 97
        1
330
7834
 75
     0
 76
     1
 47
0.0276408434878157
 98
        9
 10
-5.110068937762804
 20
27.30829258594788
 10
-5.110068937762804
 20
27.30829258594788
 10
-5.110068937762804
 20
27.30829258594788
 10
-5.110068937762804
 20
27.30829258594788
 10
-5.110068937762804
 20
27.30829258594788
 10
-5.110068937762804
 20
27.30829258594788
 10
-5.110068937762804
 20
27.30829258594788
 10
-5.110068937762804
 20
27.30829258594788
 10
-5.110068937762804
 20
27.30829258594788
1001
ACAD
1010
0.0
1020
0.0
1030
0.0
1001
AcDbBlockRepETag
1070
     1
1071
      881
1005
7856
  0
HATCH
  5
7857
330
7822
100
AcDbEntity
  8
APL Border
 62
     8
100
AcDbHatch
 10
0.0
 20
0.0
 30
0.0
210
0.0
220
0.0
230
1.0
  2
SOLID
 70
     1
 71
     1
 91
        1
 92
        7
 72
     0
 73
     1
 93
        4
 10
0.0001591031300169
 20
7.000275566930961
 10
3.563095122801513
 20
13.17146177711931
 10
-0.9450856774407473
 20
20.97985997284487
 10
-8.070957716782199
 20
20.97985997284487
 97
        1
330
7839
 75
     0
 76
     1
 47
0.0707162833847576
 98
        3
 10
-2.675438732228172
 20
16.47794635472378
 10
6.312751868664321
 20
42.28939048605213
 10
-9.894301834166896
 20
39.60217176706084
1001
ACAD
1010
0.0
1020
0.0
1030
0.0
1001
AcDbBlockRepETag
1070
     1
1071
      883
1005
7857
  0
HATCH
  5
7858
330
7822
100
AcDbEntity
  8
APL Border
 62
     8
100
AcDbHatch
 10
0.0
 20
0.0
 30
0.0
210
0.0
220
0.0
230
1.0
  2
SOLID
 70
     1
 71
     0
 91
        1
 92
        7
 72
     0
 73
     1
 93
        7
 10
-12.96642015501169
 20
43.61979184908029
 10
-14.7664201550117
 20
43.61979184908029
 10
-16.54136876356097
 20
39.42215966960598
 10
-17.19614352503853
 20
43.61979184908029
 10
-18.99614352503854
 20
43.61979184908029
 10
-17.7875751270476
 20
37.38083558975206
 10
-15.77022638070493
 20
37.38083558975206
 97
        0
 75
     0
 76
     1
 47
0.0707162833847576
 98
        3
 10
6.249678794057444
 20
42.28939048605213
 10
-9.957374908773772
 20
39.60217176706084
 10
-16.39773218462096
 20
38.68285940442952
1001
ACAD
1010
0.0
1020
0.0
1030
0.0
1001
AcDbBlockRepETag
1070
     1
1071
      884
1005
7858
  0
HATCH
  5
7859
330
7822
100
AcDbEntity
  8
APL Border
 62
     8
100
AcDbHatch
 10
0.0
 20
0.0
 30
0.0
210
0.0
220
0.0
230
1.0
  2
SOLID
 70
     1
 71
     1
 91
        1
 92
        7
 72
     0
 73
     1
 93
       10
 10
-2.850928947786229
 20
37.38083558975206
 10
-2.181839912298442
 20
43.6197918490803
 10
-3.855464624526036
 20
43.61979184908029
 10
-4.228474015381578
 20
40.14164596649268
 10
-5.40751765387219
 20
43.61979184908029
 10
-7.466097855805088
 20
43.61979184908029
 10
-8.135186891292875
 20
37.38083558975206
 10
-6.479801476178323
 20
37.38083558975206
 10
-6.131920885667285
 20
40.6246666384634
 10
-5.032306754624555
 20
37.38083558975206
 97
        1
330
7830
 75
     0
 76
     1
 47
0.0707162833847576
 98
        3
 10
6.312751868664321
 20
42.28939048605213
 10
-5.364819983741796
 20
40.80434854252457
 10
-9.894301834166896
 20
39.60217176706084
1001
ACAD
1010
0.0
1020
0.0
1030
0.0
1001
AcDbBlockRepETag
1070
     1
1071
      886
1005
7859
  0
HATCH
  5
785A
330
7822
100
AcDbEntity
  8
APL Border
 62
     8
100
AcDbHatch
 10
0.0
 20
0.0
 30
0.0
210
0.0
220
0.0
230
1.0
  2
SOLID
 70
     1
 71
     1
 91
        1
 92
        7
 72
     0
 73
     1
 93
        8
 10
2.929095477768755
 20
41.97282181113101
 10
3.105743226874893
 20
43.6199831327606
 10
-1.725754035154748
 20
43.61998313276061
 10
-1.891167362926863
 20
41.97282181113101
 10
-0.3755272841536335
 20
41.97282181113101
 10
-0.8679685705352806
 20
37.38102687343239
 10
0.9741138955425025
 20
37.38339558452146
 10
1.466301152475638
 20
41.97282181113101
 97
        1
330
782F
 75
     0
 76
     1
 47
0.0707162833847576
 98
        3
 10
6.461508006627583
 20
42.28958176973246
 10
0.3042431306128051
 20
42.36029787294049
 10
-9.745545696203633
 20
39.60236305074117
1001
ACAD
1010
0.0
1020
0.0
1030
0.0
1001
AcDbBlockRepETag
1070
     1
1071
      887
1005
785A
  0
HATCH
  5
785B
330
7822
100
AcDbEntity
  8
APL Border
 62
     8
100
AcDbHatch
 10
0.0
 20
0.0
 30
0.0
210
0.0
220
0.0
230
1.0
  2
SOLID
 70
     1
 71
     1
 91
        1
 92
        7
 72
     0
 73
     1
 93
        3
 10
8.071275923043375
 20
20.97985997284487
 10
0.8484489512626126
 20
20.97985997284487
 10
4.459862437153192
 20
14.72470832814346
 97
        1
330
783A
 75
     0
 76
     1
 47
0.0707162833847576
 98
        3
 10
4.897289869501349
 20
18.17513736310713
 10
6.312751868664321
 20
42.28939048605213
 10
-9.894301834166896
 20
39.60217176706084
1001
ACAD
1010
0.0
1020
0.0
1030
0.0
1001
AcDbBlockRepETag
1070
     1
1071
      891
1005
785B
  0
HATCH
  5
785C
330
7822
100
AcDbEntity
  8
APL Border
 62
     8
100
AcDbHatch
 10
0.0
 20
0.0
 30
0.0
210
0.0
220
0.0
230
1.0
  2
SOLID
 70
     1
 71
     1
 91
        2
 92
       16
 93
        3
 72
     1
 10
0.0000000003145431
 20
4.000000000000009
 11
23.60256143704041
 21
44.88083558975217
 72
     1
 10
23.60256143704041
 20
44.88083558975217
 11
-23.60256142783933
 21
44.88083558975206
 72
     1
 10
-23.60256142783933
 20
44.88083558975206
 11
0.0000000003145431
 21
4.000000000000007
 97
        1
330
7840
 92
        1
 93
        3
 72
     1
 10
27.06666305249243
 20
46.88083558975206
 11
-27.06666304266244
 21
46.88083558975206
 72
     1
 10
-27.06666304266244
 20
46.88083558975206
 11
-0.0000000000000284
 21
0.0000000000000213
 72
     1
 10
-0.0000000000000284
 20
0.0000000000000238
 11
27.06666305249243
 21
46.88083558975206
 97
        1
330
7841
 75
     0
 76
     1
 98
        1
 10
-236.5641112216887
 20
1.231020082252661
1001
ACAD
1010
0.0
1020
0.0
1030
0.0
1001
AcDbBlockRepETag
1070
     1
1071
      892
1005
785C
  0
HATCH
  5
785D
330
7822
100
AcDbEntity
  8
APL Border
 62
     8
100
AcDbHatch
 10
0.0
 20
0.0
 30
0.0
210
0.0
220
0.0
230
1.0
  2
SOLID
 70
     1
 71
     1
 91
        1
 92
        7
 72
     0
 73
     1
 93
       12
 10
15.84058876400877
 20
41.9726305274507
 10
18.21321428445671
 20
41.9726305274507
 10
18.38986203356285
 20
43.61979184908029
 10
14.13627631352983
 20
43.61979184908029
 10
13.46718727804204
 20
37.38083558975206
 10
17.72077299807506
 20
37.38083558975207
 10
17.87787225036464
 20
38.84571591422678
 10
15.50524672991671
 20
38.84571591422678
 10
15.58395939694927
 20
39.5796763598845
 10
17.56969663746741
 20
39.57967635988449
 10
17.71732334684157
 20
41.15966911198297
 10
15.75340373709809
 20
41.15966911198297
 97
        1
330
782C
 75
     0
 76
     1
 47
0.0265225354961204
 98
        1
 10
15.74642260871314
 20
42.54140343148856
1001
ACAD
1010
0.0
1020
0.0
1030
0.0
1001
AcDbBlockRepETag
1070
     1
1071
      895
1005
785D
  0
SPLINE
  5
785E
102
{ACAD_REACTORS
330
7860
330
7861
102
}
330
7822
100
AcDbEntity
  8
APL Border
 62
     8
100
AcDbSpline
210
0.0
220
0.0
230
1.0
 70
     8
 71
     3
 72
    12
 73
     8
 74
     0
 42
0.0000000001
 43
0.0000000001
 40
0.0
 40
0.0
 40
0.0
 40
0.0
 40
0.6153828260925694
 40
0.6153828260925694
 40
1.184895113366773
 40
1.184895113366773
 40
1.406874102447421
 40
1.406874102447421
 40
1.406874102447421
 40
1.406874102447421
 10
13.141643811855
 20
41.76981947766621
 30
0.0
 10
12.65093549588437
 20
41.90084145687704
 30
0.0
 10
12.40139116615246
 20
41.94113120867605
 30
0.0
 10
12.08548087756223
 20
41.99544455363318
 30
0.0
 10
11.92864742837253
 20
42.01465504085827
 30
0.0
 10
11.75444086026641
 20
42.02973960983341
 30
0.0
 10
11.75444086026641
 20
42.02973960983341
 30
0.0
 10
11.64369617822672
 20
42.03297741382947
 30
0.0
1001
AcDbBlockRepETag
1070
     1
1071
      898
1005
785E
  0
LWPOLYLINE
  5
785F
102
{ACAD_REACTORS
330
7860
102
}
330
7822
100
AcDbEntity
  8
APL Border
  6
Continuous
 62
     8
100
AcDbPolyline
 90
        3
 70
     1
 43
0.0
 10
-11.22376129049633
 20
41.69367581194667
 10
-10.87774200114645
 20
40.14955389030274
 10
-11.91769445450297
 20
40.14955389030274
1001
AcDbBlockRepETag
1070
     1
1071
      902
1005
785F
  0
HATCH
  5
7860
330
7822
100
AcDbEntity
  8
APL Border
 62
     8
100
AcDbHatch
 10
0.0
 20
0.0
 30
0.0
210
0.0
220
0.0
230
1.0
  2
SOLID
 70
     1
 71
     1
 91
        2
 92
        7
 72
     0
 73
     1
 93
        8
 10
-9.847253547555595
 20
43.61979184908029
 10
-12.02298966350147
 20
43.61979184908029
 10
-14.82679588919472
 20
37.38083558975206
 10
-12.95240022532295
 20
37.38083558975206
 10
-12.352528740424
 20
38.71565392391761
 10
-10.64639685172309
 20
38.71565392391761
 10
-10.34727999772013
 20
37.38083558975206
 10
-8.449177928734428
 20
37.38083558975207
 97
        1
330
7831
 92
       22
 72
     0
 73
     1
 93
        3
 10
-11.22376129049633
 20
41.69367581194668
 10
-10.87774200114645
 20
40.14955389030274
 10
-11.91769445450297
 20
40.14955389030274
 97
        1
330
785F
 75
     0
 76
     1
 47
0.0464409783890934
 98
        3
 10
-10.7866676671747
 20
42.18285929720354
 10
-10.7866676671747
 20
42.18285929720354
 10
4.318789658947025
 20
41.34692151769582
1001
ACAD
1010
0.0
1020
0.0
1030
0.0
1001
AcDbBlockRepETag
1070
     1
1071
      903
1005
7860
  0
HATCH
  5
7861
330
7822
100
AcDbEntity
  8
APL Border
 62
     8
100
AcDbHatch
 10
0.0
 20
0.0
 30
0.0
210
0.0
220
0.0
230
1.0
  2
SOLID
 70
     1
 71
     1
 91
        1
 92
        5
 93
        9
 72
     4
 94
        3
 73
     0
 74
     0
 95
       25
 96
       21
 40
0.0289432764998855
 40
0.0289432764998855
 40
0.0289432764998855
 40
0.0289432764998855
 40
0.7134165119202287
 40
1.411731005087882
 40
2.041147618059464
 40
3.036171077105474
 40
3.957911241576911
 40
4.83592253147705
 40
5.676684481733094
 40
6.271141751551381
 40
6.974058201941041
 40
7.825808739104269
 40
8.5265481701528
 40
9.125733480364379
 40
9.891766509798275
 40
10.6767880070383
 40
11.66821110410527
 40
12.42950909475574
 40
13.09855121203093
 40
13.70132750762923
 40
13.70132750762923
 40
13.70132750762923
 40
13.70132750762923
 10
13.141643811855
 20
43.40554077871886
 10
12.91988216430481
 20
43.459256627421
 10
12.47168844867874
 20
43.5669624691983
 10
11.80600758681791
 20
43.66484839798013
 10
11.02988777388427
 20
43.6649333207477
 10
10.1361516270939
 20
43.55263717791944
 10
9.306733533720876
 20
43.19741938393827
 10
8.599762003673276
 20
42.45478219212527
 10
8.236440109363229
 20
41.77191325718488
 10
8.073464067873601
 20
41.07996170309042
 10
8.007035995439764
 20
40.3638923215899
 10
7.98103501985804
 20
39.60493317412716
 10
8.107710769833204
 20
38.92055182387923
 10
8.442098079777224
 20
38.21445924826959
 10
9.036296716232907
 20
37.66873436641545
 10
9.909689132144507
 20
37.42421376773082
 10
10.75775873959412
 20
37.35554609345542
 10
11.56487972715851
 20
37.38454149767491
 10
12.23983007222788
 20
37.44815687239099
 10
12.66077873273661
 20
37.49837935861893
 10
12.86026661033734
 20
37.52234731786496
 72
     1
 10
12.86026661033734
 20
37.52234731786496
 11
13.23839963312048
 21
41.04826877857415
 72
     1
 10
13.23839963312048
 20
41.04826877857415
 11
11.12639005748273
 21
41.04826877857415
 72
     1
 10
11.12639005748273
 20
41.04826877857415
 11
10.96889270630695
 21
39.57967635988449
 72
     1
 10
10.96889270630695
 20
39.57967635988449
 11
11.39962533929804
 21
39.57967635988449
 72
     1
 10
11.39962533929804
 20
39.57967635988449
 11
11.33360452536307
 21
38.96406177273883
 72
     4
 94
        3
 73
     0
 74
     0
 95
       19
 96
       15
 40
1.529304964685562
 40
1.529304964685562
 40
1.529304964685562
 40
1.529304964685562
 40
1.763981165818448
 40
2.06379851215709
 40
2.386700017314354
 40
2.753069149612017
 40
3.181918037271135
 40
3.768421453867451
 40
4.325591611844758
 40
5.021152851646889
 40
5.521935404920329
 40
5.929637176310238
 40
6.454411479904243
 40
6.957123473051371
 40
6.957123473755098
 40
6.957123473755098
 40
6.957123473755098
 10
11.33360452536307
 20
38.96406177273881
 10
11.24302802126629
 20
38.95177692242413
 10
10.99026249243499
 20
38.92783484269152
 10
10.70216182646531
 20
38.92661434152812
 10
10.3797311442331
 20
38.98358798973799
 10
10.00680770225198
 20
39.09661486818469
 10
9.716968816830743
 20
39.48770259248511
 10
9.641062203095145
 20
40.05806431643046
 10
9.717431528044755
 20
40.66388266631498
 10
9.854221329784113
 20
41.27113304911427
 10
10.23036575101369
 20
41.67654609785123
 10
10.65553906793815
 20
41.91613810684326
 10
11.13485165915975
 20
42.01473204050012
 10
11.47589856643677
 20
42.04574754506741
 10
11.64369617822672
 20
42.03297741382947
 72
     4
 94
        3
 73
     0
 74
     0
 95
       12
 96
        8
 40
0.0
 40
0.0
 40
0.0
 40
0.0
 40
0.2219789890806476
 40
0.2219789890806476
 40
0.7914912763548521
 40
0.7914912763548521
 40
1.406874102447421
 40
1.406874102447421
 40
1.406874102447421
 40
1.406874102447421
 10
11.64369617822672
 20
42.03297741382947
 10
11.75444086026641
 20
42.02973960983341
 10
11.75444086026641
 20
42.02973960983341
 10
11.92864742837253
 20
42.01465504085827
 10
12.08548087756223
 20
41.99544455363318
 10
12.40139116615246
 20
41.94113120867605
 10
12.65093549588437
 20
41.90084145687704
 10
13.141643811855
 20
41.76981947766621
 72
     1
 10
13.14164381185501
 20
41.76981947766621
 11
13.141643811855
 21
43.40554077871886
 97
        5
330
782A
330
782E
330
782B
330
785E
330
782D
 75
     0
 76
     1
 47
0.0464409783890934
 98
        3
 10
-10.7866676671747
 20
42.18285929720354
 10
4.318789658947025
 20
41.34692151769582
 10
10.26801654887663
 20
42.50794595375691
1001
ACAD
1010
0.0
1020
0.0
1030
0.0
1001
AcDbBlockRepETag
1070
     1
1071
      904
1005
7861
  0
HATCH
  5
7862
330
7822
100
AcDbEntity
  8
APL Border
 62
     8
100
AcDbHatch
 10
0.0
 20
0.0
 30
0.0
210
0.0
220
0.0
230
1.0
  2
SOLID
 70
     1
 71
     1
 91
        2
 92
        7
 72
     0
 73
     1
 93
        8
 10
6.582554574553399
 20
43.61979184908029
 10
4.406818458607519
 20
43.6197918490803
 10
1.603012232914266
 20
37.38083558975206
 10
3.477407896786048
 20
37.38083558975206
 10
4.077279381684999
 20
38.71565392391761
 10
5.783411270385895
 20
38.71565392391761
 10
6.082528124388858
 20
37.38083558975206
 10
7.980630193374566
 20
37.38083558975207
 97
        1
330
7842
 92
       22
 72
     0
 73
     1
 93
        3
 10
5.206046831612668
 20
41.69367581194667
 10
5.552066120962536
 20
40.14955389030274
 10
4.512113667606024
 20
40.14955389030274
 97
        1
330
7843
 75
     0
 76
     1
 47
0.0464409783890934
 98
        3
 10
-10.7866676671747
 20
42.18285929720354
 10
4.318789658947025
 20
41.34692151769582
 10
4.318789658947025
 20
41.34692151769582
1001
ACAD
1010
0.0
1020
0.0
1030
0.0
1001
AcDbBlockRepETag
1070
     1
1071
      905
1005
7862
  0
HATCH
  5
7863
330
7822
100
AcDbEntity
  8
APL Border
 62
     8
100
AcDbHatch
 10
0.0
 20
0.0
 30
0.0
210
0.0
220
0.0
230
1.0
  2
SOLID
 70
     1
 71
     1
 91
       11
 92
        7
 72
     0
 73
     1
 93
        4
 10
-16.33747952551644
 20
35.29789574745092
 10
-12.98884796421712
 20
29.49789574745095
 10
12.98916617047902
 20
29.49789574745094
 10
16.33779773177886
 20
35.29789574745093
 97
        1
330
7833
 92
       22
 72
     0
 73
     1
 93
        8
 10
-10.50084997043805
 20
34.02289574745092
 10
-9.555761072109191
 20
34.02289574745092
 10
-8.834065309397374
 20
31.02289574745093
 10
-9.641122936515984
 20
31.02289574745093
 10
-9.86222995755253
 20
31.94201027933759
 10
-10.74455961985978
 20
31.94201027933758
 10
-11.20867717380426
 20
31.02289574745093
 10
-12.01573480092304
 20
31.02289574745093
 97
        1
330
783F
 92
        6
 72
     0
 73
     1
 93
        3
 10
-10.14693849009504
 20
33.12550842600547
 10
-10.00044093617224
 20
32.51653621849666
 10
-10.45444607654239
 20
32.51653621849665
 97
        1
330
783E
 92
       22
 72
     0
 73
     1
 93
        6
 10
-8.326765119961606
 20
34.02289574745092
 10
-7.549934049473819
 20
34.02289574745092
 10
-7.777198851462713
 20
31.73039516316516
 10
-6.700109532938454
 20
31.73039516316516
 10
-6.770246795158442
 20
31.02289574745093
 10
-8.624167184170486
 20
31.02289574745092
 97
        1
330
783D
 92
       20
 93
       13
 72
     1
 10
-6.13042511277439
 20
34.02488019433461
 11
-5.353790768486449
 21
34.02289574745093
 72
     1
 10
-5.353790768486449
 20
34.02289574745093
 11
-5.5356280948821
 21
32.18709291744541
 72
     4
 94
        3
 73
     0
 74
     0
 95
       24
 96
       20
 40
0.0
 40
0.0
 40
0.0
 40
0.0
 40
0.1612668085855933
 40
0.2532303870616441
 40
0.3214574742553387
 40
0.4101806452459026
 40
0.5031588697521256
 40
0.5664511009171887
 40
0.624871878778038
 40
0.6731644290699905
 40
0.7797386132933425
 40
0.9206747739903356
 40
1.025058962643435
 40
1.116412352300609
 40
1.212929457806147
 40
1.276240530363035
 40
1.339961572016457
 40
1.386280507025952
 40
1.435584820291647
 40
1.435584820291647
 40
1.435584820291647
 40
1.435584820291647
 10
-5.535628094882099
 20
32.1870929174454
 10
-5.53213414748617
 20
32.13312332644234
 10
-5.526647751003197
 20
32.04837718097616
 10
-5.488860432547518
 20
31.94683424540268
 10
-5.447171648840961
 20
31.8753242559261
 10
-5.395818187958767
 20
31.80737001333622
 10
-5.320761662408248
 20
31.77062767698265
 10
-5.254477128417399
 20
31.74466351916423
 10
-5.200112096792143
 20
31.72723210184819
 10
-5.128888988289486
 20
31.72198763189771
 10
-5.030042811850907
 20
31.72786870372271
 10
-4.915707066470194
 20
31.75812586881066
 10
-4.815771266393483
 20
31.81405298527762
 10
-4.754740567305573
 20
31.89193427605802
 10
-4.71467399544198
 20
31.96546823314959
 10
-4.683526695854578
 20
32.03313813212702
 10
-4.662006183068958
 20
32.08703079743258
 10
-4.651792807669443
 20
32.13930455656534
 10
-4.647206914869654
 20
32.17083533130903
 10
-4.644842382192905
 20
32.1870929174454
 72
     1
 10
-4.644842382192908
 20
32.18709291744538
 11
-4.462655138951674
 21
34.0248801943346
 72
     1
 10
-4.462655138951674
 20
34.0248801943346
 11
-3.685824068463886
 21
34.0248801943346
 72
     1
 10
-3.685824068463886
 20
34.0248801943346
 11
-3.889225876952792
 21
31.97309408084612
 72
     2
 10
-5.35367831607159
 20
32.29400281725688
 40
1.499200908332752
 50
12.35998596222624
 51
34.57361697223234
 73
     0
 72
     2
 10
-4.942942423735221
 20
32.00494866311196
 40
0.9969860617863467
 50
34.29038331790704
 51
79.42991665428312
 73
     0
 72
     1
 10
-4.760057203160528
 20
31.0248801943346
 11
-5.510404689928634
 21
31.02488019433462
 72
     2
 10
-5.403812384664131
 20
31.8164328281441
 40
0.7986973717449786
 50
97.66944495435136
 51
120.898786067779
 73
     0
 72
     2
 10
-5.173141343771899
 20
32.14234761068797
 40
1.197202176515717
 50
122.3618931068037
 51
141.2515245137382
 73
     0
 72
     2
 10
-5.389471681131198
 20
32.00817328375058
 40
0.9450065449727091
 50
139.3862736078239
 51
177.8726579657922
 73
     0
 72
     1
 10
-6.333826921263238
 20
31.9730940808461
 11
-6.13042511277439
 21
34.02488019433461
 97
        2
330
7845
330
7846
 92
       22
 72
     0
 73
     1
 93
       13
 10
-3.14734900486158
 20
34.02825593571061
 10
-2.047349004861559
 20
34.02825593571061
 10
-1.827245318565901
 20
32.52441131541936
 10
-1.295012624591634
 20
34.02807364104484
 10
-0.1975458970834157
 20
34.0280551402308
 10
-0.4949479612922965
 20
31.0280551402308
 10
-1.115886909891883
 20
31.02805514023081
 10
-0.9222174129992312
 20
32.98166797820307
 10
-1.611942464131546
 20
31.02805514023081
 10
-2.344230471214956
 20
31.0280551402308
 10
-2.630162529241629
 20
32.98166797820306
 10
-2.823832026134283
 20
31.02805514023081
 10
-3.444770974733871
 20
31.0280551402308
 97
        1
330
7848
 92
       22
 72
     0
 73
     1
 93
        4
 10
0.342591724648486
 20
34.02289574745092
 10
1.119422795136273
 20
34.02289574745092
 10
0.822020730927392
 20
31.02289574745093
 10
0.045189660439604
 20
31.02289574745093
 97
        1
330
7837
 92
       22
 72
     0
 73
     1
 93
       10
 10
1.724974710806094
 20
34.02289574745093
 10
2.57655809816546
 20
34.02269495197112
 10
3.395920304875375
 20
32.17298478610545
 10
3.580266230192904
 20
34.02269495197112
 10
4.200228460647139
 20
34.02269495197112
 10
3.902826396438257
 20
31.02269495197112
 10
3.051434648859951
 20
31.02269495197112
 10
2.231899581960561
 20
32.87279534971117
 10
2.048491689533392
 20
31.02269495197111
 10
1.427552740933804
 20
31.02269495197111
 97
        1
330
7849
 92
       22
 72
     0
 73
     1
 93
        4
 10
4.838699321647566
 20
34.02289574745092
 10
5.615530392135354
 20
34.02289574745092
 10
5.318128327926473
 20
31.02289574745093
 10
4.541297257438685
 20
31.02289574745093
 97
        1
330
7844
 92
       20
 93
       13
 72
     1
 10
6.192756492920892
 20
34.02289574745092
 11
6.969390837208833
 21
34.02091130056725
 72
     1
 10
6.969390837208833
 20
34.02091130056725
 11
6.787553510813181
 21
32.18510847056173
 72
     4
 94
        3
 73
     0
 74
     0
 95
       24
 96
       20
 40
0.0
 40
0.0
 40
0.0
 40
0.0
 40
0.1612668085856004
 40
0.2532303870616512
 40
0.3214574742553458
 40
0.4101806452458731
 40
0.5031588697521455
 40
0.5664511009172086
 40
0.6248718787780579
 40
0.6731644290699537
 40
0.7797386132933625
 40
0.9206747739903555
 40
1.025058962643406
 40
1.116412352300617
 40
1.212929457806155
 40
1.276240530363043
 40
1.339961572016455
 40
1.386280507025956
 40
1.435584820291643
 40
1.435584820291643
 40
1.435584820291643
 40
1.435584820291643
 10
6.787553510813182
 20
32.18510847056172
 10
6.791047458209138
 20
32.13113887955868
 10
6.796533854692151
 20
32.04639273409249
 10
6.834321173147815
 20
31.944849798519
 10
6.876009956854381
 20
31.87333980904244
 10
6.927363417736517
 20
31.80538556645249
 10
7.002419943287081
 20
31.76864323009899
 10
7.068704477277941
 20
31.74267907228055
 10
7.123069508903178
 20
31.72524765496452
 10
7.194292617405833
 20
31.72000318501404
 10
7.293138793844411
 20
31.72588425683904
 10
7.407474539225143
 20
31.75614142192696
 10
7.507410339301799
 20
31.81206853839398
 10
7.568441038389779
 20
31.88994982917431
 10
7.608507610253345
 20
31.96348378626593
 10
7.639654909840775
 20
32.03115368524333
 10
7.661175422626328
 20
32.08504635054892
 10
7.671388798025919
 20
32.13732010968165
 10
7.675974690825655
 20
32.16885088442535
 10
7.678339223502376
 20
32.18510847056172
 72
     1
 10
7.678339223502373
 20
32.1851084705617
 11
7.860526466743608
 21
34.02289574745092
 72
     1
 10
7.860526466743608
 20
34.02289574745092
 11
8.637357537231395
 21
34.02289574745092
 72
     1
 10
8.637357537231395
 20
34.02289574745092
 11
8.433955728742489
 21
31.97110963396244
 72
     2
 10
6.969503289623695
 20
32.29201837037321
 40
1.499200908332751
 50
12.35998596222655
 51
34.57361697220028
 73
     0
 72
     2
 10
7.38023918196006
 20
32.00296421622829
 40
0.9969860617863467
 50
34.2903833178587
 51
79.42991665428322
 73
     0
 72
     1
 10
7.563124402534754
 20
31.02289574745093
 11
6.812776915766647
 21
31.02289574745094
 72
     2
 10
6.919369221031151
 20
31.81444838126043
 40
0.7986973717449786
 50
97.66944495435136
 51
120.898786067779
 73
     0
 72
     2
 10
7.150040261923383
 20
32.14036316380429
 40
1.197202176515717
 50
122.3618931068037
 51
141.2515245137382
 73
     0
 72
     2
 10
6.933709924564084
 20
32.0061888368669
 40
0.9450065449727091
 50
139.3862736078239
 51
177.8726579657922
 73
     0
 72
     1
 10
5.989354684432043
 20
31.97110963396243
 11
6.192756492920892
 21
34.02289574745092
 97
        2
330
7847
330
784B
 92
       22
 72
     0
 73
     1
 93
       13
 10
9.159497991066102
 20
34.02289574745092
 10
10.25949799106612
 20
34.02289574745092
 10
10.47960167736178
 20
32.51905112715967
 10
11.01183437133604
 20
34.02271345278515
 10
12.10930109884427
 20
34.02269495197111
 10
11.81189903463539
 20
31.02269495197112
 10
11.1909600860358
 20
31.02269495197111
 10
11.38462958292845
 20
32.97630778994339
 10
10.69490453179614
 20
31.02269495197111
 10
9.962616524712728
 20
31.02269495197112
 10
9.676684466686056
 20
32.97630778994339
 10
9.4830149697934
 20
31.02269495197111
 10
8.862076021193814
 20
31.02269495197111
 97
        1
330
784A
 75
     0
 76
     1
 47
0.0356978143457059
 98
       11
 10
-12.74387987022192
 20
34.13164800304253
 10
-12.74387987022192
 20
34.13164800304253
 10
-12.74387987022192
 20
34.13164800304253
 10
-12.74387987022192
 20
34.13164800304253
 10
-12.74387987022192
 20
34.13164800304253
 10
-12.74387987022192
 20
34.13164800304253
 10
-12.74387987022192
 20
34.13164800304253
 10
-12.74387987022192
 20
34.13164800304253
 10
-12.74387987022192
 20
34.13164800304253
 10
-12.74387987022192
 20
34.13164800304253
 10
-12.74387987022192
 20
34.13164800304253
1001
ACAD
1010
0.0
1020
0.0
1030
0.0
1001
AcDbBlockRepETag
1070
     1
1071
      906
1005
7863
  0
ENDBLK
  5
7864
330
7822
100
AcDbEntity
  8
0
 62
     9
100
AcDbBlockEnd
  0
ENDSEC
  0
SECTION
  2
ENTITIES
  0
INSERT
  5
3EA1
330
1F
100
AcDbEntity
  8
0
100
AcDbBlockReference
  2
a4 specifiers manual
 10
0.0
 20
0.0
 30
0.0
  0
INSERT
  5
6D90
330
1F
100
AcDbEntity
  8
APL Joinery
 62
     7
 48
3.0
100
AcDbBlockReference
  2
04440
 10
177.2189532897289
 20
377.4173353285125
 30
0.0
  0
INSERT
  5
6D9A
330
1F
100
AcDbEntity
  8
APL Joinery
 62
     2
 48
3.0
100
AcDbBlockReference
  2
04443
 10
190.8016119165076
 20
220.5000798215908
 30
0.0
 50
22.50000000000011
  0
TEXT
  5
6DA2
330
1F
100
AcDbEntity
  8
APL Notes
100
AcDbText
 10
143.9124764873025
 20
355.4238108235469
 30
0.0
 40
5.0
  1
180º COUPLING BAR
  7
Arial-Regular
100
AcDbText
  0
TEXT
  5
6DA3
330
1F
100
AcDbEntity
  8
APL Notes
100
AcDbText
 10
167.8117985044708
 20
363.5146341428468
 30
0.0
 40
5.0
  1
04440
  7
Arial-Bold
100
AcDbText
  0
TEXT
  5
6DA5
330
1F
100
AcDbEntity
  8
APL Notes
100
AcDbText
 10
138.5152315579924
 20
202.2844706150914
 30
0.0
 40
5.0
  1
135º COUPLING BAR
  7
Arial-Regular
100
AcDbText
  0
TEXT
  5
6DA6
330
1F
100
AcDbEntity
  8
APL Notes
100
AcDbText
 10
162.4145535751607
 20
210.3752939343914
 30
0.0
 40
5.0
  1
04443
  7
Arial-Bold
100
AcDbText
  0
TEXT
  5
6DA7
330
1F
100
AcDbEntity
  8
APL Notes
100
AcDbText
 10
142.2531575003514
 20
33.42406361694172
 30
0.0
 40
5.0
  1
90º COUPLING BAR
  7
Arial-Regular
100
AcDbText
  0
TEXT
  5
6DAA
330
1F
100
AcDbEntity
  8
APL Notes
100
AcDbText
 10
166.1524795175197
 20
41.51488693624169
 30
0.0
 40
5.0
  1
04444
  7
Arial-Bold
100
AcDbText
  0
INSERT
  5
6DB5
330
1F
100
AcDbEntity
  8
APL Joinery
 62
     2
 48
3.0
100
AcDbBlockReference
  2
04444
 10
175.0096343027777
 20
55.41758812190737
 30
0.0
  0
TEXT
  5
6DC4
330
1F
100
AcDbEntity
  8
APL Notes
100
AcDbText
 10
116.5311472121143
 20
245.7889726803302
 30
0.0
 40
5.0
  1
04461
  7
Arial-Bold
100
AcDbText
  0
TEXT
  5
6DC5
330
1F
100
AcDbEntity
  8
APL Notes
100
AcDbText
 10
107.9320293755989
 20
80.70648098064697
 30
0.0
 40
5.0
  1
04461
  7
Arial-Bold
100
AcDbText
  0
TEXT
  5
6DC6
330
1F
100
AcDbEntity
  8
APL Notes
100
AcDbText
 10
109.59134836255
 20
402.7062281872521
 30
0.0
 40
5.0
  1
04461
  7
Arial-Bold
100
AcDbText
  0
TEXT
  5
6DC7
330
1F
100
AcDbEntity
  8
APL Notes
100
AcDbText
 10
222.7492850755576
 20
422.6590255110563
 30
0.0
 40
5.0
  1
08678
  7
Arial-Bold
100
AcDbText
  0
TEXT
  5
6DC8
330
1F
100
AcDbEntity
  8
APL Notes
100
AcDbText
 10
189.4905832720801
 20
298.5358605866959
 30
0.0
 40
5.0
  1
08678
  7
Arial-Bold
100
AcDbText
  0
TEXT
  5
6DC9
330
1F
100
AcDbEntity
  8
APL Notes
100
AcDbText
 10
227.2851551212952
 20
122.0537494656527
 30
0.0
 40
5.0
  1
08678
  7
Arial-Bold
100
AcDbText
  0
INSERT
  5
6E85
330
1F
100
AcDbEntity
  8
APL Joinery
 62
     2
 48
3.0
100
AcDbBlockReference
  2
A$C6DC3226B
 10
211.961845383707
 20
377.4171718831812
 30
0.0
  0
INSERT
  5
6E8B
330
1F
100
AcDbEntity
  8
APL Joinery
 62
     2
 48
3.0
100
AcDbBlockReference
  2
A$C6DC3226B
 10
220.0658732824335
 20
249.7641100409124
 30
0.0
 50
44.99999999999971
  0
INSERT
  5
6E91
330
1F
100
AcDbEntity
  8
APL Joinery
 62
     2
 48
3.0
100
AcDbBlockReference
  2
A$C6DC3226B
 10
222.7097782874078
 20
137.3104607551841
 30
0.0
 50
90.0
  0
INSERT
  5
735F
330
1F
100
AcDbEntity
  8
APL Joinery
 62
     2
 48
3.0
100
AcDbBlockReference
  2
04461
 10
158.4086584854586
 20
69.7176623392681
 30
0.0
 50
90.0
  0
INSERT
  5
7360
330
1F
100
AcDbEntity
  8
APL Joinery
 62
     2
 48
3.0
100
AcDbBlockReference
  2
04461
 10
167.0077763219735
 20
234.8001540389507
 30
0.0
 50
90.0
  0
INSERT
  5
7361
330
1F
100
AcDbEntity
  8
APL Joinery
 62
     2
 48
3.0
100
AcDbBlockReference
  2
04461
 10
160.0679774724098
 20
391.7174095458733
 30
0.0
 50
90.0
  0
INSERT
  5
7420
330
1F
100
AcDbEntity
  8
APL Joinery
 62
     2
 48
3.0
100
AcDbBlockReference
  2
08678
 10
194.3689532897258
 20
386.7173353285125
 30
0.0
 41
-1.0
 50
270.0
  0
INSERT
  5
742D
330
1F
100
AcDbEntity
  8
APL Joinery
 62
     2
 48
3.0
100
AcDbBlockReference
  2
08678
 10
201.0496113437592
 20
243.9002653789123
 30
0.0
 41
-1.0
 50
315.0000000000002
  0
INSERT
  5
743A
330
1F
100
AcDbEntity
  8
APL Joinery
 62
     2
 48
3.0
100
AcDbBlockReference
  2
08678
 10
213.4096148420764
 20
119.7175686612029
 30
0.0
 41
-1.0
  0
VIEWPORT
  5
4E4C
102
{ACAD_XDICTIONARY
360
73BE
102
}
330
4E45
100
AcDbEntity
 67
     1
  8
0
 48
3.0
100
AcDbViewport
 10
99.91724538803101
 20
143.1184201240539
 30
0.0
 40
351.5521214087597
 41
299.2892926645698
 68
     1
 69
     1
 12
99.91724538803101
 22
143.1184201240539
 13
0.0
 23
0.0
 14
10.0
 24
10.0
 15
10.0
 25
10.0
 16
0.0
 26
0.0
 36
1.0
 17
0.0
 27
0.0
 37
0.0
 42
50.0
 43
0.0
 44
0.0
 45
299.2892926645698
 50
0.0
 51
0.0
 72
 20000
 90
    32800
  1

281
     0
 71
     1
 74
     0
110
0.0
120
0.0
130
0.0
111
1.0
121
0.0
131
0.0
112
0.0
122
1.0
132
0.0
 79
     0
146
0.0
  0
VIEWPORT
  5
4E4E
102
{ACAD_XDICTIONARY
360
73C0
102
}
330
4E45
100
AcDbEntity
 67
     1
  8
0
 48
3.0
100
AcDbViewport
 10
97.06944593421223
 20
131.4038712335108
 30
0.0
 40
184.9832550865919
 41
242.1086483400559
 68
     2
 69
     2
 12
176.9999991921495
 22
241.000000110887
 13
0.0
 23
0.0
 14
1.0
 24
1.0
 15
1.0
 25
1.0
 16
0.0
 26
0.0
 36
1.0
 17
0.0
 27
0.0
 37
0.0
 42
50.0
 43
0.0
 44
0.0
 45
482.0
 50
0.0
 51
0.0
 72
 20000
 90
    32864
  1

281
     0
 71
     1
 74
     0
110
0.0
120
0.0
130
0.0
111
1.0
121
0.0
131
0.0
112
0.0
122
1.0
132
0.0
 79
     0
146
0.0
  0
INSERT
  5
4E58
330
4E45
100
AcDbEntity
 67
     1
  8
APL Border
 48
3.0
100
AcDbBlockReference
  2
vantage a4 SM border
 10
0.0
 20
0.0
 30
0.0
  0
INSERT
  5
7251
330
4E45
100
AcDbEntity
 67
     1
  8
APL Border
 62
     2
100
AcDbBlockReference
 66
     1
  2
vantage a4 SM attributes (4)
 10
0.0
 20
0.0
 30
0.0
  0
ATTRIB
  5
7253
330
7251
100
AcDbEntity
 67
     1
  8
APL Border
100
AcDbText
 10
41.78979785863009
 20
276.19
 30
0.0
 40
3.5
  1
METRO SERIES
  7
Arial-Bold
100
AcDbAttribute
  2
DRAWINGTITLE_1
 70
     0
1001
AcDbBlockRepETag
1070
     1
1071
        0
1005
0
  0
ATTRIB
  5
7254
330
7251
100
AcDbEntity
 67
     1
  8
APL Border
100
AcDbText
 10
41.78979785863009
 20
270.19
 30
0.0
 40
3.5
  1
HINGED DOOR
  7
Arial-Bold
100
AcDbAttribute
  2
DRAWINGTITLE_2
 70
     0
1001
AcDbBlockRepETag
1070
     1
1071
        1
1005
0
  0
ATTRIB
  5
7255
330
7251
100
AcDbEntity
 67
     1
  8
APL Border
100
AcDbText
 10
41.78979785863009
 20
264.19
 30
0.0
 40
3.5
  1
COUPLING OPTION
  7
Arial-Bold
100
AcDbAttribute
  2
DRAWINGTITLE_3
 70
     0
1001
AcDbBlockRepETag
1070
     1
1071
        2
1005
0
  0
ATTRIB
  5
7256
330
7251
100
AcDbEntity
 67
     1
  8
APL Border
100
AcDbText
 10
41.78979785863009
 20
258.19
 30
0.0
 40
3.0
  1
CROSS SECTION
  7
Arial-Regular
100
AcDbAttribute
  2
DRAWINGTITLE_4
 70
     0
1001
AcDbBlockRepETag
1070
     1
1071
        3
1005
0
  0
ATTRIB
  5
7257
330
7251
100
AcDbEntity
 67
     1
  8
APL Border
100
AcDbText
 10
165.845
 20
273.69
 30
0.0
 40
2.5
  1
VMHD07-0
  7
Arial-Regular
100
AcDbAttribute
  2
AW12-0
 70
     0
1001
AcDbBlockRepETag
1070
     1
1071
        4
1005
0
  0
ATTRIB
  5
7258
330
7251
100
AcDbEntity
 67
     1
  8
APL Border
100
AcDbText
 10
147.5475920873124
 20
257.1899999999999
 30
0.0
 40
2.5
  1
01.06.11
  7
Arial-Regular
 72
     1
 11
154.345
 21
257.1899999999999
 31
0.0
100
AcDbAttribute
  2
25.07.08
 70
     0
1001
AcDbBlockRepETag
1070
     1
1071
        5
1005
0
  0
ATTRIB
  5
7259
330
7251
100
AcDbEntity
 67
     1
  8
APL Border
100
AcDbText
 10
175.4174761255116
 20
257.1899999999999
 30
0.0
 40
2.5
  1
1:2
  7
Arial-Regular
 72
     1
 11
177.845
 21
257.1899999999999
 31
0.0
100
AcDbAttribute
  2
1:2
 70
     0
1001
AcDbBlockRepETag
1070
     1
1071
        6
1005
0
  0
ATTRIB
  5
725A
330
7251
100
AcDbEntity
 67
     1
  8
APL Border
100
AcDbText
 10
189.595
 20
1.189999999999997
 30
0.0
 40
3.75
  1

  7
Arial-Bold
 72
     2
 11
189.595
 21
1.189999999999997
 31
0.0
100
AcDbAttribute
  2
1.2.34
 70
     0
1001
AcDbBlockRepETag
1070
     1
1071
        7
1005
0
  0
ATTRIB
  5
725B
330
7251
100
AcDbEntity
 67
     1
  8
APL Border
100
AcDbText
 10
11.59500000000003
 20
1.189999999999997
 30
0.0
 40
3.75
  1

  7
Arial-Bold
100
AcDbAttribute
  2
1.2.34
 70
     0
1001
AcDbBlockRepETag
1070
     1
1071
        8
1005
0
  0
SEQEND
  5
7252
330
7251
100
AcDbEntity
 67
     1
  8
APL Border
 62
     2
  0
ENDSEC
  0
SECTION
  2
OBJECTS
  0
DICTIONARY
  5
C
330
0
100
AcDbDictionary
281
     1
  3
ACAD_COLOR
350
6E16
  3
ACAD_GROUP
350
D
  3
ACAD_LAYOUT
350
1A
  3
ACAD_MATERIAL
350
6DEC
  3
ACAD_MLEADERSTYLE
350
6E3B
  3
ACAD_MLINESTYLE
350
17
  3
ACAD_PLOTSETTINGS
350
19
  3
ACAD_PLOTSTYLENAME
350
E
  3
ACAD_SCALELIST
350
6E19
  3
ACAD_TABLESTYLE
350
6E17
  3
ACAD_VISUALSTYLE
350
6E05
  3
AcadDim
350
86
  3
ACDB_RECOMPOSE_DATA
350
6F1E
  3
ACDBHEADERROUNDTRIPXREC
350
78C5
  3
AcDbVariableDictionary
350
3B
  3
DWGPROPS
350
78C4
  0
DICTIONARY
  5
6F20
330
8
100
AcDbDictionary
280
     1
281
     1
  3
ACAD_XREC_ROUNDTRIP
360
73A8
  0
DICTIONARY
  5
5570
330
2
100
AcDbDictionary
280
     1
281
     1
  3
ACAD_LAYERFILTERS
360
7369
  3
ACAD_LAYERSTATES
360
5842
  3
ACLYDICTIONARY
360
7368
  0
DICTIONARY
  5
6EE6
330
10
100
AcDbDictionary
280
     1
281
     1
  3
ACAD_XREC_ROUNDTRIP
360
73A9
  3
ADSK_XREC_LAYER_RECONCILED
360
6EE7
  0
DICTIONARY
  5
6EE8
330
2B
100
AcDbDictionary
280
     1
281
     1
  3
ACAD_XREC_ROUNDTRIP
360
73AC
  3
ADSK_XREC_LAYER_RECONCILED
360
6EE9
  0
DICTIONARY
  5
6EEA
330
75
100
AcDbDictionary
280
     1
281
     1
  3
ACAD_XREC_ROUNDTRIP
360
73AD
  3
ADSK_XREC_LAYER_RECONCILED
360
6EEB
  0
DICTIONARY
  5
6EEC
330
42F1
100
AcDbDictionary
280
     1
281
     1
  3
ACAD_XREC_ROUNDTRIP
360
73AE
  3
ADSK_XREC_LAYER_RECONCILED
360
6EED
  0
DICTIONARY
  5
6F02
330
6E4C
100
AcDbDictionary
280
     1
281
     1
  3
ACAD_XREC_ROUNDTRIP
360
73C9
  3
ADSK_XREC_LAYER_RECONCILED
360
6F03
  0
DICTIONARY
  5
786A
330
5B48
100
AcDbDictionary
280
     1
281
     1
  3
ACAD_SORTENTS
360
786B
  0
DICTIONARY
  5
7870
330
6D95
100
AcDbDictionary
280
     1
281
     1
  3
ACAD_SORTENTS
360
7871
  0
DICTIONARY
  5
7876
330
6DB0
100
AcDbDictionary
280
     1
281
     1
  3
ACAD_SORTENTS
360
7877
  0
DICTIONARY
  5
724E
330
7244
100
AcDbDictionary
280
     1
281
     1
  0
DICTIONARY
  5
787F
330
735A
100
AcDbDictionary
280
     1
281
     1
  3
ACAD_SORTENTS
360
7880
  0
DICTIONARY
  5
7885
330
7418
100
AcDbDictionary
280
     1
281
     1
  3
ACAD_SORTENTS
360
7886
  0
DICTIONARY
  5
7823
330
7822
100
AcDbDictionary
280
     1
281
     1
  3
ACAD_SORTENTS
360
7824
  0
DICTIONARY
  5
7821
330
7820
100
AcDbDictionary
280
     1
281
     1
  0
DICTIONARY
  5
73BE
330
4E4C
100
AcDbDictionary
280
     1
281
     1
  3
ACAD_XREC_ROUNDTRIP
360
73BF
  0
DICTIONARY
  5
73C0
330
4E4E
100
AcDbDictionary
280
     1
281
     1
  3
ACAD_XREC_ROUNDTRIP
360
73C1
  0
DICTIONARY
  5
6E16
102
{ACAD_REACTORS
330
C
102
}
330
C
100
AcDbDictionary
281
     1
  0
DICTIONARY
  5
D
102
{ACAD_REACTORS
330
C
102
}
330
C
100
AcDbDictionary
281
     1
  0
DICTIONARY
  5
1A
102
{ACAD_REACTORS
330
C
102
}
330
C
100
AcDbDictionary
281
     1
  3
Model
350
22
  3
Vantage A4
350
4E46
  0
DICTIONARY
  5
6DEC
102
{ACAD_REACTORS
330
C
102
}
330
C
100
AcDbDictionary
281
     1
  3
ByBlock
350
6DF5
  3
ByLayer
350
6DED
  3
Global
350
6DFD
  0
DICTIONARY
  5
6E3B
102
{ACAD_REACTORS
330
C
102
}
330
C
100
AcDbDictionary
281
     1
  3
Standard
350
6E3C
  0
DICTIONARY
  5
17
102
{ACAD_REACTORS
330
C
102
}
330
C
100
AcDbDictionary
281
     1
  3
Standard
350
18
  0
DICTIONARY
  5
19
102
{ACAD_REACTORS
330
C
102
}
330
C
100
AcDbDictionary
281
     1
  3
A4 Specifier Manual Hardcopy
350
4441
  3
A4 Specifier Manual PDF
350
4442
  0
ACDBDICTIONARYWDFLT
  5
E
102
{ACAD_REACTORS
330
C
102
}
330
C
100
AcDbDictionary
281
     1
  3
Normal
350
F
100
AcDbDictionaryWithDefault
340
F
  0
DICTIONARY
  5
6E19
102
{ACAD_REACTORS
330
C
102
}
330
C
100
AcDbDictionary
281
     1
  3
A0
350
6E1A
  3
A1
350
6E1B
  3
A2
350
6E1C
  3
A3
350
6E1D
  3
A4
350
6E1E
  3
A5
350
6E1F
  3
A6
350
6E20
  3
A7
350
6E21
  3
A8
350
6E22
  3
A9
350
6E23
  3
B0
350
6E24
  3
B1
350
6E25
  3
B2
350
6E26
  3
B3
350
6E27
  3
B4
350
6E28
  3
B5
350
6E29
  3
B6
350
6E2A
  3
B7
350
6E2B
  3
B8
350
6E2C
  3
B9
350
6E2D
  3
C0
350
6E2E
  3
C1
350
6E2F
  3
C2
350
6E30
  3
C3
350
6E31
  3
C4
350
6E32
  3
C5
350
6E33
  3
C6
350
6E34
  3
C7
350
6E35
  3
C8
350
6E36
  3
C9
350
6E37
  3
D0
350
6E38
  3
D1
350
6E39
  3
D2
350
6E3A
  0
DICTIONARY
  5
6E17
102
{ACAD_REACTORS
330
C
102
}
330
C
100
AcDbDictionary
281
     1
  3
Standard
350
6E18
  0
DICTIONARY
  5
6E05
102
{ACAD_REACTORS
330
C
102
}
330
C
100
AcDbDictionary
281
     1
  3
2dWireframe
350
6E0B
  3
3D Hidden
350
6E0D
  3
3dWireframe
350
6E0C
  3
Basic
350
6E0A
  3
Brighten
350
6E11
  3
ColorChange
350
6E15
  3
Conceptual
350
6E0E
  3
Dim
350
6E10
  3
Facepattern
350
6E14
  3
Flat
350
6E06
  3
FlatWithEdges
350
6E07
  3
Gouraud
350
6E08
  3
GouraudWithEdges
350
6E09
  3
Linepattern
350
6E13
  3
Realistic
350
6E0F
  3
Thicken
350
6E12
  0
XRECORD
  5
86
102
{ACAD_REACTORS
330
C
102
}
330
C
100
AcDbXrecord
280
     1
 90
   990106
  3

 60
     0
 61
     0
 62
     1
 63
     3
 64
     0
 65
     0
 66
     0
 67
     3
 68
     1
 69
     0
 70
     0
 71
     0
 72
     0
 40
8.188652110585962
170
     0
  0
XRECORD
  5
6F1E
102
{ACAD_REACTORS
330
C
102
}
330
C
100
AcDbXrecord
280
     1
 90
        1
330
6E18
  0
DICTIONARY
  5
78C5
102
{ACAD_REACTORS
330
C
102
}
330
C
100
AcDbDictionary
281
     1
  0
DICTIONARY
  5
3B
102
{ACAD_REACTORS
330
C
102
}
330
C
100
AcDbDictionary
281
     1
  3
CANNOSCALE
350
6F5A
  3
CMLEADERSTYLE
350
6F59
  3
CTABLESTYLE
350
6F58
  3
DIMASSOC
350
3D
  3
HIDETEXT
350
3C
  3
INDEXCTL
350
6F5C
  3
PROJECTNAME
350
740A
  3
SORTENTS
350
6F5B
  0
XRECORD
  5
78C4
102
{ACAD_REACTORS
330
C
102
}
330
C
100
AcDbXrecord
280
     1
  1
DWGPROPS COOKIE
  2

  3

  4

  6

  7

  8
homer
  9

300
=
301
=
302
=
303
=
304
=
305
=
306
=
307
=
308
=
309
=
 40
3.775167048611111
 41
2452286.590325035
 42
2455707.400914653
  1

 90
        0
  0
XRECORD
  5
73A8
102
{ACAD_REACTORS
330
6F20
102
}
330
6F20
100
AcDbXrecord
280
     1
102
VTR_0.000_0.000_1.000_1.000_VISUALSTYLE
340
6E0B
102
VTR_0.000_0.000_1.000_1.000_GRIDDISPLAY
 70
     3
102
VTR_0.000_0.000_1.000_1.000_GRIDMAJOR
 70
     5
102
VTR_0.000_0.000_1.000_1.000_DEFAULTLIGHTING
280
     1
102
VTR_0.000_0.000_1.000_1.000_DEFAULTLIGHTINGTYPE
 70
     1
102
VTR_0.000_0.000_1.000_1.000_BRIGHTNESS
141
0.0
102
VTR_0.000_0.000_1.000_1.000_CONTRAST
142
0.0
  0
DICTIONARY
  5
7369
102
{ACAD_REACTORS
330
5570
102
}
330
5570
100
AcDbDictionary
281
     1
  0
DICTIONARY
  5
5842
102
{ACAD_REACTORS
330
5570
102
}
330
5570
100
AcDbDictionary
281
     1
  0
DICTIONARY
  5
7368
102
{ACAD_REACTORS
330
5570
102
}
330
5570
100
AcDbDictionary
281
     1
1001
ACAD
1000
<All
  0
XRECORD
  5
73A9
102
{ACAD_REACTORS
330
6EE6
102
}
330
6EE6
100
AcDbXrecord
280
     1
102
MATERIAL
340
6DFD
  0
XRECORD
  5
6EE7
102
{ACAD_REACTORS
330
6EE6
102
}
330
6EE6
100
AcDbXrecord
280
     1
290
     1
  0
XRECORD
  5
73AC
102
{ACAD_REACTORS
330
6EE8
102
}
330
6EE8
100
AcDbXrecord
280
     1
102
MATERIAL
340
6DFD
  0
XRECORD
  5
6EE9
102
{ACAD_REACTORS
330
6EE8
102
}
330
6EE8
100
AcDbXrecord
280
     1
290
     1
  0
XRECORD
  5
73AD
102
{ACAD_REACTORS
330
6EEA
102
}
330
6EEA
100
AcDbXrecord
280
     1
102
MATERIAL
340
6DFD
  0
XRECORD
  5
6EEB
102
{ACAD_REACTORS
330
6EEA
102
}
330
6EEA
100
AcDbXrecord
280
     1
290
     1
  0
XRECORD
  5
73AE
102
{ACAD_REACTORS
330
6EEC
102
}
330
6EEC
100
AcDbXrecord
280
     1
102
MATERIAL
340
6DFD
  0
XRECORD
  5
6EED
102
{ACAD_REACTORS
330
6EEC
102
}
330
6EEC
100
AcDbXrecord
280
     1
290
     1
  0
XRECORD
  5
73C9
102
{ACAD_REACTORS
330
6F02
102
}
330
6F02
100
AcDbXrecord
280
     1
102
MATERIAL
340
6DFD
  0
XRECORD
  5
6F03
102
{ACAD_REACTORS
330
6F02
102
}
330
6F02
100
AcDbXrecord
280
     1
290
     1
  0
SORTENTSTABLE
  5
786B
102
{ACAD_REACTORS
330
786A
102
}
330
786A
100
AcDbSortentsTable
330
5B48
  0
SORTENTSTABLE
  5
7871
102
{ACAD_REACTORS
330
7870
102
}
330
7870
100
AcDbSortentsTable
330
6D95
  0
SORTENTSTABLE
  5
7877
102
{ACAD_REACTORS
330
7876
102
}
330
7876
100
AcDbSortentsTable
330
6DB0
  0
SORTENTSTABLE
  5
7880
102
{ACAD_REACTORS
330
787F
102
}
330
787F
100
AcDbSortentsTable
330
735A
  0
SORTENTSTABLE
  5
7886
102
{ACAD_REACTORS
330
7885
102
}
330
7885
100
AcDbSortentsTable
330
7418
  0
SORTENTSTABLE
  5
7824
102
{ACAD_REACTORS
330
7823
102
}
330
7823
100
AcDbSortentsTable
330
7822
  0
XRECORD
  5
73BF
102
{ACAD_REACTORS
330
73BE
102
}
330
73BE
100
AcDbXrecord
280
     1
102
VISUALSTYLE
340
6E0B
102
GRIDDISPLAY
 70
     0
102
GRIDMAJOR
 70
     5
102
DEFAULTLIGHTING
280
     1
102
DEFAULTLIGHTINGTYPE
 70
     1
102
BRIGHTNESS
141
0.0
102
CONTRAST
142
0.0
102
SHADEPLOT
 70
     0
  0
XRECORD
  5
73C1
102
{ACAD_REACTORS
330
73C0
102
}
330
73C0
100
AcDbXrecord
280
     1
102
VISUALSTYLE
340
6E0B
102
GRIDDISPLAY
 70
     0
102
GRIDMAJOR
 70
     5
102
DEFAULTLIGHTING
280
     1
102
DEFAULTLIGHTINGTYPE
 70
     1
102
BRIGHTNESS
141
0.0
102
CONTRAST
142
0.0
102
SHADEPLOT
 70
     0
  0
LAYOUT
  5
22
102
{ACAD_XDICTIONARY
360
78C6
102
}
102
{ACAD_REACTORS
330
1A
102
}
330
1A
100
AcDbPlotSettings
  1

  2
A4 Specifier Manual.pc3
  4
A4
  6

 40
6.0
 41
5.0
 42
6.97332763671875
 43
5.96832275390625
 44
209.9733276367187
 45
296.9683227539062
 46
10.5
 47
1.0
 48
55.19893561856474
 49
77.41415496436935
140
329.6878846931311
141
251.7976535946928
142
1.0
143
2.0
 70
 11952
 72
     1
 73
     0
 74
     1
  7
A4 Specifier Manual.ctb
 75
    17
147
0.5
148
2.773644345846719
149
26.16512822630762
100
AcDbLayout
  1
Model
 70
     1
 71
     0
 10
0.0
 20
0.0
 11
12.0
 21
9.0
 12
0.0
 22
0.0
 32
0.0
 14
0.0
 24
0.0
 34
0.0
 15
0.0
 25
0.0
 35
0.0
146
0.0
 13
0.0
 23
0.0
 33
0.0
 16
1.0
 26
0.0
 36
0.0
 17
0.0
 27
1.0
 37
0.0
 76
     0
330
1F
  0
LAYOUT
  5
4E46
102
{ACAD_XDICTIONARY
360
6EB3
102
}
102
{ACAD_REACTORS
330
1A
102
}
330
1A
100
AcDbPlotSettings
  1

  2
\\Aplfp01\APL Technical HP5100 PSLaser
  4
A4
  6

 40
5.027082920074462
 41
5.408084392547607
 42
5.70440673828125
 43
5.365753173828125
 44
209.8886566162109
 45
297.0530090332031
 46
0.0
 47
0.0
 48
0.0
 49
0.0
140
0.0
141
0.0
142
1.0
143
1.0
 70
   176
 72
     1
 73
     0
 74
     5
  7
A4 Specifier Manual.ctb
 75
    16
147
1.0
148
0.0
149
0.0
100
AcDbLayout
  1
Vantage A4
 70
     1
 71
     1
 10
-5.027082920074462
 20
-5.408084392547607
 11
204.8615736961365
 21
291.6449246406555
 12
0.0
 22
0.0
 32
0.0
 14
4.574452500067252
 24
3.285575844812797
 34
-0.0015258207003583
 15
189.6073677543587
 25
282.2033753668244
 35
0.0000000349246037
146
0.0
 13
0.0
 23
0.0
 33
0.0
 16
1.0
 26
0.0
 36
0.0
 17
0.0
 27
1.0
 37
0.0
 76
     0
330
4E45
331
4E4C
1001
ACAD_PSEXT
1000
\\Aplfp01\APL Technical HP5100 PSLaser
1000
HP LaserJet 5100 PS
1000
APL Technical Office
1000

1070
     0
  0
MATERIAL
  5
6DF5
102
{ACAD_XDICTIONARY
360
6DF6
102
}
102
{ACAD_REACTORS
330
6DEC
102
}
330
6DEC
100
AcDbMaterial
  1
ByBlock
 72
     0
 73
     2
 43
0.0008202099737533
 43
0.0
 43
0.0
 43
0.0
 43
0.0
 43
0.0008202099737533
 43
0.0
 43
0.0
 43
0.0
 43
0.0
 43
1.0
 43
0.0
 43
0.0
 43
0.0
 43
0.0
 43
1.0
 77
     0
 78
     2
 47
0.0008202099737533
 47
0.0
 47
0.0
 47
0.0
 47
0.0
 47
0.0008202099737533
 47
0.0
 47
0.0
 47
0.0
 47
0.0
 47
1.0
 47
0.0
 47
0.0
 47
0.0
 47
0.0
 47
1.0
171
     0
172
     2
 49
0.0008202099737533
 49
0.0
 49
0.0
 49
0.0
 49
0.0
 49
0.0008202099737533
 49
0.0
 49
0.0
 49
0.0
 49
0.0
 49
1.0
 49
0.0
 49
0.0
 49
0.0
 49
0.0
 49
1.0
175
     0
176
     2
142
0.0008202099737533
142
0.0
142
0.0
142
0.0
142
0.0
142
0.0008202099737533
142
0.0
142
0.0
142
0.0
142
0.0
142
1.0
142
0.0
142
0.0
142
0.0
142
0.0
142
1.0
179
     0
270
     2
144
0.0008202099737533
144
0.0
144
0.0
144
0.0
144
0.0
144
0.0008202099737533
144
0.0
144
0.0
144
0.0
144
0.0
144
1.0
144
0.0
144
0.0
144
0.0
144
0.0
144
1.0
274
     2
147
0.0008202099737533
147
0.0
147
0.0
147
0.0
147
0.0
147
0.0008202099737533
147
0.0
147
0.0
147
0.0
147
0.0
147
1.0
147
0.0
147
0.0
147
0.0
147
0.0
147
1.0
  0
MATERIAL
  5
6DED
102
{ACAD_XDICTIONARY
360
6DEE
102
}
102
{ACAD_REACTORS
330
6DEC
102
}
330
6DEC
100
AcDbMaterial
  1
ByLayer
 72
     0
 73
     2
 43
0.0008202099737533
 43
0.0
 43
0.0
 43
0.0
 43
0.0
 43
0.0008202099737533
 43
0.0
 43
0.0
 43
0.0
 43
0.0
 43
1.0
 43
0.0
 43
0.0
 43
0.0
 43
0.0
 43
1.0
 77
     0
 78
     2
 47
0.0008202099737533
 47
0.0
 47
0.0
 47
0.0
 47
0.0
 47
0.0008202099737533
 47
0.0
 47
0.0
 47
0.0
 47
0.0
 47
1.0
 47
0.0
 47
0.0
 47
0.0
 47
0.0
 47
1.0
171
     0
172
     2
 49
0.0008202099737533
 49
0.0
 49
0.0
 49
0.0
 49
0.0
 49
0.0008202099737533
 49
0.0
 49
0.0
 49
0.0
 49
0.0
 49
1.0
 49
0.0
 49
0.0
 49
0.0
 49
0.0
 49
1.0
175
     0
176
     2
142
0.0008202099737533
142
0.0
142
0.0
142
0.0
142
0.0
142
0.0008202099737533
142
0.0
142
0.0
142
0.0
142
0.0
142
1.0
142
0.0
142
0.0
142
0.0
142
0.0
142
1.0
179
     0
270
     2
144
0.0008202099737533
144
0.0
144
0.0
144
0.0
144
0.0
144
0.0008202099737533
144
0.0
144
0.0
144
0.0
144
0.0
144
1.0
144
0.0
144
0.0
144
0.0
144
0.0
144
1.0
274
     2
147
0.0008202099737533
147
0.0
147
0.0
147
0.0
147
0.0
147
0.0008202099737533
147
0.0
147
0.0
147
0.0
147
0.0
147
1.0
147
0.0
147
0.0
147
0.0
147
0.0
147
1.0
  0
MATERIAL
  5
6DFD
102
{ACAD_XDICTIONARY
360
6DFE
102
}
102
{ACAD_REACTORS
330
6DEC
102
}
330
6DEC
100
AcDbMaterial
  1
Global
 72
     0
 73
     2
 43
0.0008202099737533
 43
0.0
 43
0.0
 43
0.0
 43
0.0
 43
0.0008202099737533
 43
0.0
 43
0.0
 43
0.0
 43
0.0
 43
1.0
 43
0.0
 43
0.0
 43
0.0
 43
0.0
 43
1.0
 77
     0
 78
     2
 47
0.0008202099737533
 47
0.0
 47
0.0
 47
0.0
 47
0.0
 47
0.0008202099737533
 47
0.0
 47
0.0
 47
0.0
 47
0.0
 47
1.0
 47
0.0
 47
0.0
 47
0.0
 47
0.0
 47
1.0
171
     0
172
     2
 49
0.0008202099737533
 49
0.0
 49
0.0
 49
0.0
 49
0.0
 49
0.0008202099737533
 49
0.0
 49
0.0
 49
0.0
 49
0.0
 49
1.0
 49
0.0
 49
0.0
 49
0.0
 49
0.0
 49
1.0
175
     0
176
     2
142
0.0008202099737533
142
0.0
142
0.0
142
0.0
142
0.0
142
0.0008202099737533
142
0.0
142
0.0
142
0.0
142
0.0
142
1.0
142
0.0
142
0.0
142
0.0
142
0.0
142
1.0
179
     0
270
     2
144
0.0008202099737533
144
0.0
144
0.0
144
0.0
144
0.0
144
0.0008202099737533
144
0.0
144
0.0
144
0.0
144
0.0
144
1.0
144
0.0
144
0.0
144
0.0
144
0.0
144
1.0
274
     2
147
0.0008202099737533
147
0.0
147
0.0
147
0.0
147
0.0
147
0.0008202099737533
147
0.0
147
0.0
147
0.0
147
0.0
147
1.0
147
0.0
147
0.0
147
0.0
147
0.0
147
1.0
  0
ACAD_PROXY_OBJECT
  5
6E3C
102
{ACAD_REACTORS
330
6E3B
102
}
330
6E3B
100
AcDbProxyObject
 90
      499
 91
      510
 95
   983063
 70
     0
 93
      618
310
40901902A4063FBFFFFFE000000000000002040AD7A3703D0AD73F4254DD185B99185C99000000000000000104090141901A00000000000004100000000000000041025764000000000000300FC0
340
14
340
0
340
11
340
0
 94
        0
1001
ACAD_MLEADERVER
1070
     2
1001
ACAD
1000
AcRTDxfName
1000
MLEADERSTYLE
1000
AcRTDxfName
1000
MLEADERSTYLE
1000
AcRTDxfName
1000
MLEADERSTYLE
1000
AcRTDxfName
1000
MLEADERSTYLE
  0
MLINESTYLE
  5
18
102
{ACAD_REACTORS
330
17
102
}
330
17
100
AcDbMlineStyle
  2
STANDARD
 70
     0
  3

 62
   256
 51
90.0
 52
90.0
 71
     2
 49
0.5
 62
   256
  6
BYLAYER
 49
-0.5
 62
   256
  6
BYLAYER
  0
PLOTSETTINGS
  5
4441
102
{ACAD_XDICTIONARY
360
78C8
102
}
102
{ACAD_REACTORS
330
19
102
}
330
19
100
AcDbPlotSettings
  1
A4 Specifier Manual Hardcopy
  2
A4 Specifier Manual.pc3
  4
A4
  6

 40
6.0
 41
5.0
 42
6.97332763671875
 43
5.96832275390625
 44
209.9733276367187
 45
296.9683227539062
 46
10.5
 47
-1.0
 48
55.19893561856474
 49
77.41415496436935
140
329.6878846931311
141
251.7976535946928
142
1.0
143
2.0
 70
  1712
 72
     1
 73
     0
 74
     1
  7
A4 specifier manual.ctb
 75
    17
147
0.5
148
2.225667800726114
149
26.13925412475783
  0
PLOTSETTINGS
  5
4442
102
{ACAD_XDICTIONARY
360
78CA
102
}
102
{ACAD_REACTORS
330
19
102
}
330
19
100
AcDbPlotSettings
  1
A4 Specifier Manual PDF
  2
Acrobat Distiller.pc3
  4
A4
  6

 40
3.174999952316284
 41
3.174999952316284
 42
3.175003051757812
 43
3.17498779296875
 44
209.9098358154297
 45
297.0318298339844
 46
12.0
 47
3.0
 48
55.19893561856474
 49
77.41415496436935
140
329.6878846931311
141
251.7976535946928
142
1.0
143
2.0
 70
  1712
 72
     1
 73
     0
 74
     1
  7
A4 Specifier Manual.ctb
 75
    17
147
0.5
148
2.231438335389952
149
26.15846035871732
  0
ACDBPLACEHOLDER
  5
F
102
{ACAD_REACTORS
330
E
102
}
330
E
  0
ACAD_PROXY_OBJECT
  5
6E1A
102
{ACAD_REACTORS
330
6E19
102
}
330
6E19
100
AcDbProxyObject
 90
      499
 91
      509
 95
   983063
 70
     0
 93
       49
310
904313A3100580
 94
        0
1001
ACAD
1000
AcRTDxfName
1000
SCALE
1000
AcRTDxfName
1000
SCALE
1000
AcRTDxfName
1000
SCALE
1000
AcRTDxfName
1000
SCALE
  0
ACAD_PROXY_OBJECT
  5
6E1B
102
{ACAD_REACTORS
330
6E19
102
}
330
6E19
100
AcDbProxyObject
 90
      499
 91
      509
 95
   983063
 70
     0
 93
      113
310
904313A32004000000000000004040
 94
        0
1001
ACAD
1000
AcRTDxfName
1000
SCALE
1000
AcRTDxfName
1000
SCALE
1000
AcRTDxfName
1000
SCALE
1000
AcRTDxfName
1000
SCALE
  0
ACAD_PROXY_OBJECT
  5
6E1C
102
{ACAD_REACTORS
330
6E19
102
}
330
6E19
100
AcDbProxyObject
 90
      499
 91
      509
 95
   983063
 70
     0
 93
      113
310
904313A34004000000000000104040
 94
        0
1001
ACAD
1000
AcRTDxfName
1000
SCALE
1000
AcRTDxfName
1000
SCALE
1000
AcRTDxfName
1000
SCALE
1000
AcRTDxfName
1000
SCALE
  0
ACAD_PROXY_OBJECT
  5
6E1D
102
{ACAD_REACTORS
330
6E19
102
}
330
6E19
100
AcDbProxyObject
 90
      499
 91
      509
 95
   983063
 70
     0
 93
      113
310
904313A35004000000000000144040
 94
        0
1001
ACAD
1000
AcRTDxfName
1000
SCALE
1000
AcRTDxfName
1000
SCALE
1000
AcRTDxfName
1000
SCALE
1000
AcRTDxfName
1000
SCALE
  0
ACAD_PROXY_OBJECT
  5
6E1E
102
{ACAD_REACTORS
330
6E19
102
}
330
6E19
100
AcDbProxyObject
 90
      499
 91
      509
 95
   983063
 70
     0
 93
      113
310
904313A38004000000000000204040
 94
        0
1001
ACAD
1000
AcRTDxfName
1000
SCALE
1000
AcRTDxfName
1000
SCALE
1000
AcRTDxfName
1000
SCALE
1000
AcRTDxfName
1000
SCALE
  0
ACAD_PROXY_OBJECT
  5
6E1F
102
{ACAD_REACTORS
330
6E19
102
}
330
6E19
100
AcDbProxyObject
 90
      499
 91
      509
 95
   983063
 70
     0
 93
      121
310
905313A3130004000000000000244040
 94
        0
1001
ACAD
1000
AcRTDxfName
1000
SCALE
1000
AcRTDxfName
1000
SCALE
1000
AcRTDxfName
1000
SCALE
1000
AcRTDxfName
1000
SCALE
  0
ACAD_PROXY_OBJECT
  5
6E20
102
{ACAD_REACTORS
330
6E19
102
}
330
6E19
100
AcDbProxyObject
 90
      499
 91
      509
 95
   983063
 70
     0
 93
      121
310
905313A3136004000000000000304001
 94
        0
1001
ACAD
1000
AcRTDxfName
1000
SCALE
1000
AcRTDxfName
1000
SCALE
1000
AcRTDxfName
1000
SCALE
1000
AcRTDxfName
1000
SCALE
  0
ACAD_PROXY_OBJECT
  5
6E21
102
{ACAD_REACTORS
330
6E19
102
}
330
6E19
100
AcDbProxyObject
 90
      499
 91
      509
 95
   983063
 70
     0
 93
      121
310
905313A3230004000000000000344040
 94
        0
1001
ACAD
1000
AcRTDxfName
1000
SCALE
1000
AcRTDxfName
1000
SCALE
1000
AcRTDxfName
1000
SCALE
1000
AcRTDxfName
1000
SCALE
  0
ACAD_PROXY_OBJECT
  5
6E22
102
{ACAD_REACTORS
330
6E19
102
}
330
6E19
100
AcDbProxyObject
 90
      499
 91
      509
 95
   983063
 70
     0
 93
      121
310
905313A33300040000000000003E4001
 94
        0
1001
ACAD
1000
AcRTDxfName
1000
SCALE
1000
AcRTDxfName
1000
SCALE
1000
AcRTDxfName
1000
SCALE
1000
AcRTDxfName
1000
SCALE
  0
ACAD_PROXY_OBJECT
  5
6E23
102
{ACAD_REACTORS
330
6E19
102
}
330
6E19
100
AcDbProxyObject
 90
      499
 91
      509
 95
   983063
 70
     0
 93
      121
310
905313A3430004000000000000444040
 94
        0
1001
ACAD
1000
AcRTDxfName
1000
SCALE
1000
AcRTDxfName
1000
SCALE
1000
AcRTDxfName
1000
SCALE
1000
AcRTDxfName
1000
SCALE
  0
ACAD_PROXY_OBJECT
  5
6E24
102
{ACAD_REACTORS
330
6E19
102
}
330
6E19
100
AcDbProxyObject
 90
      499
 91
      509
 95
   983063
 70
     0
 93
      121
310
905313A3530004000000000000494001
 94
        0
1001
ACAD
1000
AcRTDxfName
1000
SCALE
1000
AcRTDxfName
1000
SCALE
1000
AcRTDxfName
1000
SCALE
1000
AcRTDxfName
1000
SCALE
  0
ACAD_PROXY_OBJECT
  5
6E25
102
{ACAD_REACTORS
330
6E19
102
}
330
6E19
100
AcDbProxyObject
 90
      499
 91
      509
 95
   983063
 70
     0
 93
      129
310
906313A313030004000000000000594000
 94
        0
1001
ACAD
1000
AcRTDxfName
1000
SCALE
1000
AcRTDxfName
1000
SCALE
1000
AcRTDxfName
1000
SCALE
1000
AcRTDxfName
1000
SCALE
  0
ACAD_PROXY_OBJECT
  5
6E26
102
{ACAD_REACTORS
330
6E19
102
}
330
6E19
100
AcDbProxyObject
 90
      499
 91
      509
 95
   983063
 70
     0
 93
      113
310
904323A31000000000000000010165
 94
        0
1001
ACAD
1000
AcRTDxfName
1000
SCALE
1000
AcRTDxfName
1000
SCALE
1000
AcRTDxfName
1000
SCALE
1000
AcRTDxfName
1000
SCALE
  0
ACAD_PROXY_OBJECT
  5
6E27
102
{ACAD_REACTORS
330
6E19
102
}
330
6E19
100
AcDbProxyObject
 90
      499
 91
      509
 95
   983063
 70
     0
 93
      113
310
904343A31000000000000000410101
 94
        0
1001
ACAD
1000
AcRTDxfName
1000
SCALE
1000
AcRTDxfName
1000
SCALE
1000
AcRTDxfName
1000
SCALE
1000
AcRTDxfName
1000
SCALE
  0
ACAD_PROXY_OBJECT
  5
6E28
102
{ACAD_REACTORS
330
6E19
102
}
330
6E19
100
AcDbProxyObject
 90
      499
 91
      509
 95
   983063
 70
     0
 93
      113
310
904383A31000000000000000810165
 94
        0
1001
ACAD
1000
AcRTDxfName
1000
SCALE
1000
AcRTDxfName
1000
SCALE
1000
AcRTDxfName
1000
SCALE
1000
AcRTDxfName
1000
SCALE
  0
ACAD_PROXY_OBJECT
  5
6E29
102
{ACAD_REACTORS
330
6E19
102
}
330
6E19
100
AcDbProxyObject
 90
      499
 91
      509
 95
   983063
 70
     0
 93
      121
310
90531303A31000000000000000910120
 94
        0
1001
ACAD
1000
AcRTDxfName
1000
SCALE
1000
AcRTDxfName
1000
SCALE
1000
AcRTDxfName
1000
SCALE
1000
AcRTDxfName
1000
SCALE
  0
ACAD_PROXY_OBJECT
  5
6E2A
102
{ACAD_REACTORS
330
6E19
102
}
330
6E19
100
AcDbProxyObject
 90
      499
 91
      509
 95
   983063
 70
     0
 93
      129
310
9063130303A31000000000000001650100
 94
        0
1001
ACAD
1000
AcRTDxfName
1000
SCALE
1000
AcRTDxfName
1000
SCALE
1000
AcRTDxfName
1000
SCALE
1000
AcRTDxfName
1000
SCALE
  0
ACAD_PROXY_OBJECT
  5
6E2B
102
{ACAD_REACTORS
330
6E19
102
}
330
6E19
100
AcDbProxyObject
 90
      499
 91
      509
 95
   983063
 70
     0
 93
      265
310
90F312F31323822203D2031272D302200000000000000200FC00000000000028404E
 94
        0
1001
ACAD
1000
AcRTDxfName
1000
SCALE
1000
AcRTDxfName
1000
SCALE
1000
AcRTDxfName
1000
SCALE
1000
AcRTDxfName
1000
SCALE
  0
ACAD_PROXY_OBJECT
  5
6E2C
102
{ACAD_REACTORS
330
6E19
102
}
330
6E19
100
AcDbProxyObject
 90
      499
 91
      509
 95
   983063
 70
     0
 93
      257
310
90E312F363422203D2031272D302200000000000000240FC000000000000284040
 94
        0
1001
ACAD
1000
AcRTDxfName
1000
SCALE
1000
AcRTDxfName
1000
SCALE
1000
AcRTDxfName
1000
SCALE
1000
AcRTDxfName
1000
SCALE
  0
ACAD_PROXY_OBJECT
  5
6E2D
102
{ACAD_REACTORS
330
6E19
102
}
330
6E19
100
AcDbProxyObject
 90
      499
 91
      509
 95
   983063
 70
     0
 93
      257
310
90E312F333222203D2031272D302200000000000000280FC000000000000284066
 94
        0
1001
ACAD
1000
AcRTDxfName
1000
SCALE
1000
AcRTDxfName
1000
SCALE
1000
AcRTDxfName
1000
SCALE
1000
AcRTDxfName
1000
SCALE
  0
ACAD_PROXY_OBJECT
  5
6E2E
102
{ACAD_REACTORS
330
6E19
102
}
330
6E19
100
AcDbProxyObject
 90
      499
 91
      509
 95
   983063
 70
     0
 93
      257
310
90E312F313622203D2031272D3022000000000000002C0FC000000000000284040
 94
        0
1001
ACAD
1000
AcRTDxfName
1000
SCALE
1000
AcRTDxfName
1000
SCALE
1000
AcRTDxfName
1000
SCALE
1000
AcRTDxfName
1000
SCALE
  0
ACAD_PROXY_OBJECT
  5
6E2F
102
{ACAD_REACTORS
330
6E19
102
}
330
6E19
100
AcDbProxyObject
 90
      499
 91
      509
 95
   983063
 70
     0
 93
      257
310
90E332F333222203D2031272D3022000000000000002E0FC000000000000284066
 94
        0
1001
ACAD
1000
AcRTDxfName
1000
SCALE
1000
AcRTDxfName
1000
SCALE
1000
AcRTDxfName
1000
SCALE
1000
AcRTDxfName
1000
SCALE
  0
ACAD_PROXY_OBJECT
  5
6E30
102
{ACAD_REACTORS
330
6E19
102
}
330
6E19
100
AcDbProxyObject
 90
      499
 91
      509
 95
   983063
 70
     0
 93
      249
310
90D312F3822203D2031272D302200000000000000300FC000000000000284028
 94
        0
1001
ACAD
1000
AcRTDxfName
1000
SCALE
1000
AcRTDxfName
1000
SCALE
1000
AcRTDxfName
1000
SCALE
1000
AcRTDxfName
1000
SCALE
  0
ACAD_PROXY_OBJECT
  5
6E31
102
{ACAD_REACTORS
330
6E19
102
}
330
6E19
100
AcDbProxyObject
 90
      499
 91
      509
 95
   983063
 70
     0
 93
      257
310
90E332F313622203D2031272D302200000000000000320FC000000000000284066
 94
        0
1001
ACAD
1000
AcRTDxfName
1000
SCALE
1000
AcRTDxfName
1000
SCALE
1000
AcRTDxfName
1000
SCALE
1000
AcRTDxfName
1000
SCALE
  0
ACAD_PROXY_OBJECT
  5
6E32
102
{ACAD_REACTORS
330
6E19
102
}
330
6E19
100
AcDbProxyObject
 90
      499
 91
      509
 95
   983063
 70
     0
 93
      249
310
90D312F3422203D2031272D302200000000000000340FC000000000000284040
 94
        0
1001
ACAD
1000
AcRTDxfName
1000
SCALE
1000
AcRTDxfName
1000
SCALE
1000
AcRTDxfName
1000
SCALE
1000
AcRTDxfName
1000
SCALE
  0
ACAD_PROXY_OBJECT
  5
6E33
102
{ACAD_REACTORS
330
6E19
102
}
330
6E19
100
AcDbProxyObject
 90
      499
 91
      509
 95
   983063
 70
     0
 93
      249
310
90D332F3822203D2031272D302200000000000000360FC000000000000284028
 94
        0
1001
ACAD
1000
AcRTDxfName
1000
SCALE
1000
AcRTDxfName
1000
SCALE
1000
AcRTDxfName
1000
SCALE
1000
AcRTDxfName
1000
SCALE
  0
ACAD_PROXY_OBJECT
  5
6E34
102
{ACAD_REACTORS
330
6E19
102
}
330
6E19
100
AcDbProxyObject
 90
      499
 91
      509
 95
   983063
 70
     0
 93
      249
310
90D312F3222203D2031272D302200000000000000380FC000000000000284040
 94
        0
1001
ACAD
1000
AcRTDxfName
1000
SCALE
1000
AcRTDxfName
1000
SCALE
1000
AcRTDxfName
1000
SCALE
1000
AcRTDxfName
1000
SCALE
  0
ACAD_PROXY_OBJECT
  5
6E35
102
{ACAD_REACTORS
330
6E19
102
}
330
6E19
100
AcDbProxyObject
 90
      499
 91
      509
 95
   983063
 70
     0
 93
      249
310
90D332F3422203D2031272D3022000000000000003A0FC000000000000284028
 94
        0
1001
ACAD
1000
AcRTDxfName
1000
SCALE
1000
AcRTDxfName
1000
SCALE
1000
AcRTDxfName
1000
SCALE
1000
AcRTDxfName
1000
SCALE
  0
ACAD_PROXY_OBJECT
  5
6E36
102
{ACAD_REACTORS
330
6E19
102
}
330
6E19
100
AcDbProxyObject
 90
      499
 91
      509
 95
   983063
 70
     0
 93
      169
310
90B3122203D2031272D3022004000000000000284000
 94
        0
1001
ACAD
1000
AcRTDxfName
1000
SCALE
1000
AcRTDxfName
1000
SCALE
1000
AcRTDxfName
1000
SCALE
1000
AcRTDxfName
1000
SCALE
  0
ACAD_PROXY_OBJECT
  5
6E37
102
{ACAD_REACTORS
330
6E19
102
}
330
6E19
100
AcDbProxyObject
 90
      499
 91
      509
 95
   983063
 70
     0
 93
      265
310
90F312D312F3222203D2031272D3022000000000000003E0FC000000000000284018
 94
        0
1001
ACAD
1000
AcRTDxfName
1000
SCALE
1000
AcRTDxfName
1000
SCALE
1000
AcRTDxfName
1000
SCALE
1000
AcRTDxfName
1000
SCALE
  0
ACAD_PROXY_OBJECT
  5
6E38
102
{ACAD_REACTORS
330
6E19
102
}
330
6E19
100
AcDbProxyObject
 90
      499
 91
      509
 95
   983063
 70
     0
 93
      233
310
90B3322203D2031272D30220000000000000002100000000000000284000
 94
        0
1001
ACAD
1000
AcRTDxfName
1000
SCALE
1000
AcRTDxfName
1000
SCALE
1000
AcRTDxfName
1000
SCALE
1000
AcRTDxfName
1000
SCALE
  0
ACAD_PROXY_OBJECT
  5
6E39
102
{ACAD_REACTORS
330
6E19
102
}
330
6E19
100
AcDbProxyObject
 90
      499
 91
      509
 95
   983063
 70
     0
 93
      233
310
90B3622203D2031272D3022000000000000000610000000000000028405D
 94
        0
1001
ACAD
1000
AcRTDxfName
1000
SCALE
1000
AcRTDxfName
1000
SCALE
1000
AcRTDxfName
1000
SCALE
1000
AcRTDxfName
1000
SCALE
  0
ACAD_PROXY_OBJECT
  5
6E3A
102
{ACAD_REACTORS
330
6E19
102
}
330
6E19
100
AcDbProxyObject
 90
      499
 91
      509
 95
   983063
 70
     0
 93
      257
310
90E31272D3022203D2031272D3022000000000000000A100000000000000284000
 94
        0
1001
ACAD
1000
AcRTDxfName
1000
SCALE
1000
AcRTDxfName
1000
SCALE
1000
AcRTDxfName
1000
SCALE
1000
AcRTDxfName
1000
SCALE
  0
TABLESTYLE
  5
6E18
102
{ACAD_XDICTIONARY
360
6F1C
102
}
102
{ACAD_REACTORS
330
6E17
102
}
330
6E17
100
AcDbTableStyle
  3
Standard
 70
     0
 71
     0
 40
1.5
 41
1.5
280
     0
281
     0
  7
Standard
140
4.5
170
     2
 62
     0
 63
     7
283
     0
274
    -2
284
     1
 64
     0
275
    -2
285
     1
 65
     0
276
    -2
286
     1
 66
     0
277
    -2
287
     1
 67
     0
278
    -2
288
     1
 68
     0
279
    -2
289
     1
 69
     0
  7
Standard
140
6.0
170
     5
 62
     0
 63
     7
283
     0
274
    -2
284
     1
 64
     0
275
    -2
285
     1
 65
     0
276
    -2
286
     1
 66
     0
277
    -2
287
     1
 67
     0
278
    -2
288
     1
 68
     0
279
    -2
289
     1
 69
     0
  7
Standard
140
4.5
170
     5
 62
     0
 63
     7
283
     0
274
    -2
284
     1
 64
     0
275
    -2
285
     1
 65
     0
276
    -2
286
     1
 66
     0
277
    -2
287
     1
 67
     0
278
    -2
288
     1
 68
     0
279
    -2
289
     1
 69
     0
  0
ACAD_PROXY_OBJECT
  5
6E0B
102
{ACAD_REACTORS
330
6E05
102
}
330
6E05
100
AcDbProxyObject
 90
      499
 91
      507
 95
   983063
 70
     0
 93
      444
310
430C9915DA5C99599C985B59401049028333333333333E3BF0000000000000FB0107901411070040501600405405064090741402480A0340
 94
        0
1001
ACAD
1000
AcDbSavedByObjectVersion
1070
     0
1000
AcRTDxfName
1000
VISUALSTYLE
1000
AcRTDxfName
1000
VISUALSTYLE
1000
AcRTDxfName
1000
VISUALSTYLE
1000
AcRTDxfName
1000
VISUALSTYLE
  0
ACAD_PROXY_OBJECT
  5
6E0D
102
{ACAD_REACTORS
330
6E05
102
}
330
6E05
100
AcDbProxyObject
 90
      499
 91
      507
 95
   983063
 70
     0
 93
      508
310
428CD108121A5919195B8010640502408333333333333E3BF0000000000000FB01079024090700405020000000000001110200405405064090740C02480A0340
 94
        0
1001
ACAD
1000
AcDbSavedByObjectVersion
1070
     0
1000
AcRTDxfName
1000
VISUALSTYLE
1000
AcRTDxfName
1000
VISUALSTYLE
1000
AcRTDxfName
1000
VISUALSTYLE
1000
AcRTDxfName
1000
VISUALSTYLE
  0
ACAD_PROXY_OBJECT
  5
6E0C
102
{ACAD_REACTORS
330
6E05
102
}
330
6E05
100
AcDbProxyObject
 90
      499
 91
      507
 95
   983063
 70
     0
 93
      444
310
430CD915DA5C99599C985B59401059028333333333333E3BF0000000000000FB0107901411070040501600405405064090741402480A0340
 94
        0
1001
ACAD
1000
AcDbSavedByObjectVersion
1070
     0
1000
AcRTDxfName
1000
VISUALSTYLE
1000
AcRTDxfName
1000
VISUALSTYLE
1000
AcRTDxfName
1000
VISUALSTYLE
1000
AcRTDxfName
1000
VISUALSTYLE
  0
ACAD_PROXY_OBJECT
  5
6E0A
102
{ACAD_REACTORS
330
6E05
102
}
330
6E05
100
AcDbProxyObject
 90
      499
 91
      507
 95
   983063
 70
     0
 93
      396
310
4190985CDA58C0107406404333333333333E3BF0000000000000FB0107A41107004050150841D405064090741402480A0354
 94
        0
1001
ACAD
1000
AcDbSavedByObjectVersion
1070
     0
1000
AcRTDxfName
1000
VISUALSTYLE
1000
AcRTDxfName
1000
VISUALSTYLE
1000
AcRTDxfName
1000
VISUALSTYLE
1000
AcRTDxfName
1000
VISUALSTYLE
  0
ACAD_PROXY_OBJECT
  5
6E11
102
{ACAD_REACTORS
330
6E05
102
}
330
6E05
100
AcDbProxyObject
 90
      499
 91
      507
 95
   983063
 70
     0
 93
      436
310
42509C9A59DA1D195B8010C409028333333333333E3BF0000000000000FB010790141107004050150841D405064090741402480A02995A
 94
        0
1001
ACAD
1000
AcDbSavedByObjectVersion
1070
     0
1000
AcRTDxfName
1000
VISUALSTYLE
1000
AcRTDxfName
1000
VISUALSTYLE
1000
AcRTDxfName
1000
VISUALSTYLE
1000
AcRTDxfName
1000
VISUALSTYLE
  0
ACAD_PROXY_OBJECT
  5
6E15
102
{ACAD_REACTORS
330
6E05
102
}
330
6E05
100
AcDbProxyObject
 90
      499
 91
      507
 95
   983063
 70
     0
 93
      460
310
4310DBDB1BDC90DA185B99D9401104090240C333333333333E3BF0000000000000FB0108901411070040501508421405064090741402480A035E
 94
        0
1001
ACAD
1000
AcDbSavedByObjectVersion
1070
     0
1000
AcRTDxfName
1000
VISUALSTYLE
1000
AcRTDxfName
1000
VISUALSTYLE
1000
AcRTDxfName
1000
VISUALSTYLE
1000
AcRTDxfName
1000
VISUALSTYLE
  0
ACAD_PROXY_OBJECT
  5
6E0E
102
{ACAD_REACTORS
330
6E05
102
}
330
6E05
100
AcDbProxyObject
 90
      499
 91
      507
 95
   983063
 70
     0
 93
      508
310
42D0DBDB98D95C1D1D585B0010940D028333333333333E3BF0000000000000FB0107902409070040501000000000000111010841D405064090740C02480A0340
 94
        0
1001
ACAD
1000
AcDbSavedByObjectVersion
1070
     0
1000
AcRTDxfName
1000
VISUALSTYLE
1000
AcRTDxfName
1000
VISUALSTYLE
1000
AcRTDxfName
1000
VISUALSTYLE
1000
AcRTDxfName
1000
VISUALSTYLE
  0
ACAD_PROXY_OBJECT
  5
6E10
102
{ACAD_REACTORS
330
6E05
102
}
330
6E05
100
AcDbProxyObject
 90
      499
 91
      507
 95
   983063
 70
     0
 93
      420
310
41111A5B4010B409028333333333333E3BF0000000000000FB010790141107004050150841D405064090741402480A02677FFFFFD2
 94
        0
1001
ACAD
1000
AcDbSavedByObjectVersion
1070
     0
1000
AcRTDxfName
1000
VISUALSTYLE
1000
AcRTDxfName
1000
VISUALSTYLE
1000
AcRTDxfName
1000
VISUALSTYLE
1000
AcRTDxfName
1000
VISUALSTYLE
  0
ACAD_PROXY_OBJECT
  5
6E14
102
{ACAD_REACTORS
330
6E05
102
}
330
6E05
100
AcDbProxyObject
 90
      499
 91
      507
 95
   983063
 70
     0
 93
      452
310
43119858D95C185D1D195C9B8010F409028333333333333E3BF0000000000000FB010790141107004050150841D405064090741402480A0353
 94
        0
1001
ACAD
1000
AcDbSavedByObjectVersion
1070
     0
1000
AcRTDxfName
1000
VISUALSTYLE
1000
AcRTDxfName
1000
VISUALSTYLE
1000
AcRTDxfName
1000
VISUALSTYLE
1000
AcRTDxfName
1000
VISUALSTYLE
  0
ACAD_PROXY_OBJECT
  5
6E06
102
{ACAD_REACTORS
330
6E05
102
}
330
6E05
100
AcDbProxyObject
 90
      499
 91
      507
 95
   983063
 70
     0
 93
      396
310
41519B185D00240901404333333333333E3BF0000000000000F9010740A41107004050150841D405064090741402480A1B58
 94
        0
1001
ACAD
1000
AcDbSavedByObjectVersion
1070
     0
1000
AcRTDxfName
1000
VISUALSTYLE
1000
AcRTDxfName
1000
VISUALSTYLE
1000
AcRTDxfName
1000
VISUALSTYLE
1000
AcRTDxfName
1000
VISUALSTYLE
  0
ACAD_PROXY_OBJECT
  5
6E07
102
{ACAD_REACTORS
330
6E05
102
}
330
6E05
100
AcDbProxyObject
 90
      499
 91
      507
 95
   983063
 70
     0
 93
      484
310
43919B185D15DA5D1A115919D95CC010140901404333333333333E3BF0000000000000F9010740901411070040501600405405064090741402480A1B58
 94
        0
1001
ACAD
1000
AcDbSavedByObjectVersion
1070
     0
1000
AcRTDxfName
1000
VISUALSTYLE
1000
AcRTDxfName
1000
VISUALSTYLE
1000
AcRTDxfName
1000
VISUALSTYLE
1000
AcRTDxfName
1000
VISUALSTYLE
  0
ACAD_PROXY_OBJECT
  5
6E08
102
{ACAD_REACTORS
330
6E05
102
}
330
6E05
100
AcDbProxyObject
 90
      499
 91
      507
 95
   983063
 70
     0
 93
      420
310
4211DBDD5C985D590010240902404333333333333E3BF0000000000000F9010740A411070040501641D405064090741402480A1B58
 94
        0
1001
ACAD
1000
AcDbSavedByObjectVersion
1070
     0
1000
AcRTDxfName
1000
VISUALSTYLE
1000
AcRTDxfName
1000
VISUALSTYLE
1000
AcRTDxfName
1000
VISUALSTYLE
1000
AcRTDxfName
1000
VISUALSTYLE
  0
ACAD_PROXY_OBJECT
  5
6E09
102
{ACAD_REACTORS
330
6E05
102
}
330
6E05
100
AcDbProxyObject
 90
      499
 91
      507
 95
   983063
 70
     0
 93
      508
310
4451DBDD5C985D5915DA5D1A115919D95CC010340902404333333333333E3BF0000000000000F9010740901411070040501600405405064090741402480A1B50
 94
        0
1001
ACAD
1000
AcDbSavedByObjectVersion
1070
     0
1000
AcRTDxfName
1000
VISUALSTYLE
1000
AcRTDxfName
1000
VISUALSTYLE
1000
AcRTDxfName
1000
VISUALSTYLE
1000
AcRTDxfName
1000
VISUALSTYLE
  0
ACAD_PROXY_OBJECT
  5
6E13
102
{ACAD_REACTORS
330
6E05
102
}
330
6E05
100
AcDbProxyObject
 90
      499
 91
      507
 95
   983063
 70
     0
 93
      452
310
43131A5B995C185D1D195C9B8010E409028333333333333E3BF0000000000000FB010790141107004050750841D405064090741402483A0350
 94
        0
1001
ACAD
1000
AcDbSavedByObjectVersion
1070
     0
1000
AcRTDxfName
1000
VISUALSTYLE
1000
AcRTDxfName
1000
VISUALSTYLE
1000
AcRTDxfName
1000
VISUALSTYLE
1000
AcRTDxfName
1000
VISUALSTYLE
  0
ACAD_PROXY_OBJECT
  5
6E0F
102
{ACAD_REACTORS
330
6E05
102
}
330
6E05
100
AcDbProxyObject
 90
      499
 91
      507
 95
   983063
 70
     0
 93
      428
310
429499585B1A5CDD1A58C0108409028333333333333E3BF0000000000000FB01079019070040501508421405064090741402480A1B49
 94
        0
1001
ACAD
1000
AcDbSavedByObjectVersion
1070
     0
1000
AcRTDxfName
1000
VISUALSTYLE
1000
AcRTDxfName
1000
VISUALSTYLE
1000
AcRTDxfName
1000
VISUALSTYLE
1000
AcRTDxfName
1000
VISUALSTYLE
  0
ACAD_PROXY_OBJECT
  5
6E12
102
{ACAD_REACTORS
330
6E05
102
}
330
6E05
100
AcDbProxyObject
 90
      499
 91
      507
 95
   983063
 70
     0
 93
      420
310
42151A1A58DAD95B8010D409028333333333333E3BF0000000000000FB010790141107004050150C41D405064090741402480A0352
 94
        0
1001
ACAD
1000
AcDbSavedByObjectVersion
1070
     0
1000
AcRTDxfName
1000
VISUALSTYLE
1000
AcRTDxfName
1000
VISUALSTYLE
1000
AcRTDxfName
1000
VISUALSTYLE
1000
AcRTDxfName
1000
VISUALSTYLE
  0
DICTIONARYVAR
  5
6F5A
102
{ACAD_REACTORS
330
3B
102
}
330
3B
100
DictionaryVariables
280
     0
  1
1:1
  0
DICTIONARYVAR
  5
6F59
102
{ACAD_REACTORS
330
3B
102
}
330
3B
100
DictionaryVariables
280
     0
  1
STANDARD
  0
DICTIONARYVAR
  5
6F58
102
{ACAD_REACTORS
330
3B
102
}
330
3B
100
DictionaryVariables
280
     0
  1
STANDARD
  0
DICTIONARYVAR
  5
3D
102
{ACAD_REACTORS
330
3B
102
}
330
3B
100
DictionaryVariables
280
     0
  1
2
  0
DICTIONARYVAR
  5
3C
102
{ACAD_REACTORS
330
3B
102
}
330
3B
100
DictionaryVariables
280
     0
  1
1
  0
DICTIONARYVAR
  5
6F5C
102
{ACAD_REACTORS
330
3B
102
}
330
3B
100
DictionaryVariables
280
     0
  1
0
  0
DICTIONARYVAR
  5
740A
102
{ACAD_REACTORS
330
3B
102
}
330
3B
100
DictionaryVariables
280
     0
  1

  0
DICTIONARYVAR
  5
6F5B
102
{ACAD_REACTORS
330
3B
102
}
330
3B
100
DictionaryVariables
280
     0
  1
127
  0
DICTIONARY
  5
78C6
330
22
100
AcDbDictionary
280
     1
281
     1
  3
ACAD_XREC_ROUNDTRIP
360
78C7
  0
DICTIONARY
  5
6EB3
330
4E46
100
AcDbDictionary
280
     1
281
     1
  3
ACAD_XREC_ROUNDTRIP
360
78CC
  3
ADSK_XREC_LAYOUTTHUMBNAIL
360
6EB4
  0
DICTIONARY
  5
6DF6
330
6DF5
100
AcDbDictionary
280
     1
281
     1
  3
ACAD_XREC_ROUNDTRIP
360
73C3
  3
BUMPTILE
360
6DF8
  3
DIFFUSETILE
360
6DF7
  3
OPACITYTILE
360
6DFB
  3
REFLECTIONTILE
360
6DFA
  3
REFRACTIONTILE
360
6DFC
  3
SPECULARTILE
360
6DF9
  0
DICTIONARY
  5
6DEE
330
6DED
100
AcDbDictionary
280
     1
281
     1
  3
ACAD_XREC_ROUNDTRIP
360
73C2
  3
BUMPTILE
360
6DF0
  3
DIFFUSETILE
360
6DEF
  3
OPACITYTILE
360
6DF3
  3
REFLECTIONTILE
360
6DF2
  3
REFRACTIONTILE
360
6DF4
  3
SPECULARTILE
360
6DF1
  0
DICTIONARY
  5
6DFE
330
6DFD
100
AcDbDictionary
280
     1
281
     1
  3
ACAD_XREC_ROUNDTRIP
360
73C4
  3
BUMPTILE
360
6E00
  3
DIFFUSETILE
360
6DFF
  3
OPACITYTILE
360
6E03
  3
REFLECTIONTILE
360
6E02
  3
REFRACTIONTILE
360
6E04
  3
SPECULARTILE
360
6E01
  0
DICTIONARY
  5
78C8
330
4441
100
AcDbDictionary
280
     1
281
     1
  3
ACAD_XREC_ROUNDTRIP
360
78C9
  0
DICTIONARY
  5
78CA
330
4442
100
AcDbDictionary
280
     1
281
     1
  3
ACAD_XREC_ROUNDTRIP
360
78CB
  0
DICTIONARY
  5
6F1C
330
6E18
100
AcDbDictionary
280
     1
281
     1
  3
ACAD_ROUNDTRIP_2008_TABLESTYLE_CELLSTYLEMAP
360
73A6
  3
ACAD_XREC_ROUNDTRIP
360
73C5
  0
XRECORD
  5
78C7
102
{ACAD_REACTORS
330
78C6
102
}
330
78C6
100
AcDbXrecord
280
     1
102
SHADEPLOT
 70
     0
102
SHADEPLOTRESLEVEL
 70
     2
102
SHADEPLOTCUSTOMDPI
 70
   300
  0
XRECORD
  5
78CC
102
{ACAD_REACTORS
330
6EB3
102
}
330
6EB3
100
AcDbXrecord
280
     1
102
SHADEPLOT
 70
     0
102
SHADEPLOTRESLEVEL
 70
     2
102
SHADEPLOTCUSTOMDPI
 70
   300
  0
XRECORD
  5
6EB4
102
{ACAD_REACTORS
330
6EB3
102
}
330
6EB3
100
AcDbXrecord
280
     1
310
28000000620000008C0000000100080000000000B0360000000000000000000000010000000000000000000000000000FFFFFF000000000000000000000000000000000000000000000000000000000000000000330000006600000099000000CC000000FF00000000330000333300006633000099330000CC330000FF3300
310
0000660000336600006666000099660000CC660000FF66000000990000339900006699000099990000CC990000FF99000000CC000033CC000066CC000099CC0000CCCC0000FFCC000000FF000033FF000066FF000099FF0000CCFF0000FFFF000000003300330033006600330099003300CC003300FF003300003333003333
310
33006633330099333300CC333300FF33330000663300336633006666330099663300CC663300FF66330000993300339933006699330099993300CC993300FF99330000CC330033CC330066CC330099CC3300CCCC3300FFCC330000FF330033FF330066FF330099FF3300CCFF3300FFFF330000006600330066006600660099
310
006600CC006600FF00660000336600333366006633660099336600CC336600FF33660000666600336666006666660099666600CC666600FF66660000996600339966006699660099996600CC996600FF99660000CC660033CC660066CC660099CC6600CCCC6600FFCC660000FF660033FF660066FF660099FF6600CCFF6600
310
FFFF660000009900330099006600990099009900CC009900FF00990000339900333399006633990099339900CC339900FF33990000669900336699006666990099669900CC669900FF66990000999900339999006699990099999900CC999900FF99990000CC990033CC990066CC990099CC9900CCCC9900FFCC990000FF99
310
0033FF990066FF990099FF9900CCFF9900FFFF99000000CC003300CC006600CC009900CC00CC00CC00FF00CC000033CC003333CC006633CC009933CC00CC33CC00FF33CC000066CC003366CC006666CC009966CC00CC66CC00FF66CC000099CC003399CC006699CC009999CC00CC99CC00FF99CC0000CCCC0033CCCC0066CC
310
CC0099CCCC00CCCCCC00FFCCCC0000FFCC0033FFCC0066FFCC0099FFCC00CCFFCC00FFFFCC000000FF003300FF006600FF009900FF00CC00FF00FF00FF000033FF003333FF006633FF009933FF00CC33FF00FF33FF000066FF003366FF006666FF009966FF00CC66FF00FF66FF000099FF003399FF006699FF009999FF00CC
310
99FF00FF99FF0000CCFF0033CCFF0066CCFF0099CCFF00CCCCFF00FFCCFF0000FFFF0033FFFF0066FFFF0099FFFF00CCFFFF00FFFFFF00000000000D0D0D001A1A1A00282828003535350043434300505050005D5D5D006B6B6B00787878008686860093939300A1A1A100AEAEAE00BBBBBB00C9C9C900D6D6D600E4E4E400
310
F1F1F100FFFFFF0000000000000000000000000000000000000000000000000000000000000000000000000000000000F5F5F5F5F5F5F5F5F5F5F5F5F5F5F5F5F5F5F5F5F5F5F5F5F5F5F5F5F5F5F5F5F5F5F5F5F5F5F5F5F5F5F5F5F5F5F5F5F5F5F5F5F5F5F5F5F5F5F5F5F5F5F5F5F5F5F5F5F5F5F5F5F5F5F5F5F5F5F5
310
F5F5F5F5F5F5F5F5F5F5F5F5F5F5F5F5F5F5F50000F5E2E2E2E2E2E2E2E2E2E2E2E2E2E2E2E2E2E2E2E2E2E2E2E2E2E2E2E2E2E2E2E2E2E2E2E2E2E2E2E2E2E2E2E2E2E2E2E2E2E2E2E2E2E2E2E2E2E2E2E2E2E2E2E2E2E2E2E2E2E2E2E2E2E2E2E2E2E2E2E2E2E2E2E2E2E2E2E2E2E2E2E2E2E2E2E2F50000F5E2E2E2E2E2
310
E2E2E2E2E2E2E2E2E2E2E2E2E2E2E2E2E2E2E2E2E2E2E2E2E2E2E2E2E2E2E2E2E2E2E2E2E2E2E2E2E2E2E2E2E2E2E2E2E2E2E2E2E2E2E2E2E2E2E2E2E2E2E2E2E2E2E2E2E2E2E2E2E2E2E2E2E2E2E2E2E2E2E2E2E2E2E2E2E2E2E2F50000F5E2F5F5F5F5F5F5F5F5E2E2E2E2E2E2E2E2F5F5F5F5F5F5F5F5F5F5F5F5F5F5F5
310
E2E2E2E2E2E2E2E2E2F5F5F5F5F5F5F5F5F5F5F5F5F5F5E2E2E2E2E2E2E2E2E2F5F5F5F5F5F5F5F5F5F5F5F5F5F5F5E2E2E2E2E2E2E2E2F5F5F5F5F5F5F5F5E2F50000F5E2F5E2E2E2E2E2E2E2E2E2E2E2E2E2E2E2E2E2E2E2E2E2E2E2E2E2F5F5E2E2E2E2E2E2E2E2E2E2E2E2E2E2E2E2E2E2E2E2E2E2E2E2E2E2E2E2E2E2
310
E2E2E2E2E2E2E2E2E2E2E2E2E2E2E2E2E2E2E2E2E2E2E2E2E2E2E2E2E2E2E2E2E2E2E2F5E2F50000F5E2F5E2E2E2E2F5F5F5F5F5F5F5F5F5F5F5F5F5F5F5F5F5F5F5F5F5F5F5F5F5F5F5F5F5F5F5F5F5F5F5F5F5F5F5F5F5F5F5F5F5F5F5F5F5F5F5F5F5F5F5F5F5F5F5F5F5F5F5F5F5F5F5F5F5F5F5F5F5F5F5F5F5F5F5F5
310
F5F5F5E2E2E2E2E2F5E2F50000F5E2F5E2E2E2E2F5F5F5F5F5F5F5F5F5F5F5F5F5F5F5F5F5F5F5F5F5F5F5F5F5F5F5F5F5F5F5F5F5F5F5F5F5F5F5F5F5F5F5F5F5F5F5F5F5F5F5F5F5F5F5F5F5F5F5F5F5F5F5F5F5F5F5F5F5F5F5F5F5F5F5F5F5F5F5F5F5F5F5F5E2E2E2E2F5E2F50000F5E2F5E2E2E2E2E2E2E2E2E2E2E2
310
E2E2E2E2E2E2E2E2E2E2E2E2E2E2E2E2E2E2E2E2E2E2E2E2E2E2E2E2E2E2E2E2E2E2E2E2E2E2E2E2E2E2E2E2E2E2E2E2E2E2E2E2E2E2E2E2E2E2E2E2E2E2E2E2E2E2E2E2E2E2E2E2E2E2E2E2E2E2E2E2E2F5E2F50000F5E2F5E2F5F5F5F5F5F5F5F5F5F5F5F5F5F5F5F5F5F5F5F5F5F5F5F5F5F5F5F5F5F5F5F5F5F5F5F5F5
310
F5F5F5F5F5F5F5F5F5F5F5F5F5F5F5F5F5F5F5F5F5F5F5F5F5F5F5F5F5F5F5F5F5F5F5F5F5F5F5F5F5F5F5F5F5F5F5F5F5F5E2E2E2E2F5E2F50000F5E2F5E2F5F5E2E2E2E2E2E2E2E2E2E2E2E2E2E2E2E2E2E2E2E2E2E2E2E2E2E2E2E2E2E2E2E2E2E2E2E2E2E2E2E2E2E2E2E2E2E2E2E2E2E2E2E2E2E2E2E2E2E2E2E2E2E2
310
E2E2E2E2E2E2E2E2E2E2E2E2E2E2E2E2E2E2E2E2E2F5F5E2E2E2E2F5E2F50000F5E2F5E2F5F5E2E2E2E2E2E2E2E2E2E2E2E2E2E2E2E2E2E2E2E2E2E2E2E2E2E2E2E2E2E2E2E2E2E2E2E2E2E2E2E2E2E2E2E2E2E2E2E2E2E2E2E2E2E2E2E2E2E2E2E2E2E2E2E2E2E2E2E2E2E2E2E2E2E2E2E2E2E2E2E2E2E2E2F5F5E2E2E2E2
310
F5E2F50000F5E2F5E2F5F5E2E2E2E2E2E2E2E2E2E2E2E2E2E2E2E2E2E2E2E2E2E2E2E2E2E2E2E2E2E2E2E2E2E2E2E2E2E2E2E2E2E2E2E2E2E2E2E2E2E2E2E2E2E2E2E2E2E2E2E2E2E2E2E2E2E2E2E2E2E2E2E2E2E2E2E2E2E2E2E2E2E2E2F5F5E2E2E2E2F5E2F50000F5E2E2E2F5F5E2E2E2E2E2E2E2E2E2E2E2E2E2E2E2E2
310
E2E2E2E2E2E2E2E2E2E2E2E2E2E2E2E2E2E2E2E2E2E2E2E2E2E2E2E2E2E2E2E2E2E2E2E2E2E2E2E2E2E2E2E2E2E2E2E2E2E2E2E2E2E2E2E2E2E2E2E2E2E2E2E2E2E2E2F5F5E2E2E2E2E2E2F50000F5E2E2E2F5F5E2E2E2E2E2E2E2E2E2E2E2E2E2E2E2E2E2E2E2E2E2E2E2E2E2E2E2E2E2E2E2E2E2E2E2E2E2E2E2E2E2E2E2
310
E2E2E2E2E2E2E2E2E2E2E2E2E2E2E2E2E2E2E2E2E2E2E2E2E2E2E2E2E2E2E2E2E2E2E2E2E2E2E2E2F5F5E2E2E2E2E2E2F50000F5E2E2E2F5F5E2E2E2E2E2E2E2E2E2E2E2E2E2E2E2E2E2E2E2E2E2E2E2E2E2E2E2E2E2E2E2E2E2E2E2E2E2E2E2E2E2E2E2E2E2E2E2E2E2E2E2E2E2E2E2E2E2E2E2E2E2E2E2E2E2E2E2E2E2E2
310
E2E2E2E2E2E2E2E2E2E2E2E2E2F5F5E2E2E2E2E2E2F50000F5E2E2E2F5F5E2E2E2E2E2E2E2E2E2E2E2E2E2E2E2E2E2E2E2E2E2E2E2E2E2E2E2E2E2E2E2E2E2F5F5F5F5F5F5F5F5F5F5F5F5F5F5F5E2E2E2E2E2E2E2E2E2E2E2E2E2E2E2E2E2E2E2E2E2E2E2E2E2E2E2E2E2E2E2E2E2E2E2F5F5E2E2E2E2E2E2F50000F5E2E2
310
E2F5F5E2E2E2E2E2E2E2E2E2E2E2E2E2E2E2E2E2E2E2E2E2E2E2E2E2E2E2E2E2E2E2E2E2F5F5F5F5F5F5F5F5F5F5F5F5F5F5F5E2E2E2E2E2E2E2E2E2E2E2E2E2E2E2E2E2E2E2E2E2E2E2E2E2E2E2E2E2E2E2E2E2E2E2F5F5E2E2E2E2E2E2F50000F5E2E2E2F5F5E2E2E2E2E2E2E2E2E2E2E2E2E2E2E2E2E2E2E2E2E2E2E2E2
310
E2E2E2E2E2E2E2E2E2E2E2E2E2E2F5F5F5F5F5E2E2E2E2E2E2E2E2E2E2E2E2E2E2E2E2E2E2E2E2E2E2E2E2E2E2E2E2E2E2E2E2E2E2E2E2E2E2E2E2F5F5E2E2E2E2E2E2F50000F5E2E2E2F5F5E2E2E2E2E2E2E2E2E2E2E2E2E2E2E2E2E2E2E2E2E2E2E2E2E2E2E2E2E2E2E2E2E2E2E2E2E2E2F5F5F5F5F5E2E2E2E2E2E2E2E2
310
E2E2E2E2E2E2E2E2E2E2E2E2E2E2E2E2E2E2E2E2E2E2E2E2E2E2E2E2E2E2E2E2F5F5E2E2E2E2E2E2F50000F5E2E2E2F5F5E2E2E2E2E2E2E2E2E2E2E2E2E2E2E2E2E2E2E2E2E2E2E2E2E2E2E2E2E2E2E2E2E2E2E2E2E2E2E2E2E2E2E2E2E2E2E2E2E2E2E2E2E2E2E2E2E2E2E2E2E2E2E2E2E2E2E2E2E2E2E2E2E2E2E2E2E2E2
310
E2E2E2E2E2F5F5E2E2E2E2E2E2F50000F5E2E2E2F5F5E2E2E2E2E2E2E2E2E2E2E2E2E2E2E2E2E2E2E2E2E2E2E2E2E2E2E2E2E2E2E2E2E2E2E2E2E2E2E2E2E2E2E2E2E2E2E2E2E2E2E2E2E2E2E2E2E2E2E2E2E2E2E2E2E2E2E2E2E2E2E2E2E2E2E2E2E2E2E2E2E2E2E2F5F5E2E2E2E2E2E2F50000F5E2F5E2F5F5E2E2E2E2E2
310
E2E2E2E2E2E2E2E2E2E2E2E2E2E2E2E2E2E2E2E2E2E2E2DCDCDCDCDCDCDCDCDCDCDCDCDCDCDCDCDCDCDCDCDCDCDCDCDCE2E2E2E2E2E2E2E2E2E2E2E2E2E2E2E2E2E2E2E2E2E2E2E2E2E2E2E2E2E2F5F5E2E2E2E2F5E2F50000F5E2F5E2F5F5E2E2E2E2E2E2E2E2E2E2E2E2E2E2E2E2E2E2E2E2E2E2E2E2E2E2E2E2DCDCDCE2
310
DCDCE2DCDCDCDCDCDCDCE2E2E2E2E2E2E2E2E2DCDCE2E2E2E2E2E2E2E2E2E2E2E2E2E2E2E2E2E2E2E2E2E2E2E2E2E2E2E2E2E2F5F5E2E2E2E2F5E2F50000F5E2F5E2F5F5E2E2E2E2E2E2E2E2E2E2E2E2E2E2E2E2E2E2E2E2E2E2E2E2E2E2E2E2E2E2DCDCE2E2E2DCDCDCDCDCDCDCE2E2E2E2E2E2E2E2E2DCDCE2E2E2E2E2E2
310
E2E2E2E2E2E2E2E2E2E2E2E2E2E2E2E2E2E2E2E2E2E2E2E2F5F5E2E2E2E2F5E2F50000F5E2F5E2F5F5E2E2E2E2E2E2E2E2E2E2E2E2E2E2E2E2E2E2E2E2E2E2E2E2E2E2E2E2E2E2DCDCE2E2E2DCDCE2E2E2E2E2E2E2E2E2E2E2E2E2E2DCDCE2E2E2E2E2E2E2E2E2E2E2E2E2E2E2E2E2E2E2E2E2E2E2E2E2E2E2E2E2E2F5F5E2
310
E2E2E2F5E2F50000F5E2F5E2F5F5E2E2E2E2E2E2E2E2E2E2E2E2E2E2E2E2E2E2E2E2E2E2E2E2E2E2E2E2E2E2DCDCE2E2E2DCDCE2E2E2E2E2E2E2E2E2E2E2E2E2E2DCDCE2E2E2E2E2E2E2E2E2E2E2E2E2E2E2E2E2E2E2E2E2E2E2E2E2E2E2E2E2E2F5F5E2E2E2E2F5E2F50000F5E2F5E2F5F5E2E2E2E2E2E2E2E2E2E2E2E2E2
310
E2E2E2E2E2E2E2E2E2E2E2E2F5F5F5F5E2DCDCE2E2E2DCDCE2E2E2E2E2E2E2E2E2E2E2E2E2E2DCDCE2E2E2E2E2E2E2E2E2E2E2E2E2E2E2E2E2E2E2E2E2E2E2E2E2E2E2E2E2E2F5F5E2E2E2E2F5E2F50000F5E2F5E2F5F5E2E2E2E2E2E2E2E2E2E2E2E2E2E2E2E2E2E2E2E2E2E2E2E2E2F5F5F5F5E2DCDCE2E2E2DCDCE2E2E2
310
E2E2E2E2E2E2E2E2E2E2E2DCDCE2E2E2E2E2E2E2E2E2E2E2E2E2E2E2E2E2E2E2E2E2E2E2E2E2E2E2E2E2E2F5F5E2E2E2E2F5E2F50000F5E2F5E2F5F5E2E2E2E2E2E2E2E2E2E2E2E2E2E2E2E2E2E2E2E2E2E2E2E2E2E2E2E2E2E2DCDCE2E2E2DCDCE2E2E2E2E2E2E2E2E2E2E2E2E2E2DCDCE2E2E2E2E2E2E2E2E2E2E2E2E2E2
310
E2E2E2E2E2E2E2E2E2E2E2E2E2E2E2E2F5F5E2E2E2E2F5E2F50000F5E2F5E2F5F5E2E2E2E2E2E2E2E2E2E2E2E2E2E2E2E2E2E2E2E2E2E2E2E2E2E2E2E2E2E2DCDCE2E2E2DCDCE2E2E2E2E2E2E2E2E2E2E2E2E2E2DCDCE2E2E2E2E2E2E2E2E2E2E2E2E2E2E2E2E2E2E2E2E2E2E2E2E2E2E2E2E2E2F5F5E2E2E2E2F5E2F50000
310
F5E2F5E2F5F5E2E2E2E2E2E2E2E2E2E2E2E2E2E2E2E2E2E2E2E2E2E2E2E2E2E2E2E2E2E2DCDCE2E2E2DCDCE2E2E2E2E2E2E2E2E2E2E2E2E2E2DCDCE2E2E2E2E2E2E2E2E2E2E2E2E2E2E2E2E2E2E2E2E2E2E2E2E2E2E2E2E2E2F5F5E2E2E2E2F5E2F50000F5E2F5E2F5F5E2E2E2E2E2E2E2E2E2E2E2E2E2E2E2E2E2E2E2E2E2
310
E2E2E2E2E2E2E2DCDCDCDCE2DCDCDCDCE2E2E2E2E2E2E2E2E2E2E2E2E2E2DCDCE2E2E2E2E2E2E2E2E2E2E2E2E2E2E2E2E2E2E2E2E2E2E2E2E2E2E2E2E2E2F5F5E2E2E2E2F5E2F50000F5E2F5E2F5F5E2E2E2E2E2E2E2E2E2E2E2E2E2E2E2E2E2E2E2E2E2E2E2E2DCDCDCE2DCDCDCE2DCDCDCE2DCE2E2E2E2E2E2E2E2E2E2E2
310
E2DCDCDCDCE2E2E2E2E2E2E2E2E2E2E2E2E2E2E2E2E2E2E2E2E2E2E2E2E2E2E2E2E2E2F5F5E2E2E2E2F5E2F50000F5E2F5E2F5F5E2E2E2E2E2E2E2E2E2E2E2E2E2E2E2E2E2E2E2E2E2E2E2E2DCDCDCDCDCDCDCDCDCDCDCE2DCE2E2E2E2E2E2E2E2E2E2E2E2DCDCDCDCE2E2E2E2E2E2E2E2E2E2E2E2E2E2E2E2E2E2E2E2E2E2
310
E2E2E2E2E2E2E2E2F5F5E2E2E2E2F5E2F50000F5E2F5E2F5F5E2E2E2E2E2E2E2E2E2E2E2E2E2E2E2E2E2E2E2E2E2E2E2E2DCDCDCDCDCDCDCDCDCDCDCDCDCE2E2E2E2E2E2E2E2E2E2E2E2DCE2DCDCE2E2E2E2E2E2E2E2E2E2E2E2E2E2E2E2E2E2E2E2E2E2E2E2E2E2E2E2E2E2F5F5E2E2E2E2F5E2F50000F5E2F5E2F5F5E2E2
310
E2E2E2E2E2E2E2E2E2E2E2E2E2E2E2E2E2E2E2E2E2E2E2E2E2E2E2E2DCDCE2E2E2DCDCE2E2E2E2E2E2E2E2E2E2E2E2DCE2DCDCE2E2E2E2E2E2E2E2E2E2E2E2E2E2E2E2E2E2E2E2E2E2E2E2E2E2E2E2E2E2F5F5E2E2E2E2F5E2F50000F5E2F5E2F5F5E2E2E2E2E2E2E2E2E2E2E2E2E2E2E2E2E2E2E2E2E2E2E2E2E2E2E2E2E2
310
E2DCDCDCDCDCDCDCDCDCDCDCDCDCDCDCDCDCDCDCDCE2DCDCF5F5F5F5E2E2E2E2E2E2E2E2E2E2E2E2E2E2E2E2E2E2E2E2E2E2E2E2E2E2F5F5E2E2E2E2F5E2F50000F5E2F5E2F5F5E2E2E2E2E2E2E2E2E2E2E2E2E2E2E2E2E2E2E2E2E2E2E2E2E2E2E2E2E2E2DCDCDCDCDCDCDCDCDCDCDCDCDCDCDCDCDCDCDCE2E2DCDCE2E2E2
310
E2E2E2E2E2E2E2E2E2E2E2E2E2E2E2E2E2E2E2E2E2E2E2E2E2E2E2F5F5E2E2E2E2F5E2F50000F5E2E2E2F5F5E2E2E2E2E2E2E2E2E2E2E2E2E2E2E2E2E2E2E2E2E2E2E2E2E2E2E2E2E2E2E2E2E2E2E2E2DCE2DCDCE2E2E2E2E2E2E2DCDCDCDCDCDCE2E2E2E2E2E2E2E2E2E2E2E2E2E2E2E2E2E2E2E2E2E2E2E2E2E2E2E2E2E2
310
F5F5E2E2E2E2E2E2F50000F5E2E2E2F5F5E2E2E2E2E2E2E2E2E2E2E2E2E2E2E2E2E2E2E2E2E2E2E2E2E2E2E2E2E2E2E2E2E2E2E2E2DCE2DCDCDCE2E2E2E2DCDCDCDCE2E2DCDCE2E2E2E2E2E2E2E2E2E2E2E2E2E2E2E2E2E2E2E2E2E2E2E2E2E2E2E2E2E2F5F5E2E2E2E2E2E2F50000F5E2E2E2F5F5E2E2E2E2E2E2E2E2E2E2
310
E2E2E2E2E2E2E2E2E2E2E2E2E2E2E2E2E2E2E2E2E2E2E2E2E2E2DCE2E2DCDCDCDCDCDCDCDCDCDCDCDCDCDCE2E2E2E2E2E2E2E2E2E2E2E2E2E2E2E2E2E2E2E2E2E2E2E2E2E2E2E2E2E2F5F5E2E2E2E2E2E2F50000F5E2E2E2F5F5E2E2E2E2E2E2E2E2E2E2E2E2E2E2E2E2E2E2E2E2E2E2E2E2E2E2E2E2E2E2E2E2E2E2E2E2DC
310
DCDCDCDCE2DCDCE2E2E2E2E2E2E2DCDCE2E2E2E2E2E2E2E2E2E2E2E2E2E2E2E2E2E2E2E2E2E2E2E2E2E2E2E2E2E2F5F5E2E2E2E2E2E2F50000F5E2E2E2F5F5E2E2E2E2E2E2E2E2E2E2E2E2E2E2E2E2E2E2E2E2E2E2E2E2E2E2E2E2E2E2E2E2E2E2E2E2DCDCDCDCE2E2DCDCF5ECF5F5F5F5ECDCDCE2E2E2E2E2E2E2E2E2E2E2
310
E2E2E2E2E2E2E2E2E2E2E2E2E2E2E2E2E2E2E2F5F5E2E2E2E2E2E2F50000F5E2E2E2F5F5E2E2E2E2E2E2E2E2E2E2E2E2E2E2E2E2E2E2E2E2E2E2E2E2E2E2E2E2E2E2E2E2E2E2E2E2E2E2E2E2E2E2DCDCF5ECF5F5F5F5ECECDCE2E2E2E2E2E2E2E2E2E2E2E2E2E2E2E2E2E2E2E2E2E2E2E2E2E2E2E2E2E2F5F5E2E2E2E2E2E2
310
F50000F5E2E2E2F5F5E2E2E2E2E2E2E2E2E2E2E2E2E2E2E2E2E2E2E2E2E2E2E2E2E2E2E2E2E2E2E2E2E2E2E2E2E2E2E2E2E2E2DCDCF5ECF5E2E2ECECECDCE2E2E2E2E2E2E2E2E2E2E2E2E2E2E2E2E2E2E2E2E2E2E2E2E2E2E2E2E2E2F5F5E2E2E2E2E2E2F50000F5E2E2E2F5F5E2E2E2E2E2E2E2E2E2E2E2E2E2E2E2E2E2E2
310
E2E2E2E2E2E2E2E2E2E2E2E2E2E2E2E2E2E2E2E2E2E2E2E2DCDCF5ECF5E2E2ECECECDCE2E2E2E2E2E2E2E2E2E2E2E2E2E2E2E2E2E2E2E2E2E2E2E2E2E2E2E2E2E2F5F5E2E2E2E2E2E2F50000F5E2E2E2F5F5E2E2E2E2E2E2E2E2E2E2E2E2E2E2E2E2E2E2E2E2E2E2E2E2E2E2E2E2E2E2E2E2E2E2E2E2E2E2E2E2E2E2E2E2F5
310
ECF5E2E2ECECE2E2E2E2E2E2E2E2E2E2E2E2E2E2E2E2E2E2E2E2E2E2E2E2E2E2E2E2E2E2E2E2F5F5E2E2E2E2E2E2F50000F5E2E2E2F5F5E2E2E2E2E2E2E2E2E2E2E2E2E2E2E2E2E2E2E2E2E2E2E2E2E2E2E2E2E2E2E2E2E2E2E2E2E2E2E2E2E2E2E2E2E2E2E2E2E2E2E2E2E2E2E2E2E2E2E2E2E2E2E2E2E2E2E2E2E2E2E2E2
310
E2E2E2E2E2E2E2E2E2E2E2F5F5E2E2E2E2E2E2F50000F5E2F5E2F5F5E2E2E2E2E2E2E2E2E2E2E2E2E2E2E2E2E2E2E2E2E2E2E2E2E2E2E2E2E2E2E2E2E2E2E2E2E2E2E2E2E2E2E2E2E2E2E2E2E2E2E2E2E2E2E2E2E2E2E2E2E2E2E2E2E2E2E2E2E2E2E2E2E2E2E2E2E2E2E2E2E2E2E2F5F5E2E2E2E2F5E2F50000F5E2F5E2F5
310
F5E2E2E2E2E2E2E2E2E2E2E2E2E2E2E2E2E2E2E2E2E2E2E2E2E2E2E2E2E2E2E2E2E2E2E2E2E2E2E2E2E2E2E2E2E2E2E2E2E2E2E2E2E2E2E2E2E2E2E2E2E2E2E2E2E2E2E2E2E2E2E2E2E2E2E2E2E2E2E2E2E2E2E2F5F5E2E2E2E2F5E2F50000F5E2F5E2F5F5E2E2E2E2E2E2E2E2E2E2E2E2E2E2E2E2E2E2E2E2E2E2E2E2E2E2
310
E2E2E2E2E2E2E2E2E2E2E2E2E2E2E2E2E2E2E2E2E2E2E2E2E2E2E2E2E2E2E2E2E2E2E2E2E2E2E2E2E2E2E2E2E2E2E2E2E2E2E2E2E2E2E2E2E2F5F5E2E2E2E2F5E2F50000F5E2F5E2F5F5E2E2E2E2E2E2E2E2E2E2E2E2E2E2E2E2E2E2E2E2E2E2E2E2E2E2E2E2E2E2E2E2E2E2E2E2E2E2E2E2E2E2E2E2E2E2E2E2E2E2E2E2E2
310
E2E2E2E2E2E2E2E2E2E2E2E2E2E2E2E2E2E2E2E2E2E2E2E2E2E2E2E2E2E2F5F5E2E2E2E2F5E2F50000F5E2F5E2F5F5E2E2E2E2E2E2E2E2E2E2E2E2E2E2E2E2E2E2E2E2E2E2E2E2E2E2E2E2E2E2E2E2E2E2E2E2E2E2E2E2E2E2E2E2E2E2E2E2E2E2E2E2E2E2E2E2E2E2E2E2E2E2E2E2E2E2E2E2E2E2E2E2E2E2E2E2E2E2E2E2
310
E2E2E2F5F5E2E2E2E2F5E2F50000F5E2F5E2F5F5E2E2E2E2E2E2E2E2E2E2E2E2E2E2E2E2E2E2E2E2E2E2E2E2E2E2E2E2E2E2E2E2E2E2E2E2E2E2E2E2E2E2E2E2E2E2E2E2E2E2E2E2E2E2E2E2E2E2E2E2E2E2E2E2E2E2E2E2E2E2E2E2E2E2E2E2E2E2E2E2E2E2E2F5F5E2E2E2E2F5E2F50000F5E2F5E2F5F5E2E2E2E2E2E2E2
310
E2E2E2E2E2E2E2E2E2E2E2E2E2E2E2E2E2E2E2E2E2E2E2E2E2F5F5F5F5F5F5F5F5F5F5F5F5F5F5F5F5E2E2E2E2E2E2E2E2E2E2E2E2E2E2E2E2E2E2E2E2E2E2E2E2E2E2E2E2E2E2E2E2E2E2E2F5F5E2E2E2E2F5E2F50000F5E2F5E2F5F5E2E2E2E2E2E2E2E2E2E2E2E2E2E2E2E2E2E2E2E2E2E2E2E2E2E2E2E2E2E2E2E2F5F5
310
F5F5F5F5F5F5F5F5F5F5F5F5F5F5E2E2E2E2E2E2E2E2E2E2E2E2E2E2E2E2E2E2E2E2E2E2E2E2E2E2E2E2E2E2E2E2E2E2E2F5F5E2E2E2E2F5E2F50000F5E2F5E2F5F5E2E2E2E2E2E2E2E2E2E2E2E2E2E2E2E2E2E2E2E2E2E2E2E2E2E2E2E2E2E2E2E2E2E2E2E2E2E2F5F5F5F5E2E2E2E2E2E2E2E2E2E2E2E2E2E2E2E2E2E2E2
310
E2E2E2E2E2E2E2E2E2E2E2E2E2E2E2E2E2E2E2E2E2E2F5F5E2E2E2E2F5E2F50000F5E2F5E2F5F5E2E2E2E2E2E2E2E2E2E2E2E2E2E2E2E2E2E2E2E2E2E2E2E2E2E2E2E2E2E2E2E2E2E2E2E2E2E2F5F5F5F5E2E2E2E2E2E2E2E2E2E2E2E2E2E2E2E2E2E2E2E2E2E2E2E2E2E2E2E2E2E2E2E2E2E2E2E2E2E2E2E2E2F5F5E2E2E2
310
E2F5E2F50000F5E2F5E2F5F5E2E2E2E2E2E2E2E2E2E2E2E2E2E2E2E2E2E2E2E2E2E2E2E2E2E2E2E2E2E2E2E2E2E2E2E2E2E2E2E2E2E2E2E2E2E2E2E2E2E2E2E2E2E2E2E2E2E2E2E2E2E2E2E2E2E2E2E2E2E2E2E2E2E2E2E2E2E2E2E2E2E2E2F5F5E2E2E2E2F5E2F50000F5E2F5E2F5F5E2E2E2E2E2E2E2E2E2E2E2E2E2E2E2
310
E2E2E2E2E2E2E2E2E2E2E2E2E2E2E2DCDCDCDCDCDCDCDCDCDCDCDCDCDCDCE2E2E2E2E2E2E2E2E2E2E2E2E2E2E2E2E2E2E2E2E2E2E2E2E2E2E2E2E2E2E2E2E2E2E2E2E2E2F5F5E2E2E2E2F5E2F50000F5E2F5E2F5F5E2E2E2E2E2E2E2E2E2E2E2E2E2E2E2E2E2E2E2E2E2E2E2E2E2E2E2E2E2E2DCDCDCE2DCDCE2E2E2E2DCDC
310
DCDCDCDCDCE2E2E2E2E2E2E2E2E2E2E2E2E2E2E2E2E2E2E2E2E2E2E2E2E2E2E2E2E2E2E2E2E2E2E2E2F5F5E2E2E2E2F5E2F50000F5E2F5E2F5F5E2E2E2E2E2E2E2E2E2E2E2E2E2E2E2E2E2E2E2E2E2E2E2E2E2E2E2E2E2E2E2E2DCDCE2E2E2DCDCDCDCDCDCDCDCDCDCDCE2E2E2E2E2E2E2E2E2E2E2E2E2E2E2E2E2E2E2E2E2
310
E2E2E2E2E2E2E2E2E2E2E2E2E2E2F5F5E2E2E2E2F5E2F50000F5E2F5E2F5F5E2E2E2E2E2E2E2E2E2E2E2E2E2E2E2E2E2E2E2E2E2E2E2E2E2E2E2E2E2E2E2E2DCDCE2E2E2DCDCDCDCDCDCDCDCE2E2DCDCE2E2E2E2E2E2E2E2E2E2E2E2E2E2E2E2E2E2E2E2E2E2E2E2E2E2E2E2E2E2E2E2E2E2F5F5E2E2E2E2F5E2F50000F5E2
310
F5E2F5F5E2E2E2E2E2E2E2E2E2E2E2E2E2E2E2E2E2E2E2E2E2E2E2E2E2E2E2E2E2E2E2E2DCDCE2E2E2DCDCE2E2E2E2E2DCDCE2DCDCDCE2E2E2E2E2E2E2E2E2E2E2E2E2E2E2E2E2E2E2E2E2E2E2E2E2E2E2E2E2E2E2E2E2F5F5E2E2E2E2F5E2F50000F5E2F5E2F5F5E2E2E2E2E2E2E2E2E2E2E2E2E2E2E2E2E2E2E2E2E2E2E2
310
E2E2E2E2F5F5F5F5E2DCDCE2E2E2DCDCE2E2E2E2E2E2DCDCE2DCDCDCE2E2E2E2E2E2E2E2E2E2E2E2E2E2E2E2E2E2E2E2E2E2E2E2E2E2E2E2E2E2E2E2F5F5E2E2E2E2F5E2F50000F5E2E2E2F5F5E2E2E2E2E2E2E2E2E2E2E2E2E2E2E2E2E2E2E2E2E2E2E2E2E2E2E2F5F5F5F5E2DCDCE2E2E2DCDCE2E2E2E2E2E2E2DCDCE2DC
310
DCDCE2E2E2E2E2E2E2E2E2E2E2E2E2E2E2E2E2E2E2E2E2E2E2E2E2E2E2E2E2E2E2F5F5E2E2E2E2E2E2F50000F5E2E2E2F5F5E2E2E2E2E2E2E2E2E2E2E2E2E2E2E2E2E2E2E2E2E2E2E2E2E2E2E2E2E2E2E2E2DCDCE2E2E2DCDCE2E2E2E2E2E2E2DCDCDCDCE2DCDCE2E2E2E2E2E2E2E2E2E2E2E2E2E2E2E2E2E2E2E2E2E2E2E2
310
E2E2E2E2E2E2F5F5E2E2E2E2E2E2F50000F5E2E2E2F5F5E2E2E2E2E2E2E2E2E2E2E2E2E2E2E2E2E2E2E2E2E2E2E2E2E2E2E2E2E2E2E2E2DCDCE2E2E2DCDCE2E2E2E2E2E2DCE2DCDCE2DCDCDCDCE2E2E2E2E2E2E2E2E2E2E2E2E2E2E2E2E2E2E2E2E2E2E2E2E2E2E2E2E2F5F5E2E2E2E2E2E2F50000F5E2E2E2F5F5E2E2E2E2
310
E2E2E2E2E2E2E2E2E2E2E2E2E2E2E2E2E2E2E2E2E2E2E2E2E2E2E2E2DCDCE2E2E2DCDCE2E2E2E2E2DCE2E2DCDCDCDCF5E2DCDCE2E2E2E2E2E2E2E2E2E2E2E2E2E2E2E2E2E2E2E2E2E2E2E2E2E2E2E2F5F5E2E2E2E2E2E2F50000F5E2E2E2F5F5E2E2E2E2E2E2E2E2E2E2E2E2E2E2E2E2E2E2E2E2E2E2E2E2E2E2E2E2E2E2DC
310
DCDCDCE2DCDCDCDCE2E2E2E2DCE2E2DCDCDCDCF5ECECECECE2E2E2E2E2E2E2E2E2E2E2E2E2E2E2E2E2E2E2E2E2E2E2E2E2E2E2E2F5F5E2E2E2E2E2E2F50000F5E2E2E2F5F5E2E2E2E2E2E2E2E2E2E2E2E2E2E2E2E2E2E2E2E2E2E2E2E2E2E2DCDCDCE2DCDCDCE2DCDCDCE2DCE2E2E2DCE2E2E2E2DCDCF5E2F5ECECECECE2E2
310
E2E2E2E2E2E2E2E2E2E2E2E2E2E2E2E2E2E2E2E2E2E2E2E2E2F5F5E2E2E2E2E2E2F50000F5E2E2E2F5F5E2E2E2E2E2E2E2E2E2E2E2E2E2E2E2E2E2E2E2E2E2E2E2E2E2E2DCDCDCDCDCDCDCDCDCDCDCE2DCE2E2DCE2E2E2DCDCDCF5E2F5E2F5ECECECE2E2E2E2E2E2E2E2E2E2E2E2E2E2E2E2E2E2E2E2E2E2E2E2E2E2E2F5F5
310
E2E2E2E2E2E2F50000F5E2E2E2F5F5E2E2E2E2E2E2E2E2E2E2E2E2E2E2E2E2E2E2E2E2E2E2E2E2E2E2DCDCDCDCDCDCDCDCDCDCDCDCDCE2DCE2E2E2DCE2DCE2ECF5E2E2E2E2ECE2E2E2E2E2E2E2E2E2E2E2E2E2E2E2E2E2E2E2E2E2E2E2E2E2E2E2E2F5F5E2E2E2E2E2E2F50000F5E2E2E2F5F5E2E2E2E2E2E2E2E2E2E2E2E2
310
E2E2E2E2E2E2E2E2E2E2E2E2E2E2E2E2E2E2E2E2DCDCE2E2E2DCDCDCDCE2DCDCE2DCDCDCECECECF5E2E2E2E2E2E2E2E2E2E2E2E2E2E2E2E2E2E2E2E2E2E2E2E2E2E2E2E2E2E2E2F5F5E2E2E2E2E2E2F50000F5E2F5E2F5F5E2E2E2E2E2E2E2E2E2E2E2E2E2E2E2E2E2E2E2E2E2E2E2E2E2E2E2E2E2E2E2E2DCDCDCDCDCDCDC
310
DCE2DCDCDCDCE2DCDCDCECECE2F5E2E2E2E2E2E2E2E2E2E2E2E2E2E2E2E2E2E2E2E2E2E2E2E2E2E2E2E2E2E2F5F5E2E2E2E2F5E2F50000F5E2F5E2F5F5E2E2E2E2E2E2E2E2E2E2E2E2E2E2E2E2E2E2E2E2E2E2E2E2E2E2E2E2E2E2E2E2DCDCDCDCDCDCDCE2E2E2DCDCE2E2E2DCDCDCECECE2E2E2E2E2E2E2E2E2E2E2E2E2E2
310
E2E2E2E2E2E2E2E2E2E2E2E2E2E2E2E2E2F5F5E2E2E2E2F5E2F50000F5E2F5E2F5F5E2E2E2E2E2E2E2E2E2E2E2E2E2E2E2E2E2E2E2E2E2E2E2E2E2E2E2E2E2E2E2E2E2E2E2E2E2E2E2DCE2E2E2DCF5F5F5F5E2DCE2E2E2E2E2E2E2E2E2E2E2E2E2E2E2E2E2E2E2E2E2E2E2E2E2E2E2E2E2E2E2E2E2F5F5E2E2E2E2F5E2F500
310
00F5E2F5E2F5F5E2E2E2E2E2E2E2E2E2E2E2E2E2E2E2E2E2E2E2E2E2E2E2E2E2E2E2E2E2E2E2E2E2E2E2E2E2E2E2E2DCE2DCDCF5F5F5F5E2E2E2E2E2E2E2E2E2E2E2E2E2E2E2E2E2E2E2E2E2E2E2E2E2E2E2E2E2E2E2E2E2E2E2F5F5E2E2E2E2F5E2F50000F5E2F5E2F5F5E2E2E2E2E2E2E2E2E2E2E2E2E2E2E2E2E2E2E2E2
310
E2E2E2E2E2E2E2E2E2E2E2E2E2E2E2E2E2E2E2E2E2DCDCE2E2E2E2E2E2E2E2E2E2E2E2E2E2E2E2E2E2E2E2E2E2E2E2E2E2E2E2E2E2E2E2E2E2E2E2E2E2E2E2F5F5E2E2E2E2F5E2F50000F5E2F5E2F5F5E2E2E2E2E2E2E2E2E2E2E2E2E2E2E2E2E2E2E2E2E2E2E2E2E2E2E2E2E2E2E2E2E2E2E2E2E2E2E2E2E2E2E2E2E2E2E2
310
E2E2E2E2E2E2E2E2E2E2E2E2E2E2E2E2E2E2E2E2E2E2E2E2E2E2E2E2E2E2E2E2E2E2E2E2F5F5E2E2E2E2F5E2F50000F5E2F5E2F5F5E2E2E2E2E2E2E2E2E2E2E2E2E2E2E2E2E2E2E2E2E2E2E2E2E2E2E2E2E2E2E2E2E2E2E2E2E2E2E2E2E2E2E2E2E2E2E2E2E2E2E2E2E2E2E2E2E2E2E2E2E2E2E2E2E2E2E2E2E2E2E2E2E2E2
310
E2E2E2E2E2E2E2E2E2F5F5E2E2E2E2F5E2F50000F5E2F5E2F5F5E2E2E2E2E2E2E2E2E2E2E2E2E2E2E2E2E2E2E2E2E2E2E2E2E2E2E2E2E2E2E2E2E2E2E2E2E2E2E2E2E2E2E2E2E2E2E2E2E2E2E2E2E2E2E2E2E2E2E2E2E2E2E2E2E2E2E2E2E2E2E2E2E2E2E2E2E2E2E2E2E2E2E2F5F5E2E2E2E2F5E2F50000F5E2F5E2F5F5E2
310
E2E2E2E2E2E2E2E2E2E2E2E2E2E2E2E2E2E2E2E2E2E2E2E2E2E2E2E2E2E2E2E2E2E2E2E2E2E2E2E2E2E2E2E2E2E2E2E2E2E2E2E2E2E2E2E2E2E2E2E2E2E2E2E2E2E2E2E2E2E2E2E2E2E2E2E2E2E2E2E2E2E2F5F5E2E2E2E2F5E2F50000F5E2F5E2F5F5E2E2E2E2E2E2E2E2E2E2E2E2E2E2E2E2E2E2E2E2E2E2E2E2E2E2E2E2
310
E2E2E2E2E2E2E2E2E2E2E2E2E2E2E2E2E2E2E2E2E2E2E2E2E2E2E2E2E2E2E2E2E2E2E2E2E2E2E2E2E2E2E2E2E2E2E2E2E2E2E2E2E2E2E2F5F5E2E2E2E2F5E2F50000F5E2F5E2F5F5E2E2E2E2E2E2E2E2E2E2E2E2E2E2E2E2E2E2E2E2E2E2E2E2E2E2E2E2E2E2E2E2E2E2E2E2E2E2E2E2E2E2E2E2E2E2E2E2E2E2E2E2E2E2E2
310
E2E2E2E2E2E2E2E2E2E2E2E2E2E2E2E2E2E2E2E2E2E2E2E2E2E2E2E2F5F5E2E2E2E2F5E2F50000F5E2F5E2F5F5E2E2E2E2E2E2E2E2E2E2E2E2E2E2E2E2E2E2E2E2E2E2E2E2E2E2E2E2E2E2E2E2E2E2E2E2E2E2E2E2E2E2E2E2E2E2E2E2E2E2E2E2E2E2E2E2E2E2E2E2E2E2E2E2E2E2E2E2E2E2E2E2E2E2E2E2E2E2E2E2E2E2
310
E2F5F5E2E2E2E2F5E2F50000F5E2F5E2F5F5E2E2E2E2E2E2E2E2E2E2E2E2E2E2E2E2E2E2E2E2E2E2E2E2E2E2E2E2E2E2E2E2E2E2E2E2E2E2E2E2E2E2E2E2E2E2E2E2E2E2E2E2E2E2E2E2E2E2E2E2E2E2E2E2E2E2E2E2E2E2E2E2E2E2E2E2E2E2E2E2E2E2E2F5F5E2E2E2E2F5E2F50000F5E2F5E2F5F5E2E2E2E2E2E2E2E2E2
310
E2E2E2E2E2E2E2E2E2E2E2E2E2E2E2E2E2E2E2E2E2E2E2E2E2E2E2E2E2E2E2E2E2E2E2E2E2E2E2E2E2E2E2E2E2E2E2E2E2E2E2E2E2E2E2E2E2E2E2E2E2E2E2E2E2E2E2E2E2E2E2E2E2E2F5F5E2E2E2E2F5E2F50000F5E2F5E2F5F5E2E2E2E2E2E2E2E2E2E2E2E2E2E2E2E2E2E2E2E2E2E2E2E2E2E2E2E2E2E2E2E2E2E2E2E2
310
E2E2E2E2E2E2E2E2E2E2E2E2E2E2E2E2E2E2E2E2E2E2E2E2E2E2E2E2E2E2E2E2E2E2E2E2E2E2E2E2E2E2E2E2E2E2E2F5F5E2E2E2E2F5E2F50000F5E2F5E2F5F5E2E2E2E2E2E2E2E2E2E2E2E2E2E2E2E2E2E2E2E2E2E2E2E2E2E2E2E2E2E2E2E2E2E2E2E2E2E2E2E2E2E2E2E2E2E2E2E2E2E2E2E2E2E2E2E2E2E2E2E2E2E2E2
310
E2E2E2E2E2E2E2E2E2E2E2E2E2E2E2E2E2E2E2E2F5F5E2E2E2E2F5E2F50000F5E2F5E2F5F5E2E2E2E2E2E2E2E2E2E2E2E2E2E2E2E2E2E2E2E2E2E2E2E2E2E2E2E2E2E2E2E2E2F5F5F5F5F5F5F5F5F5F5F5F5F5F5F5F5E2E2E2E2E2E2E2E2E2E2E2E2E2E2E2E2E2E2E2E2E2E2E2E2E2E2E2E2E2E2E2E2E2E2F5F5E2E2E2E2F5
310
E2F50000F5E2E2E2F5F5E2E2E2E2E2E2E2E2E2E2E2E2E2E2E2E2E2E2E2E2E2E2E2E2E2E2E2E2E2E2E2E2E2E2E2E2E2E2E2F5F5F5F5E2E2E2E2E2E2E2E2E2E2E2E2E2E2E2E2E2E2E2E2E2E2E2E2E2E2E2E2E2E2E2E2E2E2E2E2E2E2E2E2F5F5E2E2E2E2E2E2F50000F5E2E2E2F5F5E2E2E2E2E2E2E2E2E2E2E2E2E2E2E2E2E2
310
E2E2E2E2E2E2E2E2E2E2E2E2E2E2E2E2E2E2E2E2E2E2F5F5F5F5E2E2E2E2E2E2E2E2E2E2E2E2E2E2E2E2E2E2E2E2E2E2E2E2E2E2E2E2E2E2E2E2E2E2E2E2E2E2E2E2F5F5E2E2E2E2E2E2F50000F5E2E2E2F5F5E2E2E2E2E2E2E2E2E2E2E2E2E2E2E2E2E2E2E2E2E2E2E2E2E2E2E2E2E2E2E2E2E2E2E2E2E2E2E2E2E2E2E2E2
310
E2E2E2E2E2E2E2E2E2E2E2E2E2E2E2E2E2E2E2E2E2E2E2E2E2E2E2E2E2E2E2E2E2E2E2E2E2E2E2F5F5E2E2E2E2E2E2F50000F5E2E2E2F5F5E2E2E2E2E2E2E2E2E2E2E2E2E2E2E2E2E2E2E2E2E2E2E2E2E2E2E2E2E2E2E2E2E2E2E2E2E2E2E2E2E2E2E2E2E2E2E2E2E2E2E2E2E2E2E2E2E2E2E2E2E2E2E2E2E2E2E2E2E2E2E2
310
E2E2E2E2E2E2E2E2E2E2E2E2F5F5E2E2E2E2E2E2F50000F5E2E2E2F5F5E2E2E2E2E2E2E2E2E2E2E2E2E2E2E2E2E2E2E2E2E2E2E2E2E2E2E2E2E2DCDCDCDCDCDCDCDCDCDCDCDCDCDCDCDCDCDCDCDCDCDCDCDCDCDCDCE2E2E2E2E2E2E2E2E2E2E2E2E2E2E2E2E2E2E2E2E2E2E2E2E2E2E2F5F5E2E2E2E2E2E2F50000F5E2E2E2
310
F5F5E2E2E2E2E2E2E2E2E2E2E2E2E2E2E2E2E2E2E2E2E2E2E2E2E2E2E2E2E2DCDCDCDCDCE2E2E2E2DCDCDCDCDCE2E2DCE2E2DCDCDCE2E2ECECECE2E2E2E2E2E2E2E2E2E2E2E2E2E2E2E2E2E2E2E2E2E2E2E2E2E2E2F5F5E2E2E2E2E2E2F50000F5E2E2E2F5F5E2E2E2E2E2E2E2E2E2E2E2E2E2E2E2E2E2E2E2E2E2E2E2E2E2
310
E2E2E2E2E2E2DCE2E2E2E2DCDCDCDCDCDCDCE2E2E2E2E2DCE2DCECECECECECECE2E2E2E2E2E2E2E2E2E2E2E2E2E2E2E2E2E2E2E2E2E2E2E2E2E2F5F5E2E2E2E2E2E2F50000F5E2E2E2F5F5E2E2E2E2E2E2E2E2E2E2E2E2E2E2E2E2E2E2E2E2E2E2E2E2E2E2E2E2E2E2E2DCE2E2E2E2DCDCDCDCDCDCDCDCDCDCDCE2DCE2DCF5
310
ECF5ECECECE2E2E2E2E2E2E2E2E2E2E2E2E2E2E2E2E2E2E2E2E2E2E2E2E2E2F5F5E2E2E2E2E2E2F50000F5E2E2E2F5F5E2E2E2E2E2E2E2E2E2E2E2E2E2E2E2E2E2E2E2E2E2E2E2E2E2E2E2E2E2E2E2DCE2E2E2E2DCDCE2E2E2E2E2E2E2E2DCE2DCDCDCF5E2F5E2E2E2E2E2E2E2E2E2E2E2E2E2E2E2E2E2E2E2E2E2E2E2E2E2
310
E2E2E2E2F5F5E2E2E2E2E2E2F50000F5E2E2E2F5F5E2E2E2E2E2E2E2E2E2E2E2E2E2E2E2E2E2E2E2E2E2E2E2E2E2E2E2E2E2E2E2DCE2E2E2E2DCDCE2E2E2E2E2E2E2E2DCE2DCDCDCF5E2F5E2E2E2E2E2E2E2E2E2E2E2E2E2E2E2E2E2E2E2E2E2E2E2E2E2E2E2E2E2F5F5E2E2E2E2E2E2F50000F5E2F5E2F5F5E2E2E2E2E2E2
310
E2E2E2E2E2E2E2E2E2E2E2E2E2E2E2E2E2E2E2F5F5F5F5F5E2DCE2E2E2E2DCDCE2E2E2E2E2E2E2E2DCE2DCDCDCF5ECF5ECECECE2E2E2E2E2E2E2E2E2E2E2E2E2E2E2E2E2E2E2E2E2E2E2E2E2E2F5F5E2E2E2E2F5E2F50000F5E2F5E2F5F5E2E2E2E2E2E2E2E2E2E2E2E2E2E2E2E2E2E2E2E2E2E2E2E2E2E2E2E2E2E2E2DCE2
310
E2E2E2DCE2E2E2E2E2E2E2E2E2DCE2E2DCDCECECECECECECE2E2E2E2E2E2E2E2E2E2E2E2E2E2E2E2E2E2E2E2E2E2E2E2E2E2F5F5E2E2E2E2F5E2F50000F5E2F5E2F5F5E2E2E2E2E2E2E2E2E2E2E2E2E2E2E2E2E2E2E2E2E2E2E2E2E2E2E2E2E2E2E2DCE2E2E2E2DCE2E2E2E2E2E2E2E2E2DCE2E2DCDCDCE2DCDCDCE2E2E2E2
310
E2E2E2E2E2E2E2E2E2E2E2E2E2E2E2E2E2E2E2E2E2E2E2F5F5E2E2E2E2F5E2F50000F5E2F5E2F5F5E2E2E2E2E2E2E2E2E2E2E2E2E2E2E2E2E2E2E2E2E2E2E2E2E2E2E2E2E2E2E2DCE2E2E2DCDCE2E2E2E2E2E2E2E2E2DCE2E2DCDCDCDCDCDCDCE2E2E2E2E2E2E2E2E2E2E2E2E2E2E2E2E2E2E2E2E2E2E2E2E2E2E2F5F5E2E2
310
E2E2F5E2F50000F5E2F5E2F5F5E2E2E2E2E2E2E2E2E2E2E2E2E2E2E2E2E2E2E2E2E2E2E2E2E2E2E2E2E2E2E2DCE2E2E2DCDCE2E2E2E2E2E2E2E2E2DCE2E2DCDCE2F5F5F5F5E2E2E2E2E2E2E2E2E2E2E2E2E2E2E2E2E2E2E2E2E2E2E2E2E2E2E2F5F5E2E2E2E2F5E2F50000F5E2F5E2F5F5E2E2E2E2E2E2E2E2E2E2E2E2E2E2
310
E2E2E2E2E2E2E2E2E2E2E2DCDCDCE2DCDCE2E2DCDCE2DCDCE2E2E2E2E2E2E2E2DCE2DCDCDCE2F5F5F5F5E2E2E2E2E2E2E2E2E2E2E2E2E2E2E2E2E2E2E2E2E2E2E2E2E2E2E2F5F5E2E2E2E2F5E2F50000F5E2F5E2F5F5E2E2E2E2E2E2E2E2E2E2E2E2E2E2E2E2E2E2E2E2E2E2E2E2E2DCDCDCE2DCDCE2DCDCDCE2DCDCE2E2E2
310
E2E2E2E2E2DCE2DCDCDCE2E2E2E2E2E2E2E2E2E2E2E2E2E2E2E2E2E2E2E2E2E2E2E2E2E2E2E2E2E2E2E2F5F5E2E2E2E2F5E2F50000F5E2F5E2F5F5E2E2E2E2E2E2E2E2E2E2E2E2E2E2E2E2E2E2E2E2E2E2E2E2E2DCDCDCDCDCDCDCDCDCDCDCDCDCE2E2E2E2E2E2E2E2DCDCDCDCDCDCE2E2E2E2E2E2E2E2E2E2E2E2E2E2E2E2
310
E2E2E2E2E2E2E2E2E2E2E2E2E2E2E2F5F5E2E2E2E2F5E2F50000F5E2F5E2F5F5E2E2E2E2E2E2E2E2E2E2E2E2E2E2E2E2E2E2E2E2E2E2E2E2E2E2E2E2E2E2E2DCE2E2E2E2DCE2E2E2E2E2E2E2E2E2DCDCE2E2E2DCE2E2E2E2E2E2E2E2E2E2E2E2E2E2E2E2E2E2E2E2E2E2E2E2E2E2E2E2E2E2E2F5F5E2E2E2E2F5E2F50000F5
310
E2F5E2F5F5E2E2E2E2E2E2E2E2E2E2E2E2E2E2E2E2E2E2E2E2E2E2E2E2E2E2E2E2E2E2E2DCE2E2E2E2DCE2E2E2E2E2E2E2E2E2DCDCE2E2E2DCE2E2E2E2E2E2E2E2E2E2E2E2E2E2E2E2E2E2E2E2E2E2E2E2E2E2E2E2E2E2E2F5F5E2E2E2E2F5E2F50000F5E2F5E2F5F5E2E2E2E2E2E2E2E2E2E2E2E2E2E2E2E2E2E2E2E2E2E2
310
E2E2E2E2E2E2E2E2E2DCDCDCDCDCDCDCDCDCDCDCDCDCDCDCDCDCDCDCDCDCE2E2E2E2E2E2E2E2E2E2E2E2E2E2E2E2E2E2E2E2E2E2E2E2E2E2E2E2E2E2E2F5F5E2E2E2E2F5E2F50000F5E2F5E2F5F5E2E2E2E2E2E2E2E2E2E2E2E2E2E2E2E2E2E2E2E2E2E2E2E2E2E2E2E2E2E2E2E2E2E2E2E2E2E2E2E2E2E2E2E2E2E2E2E2E2
310
E2E2E2E2E2E2E2E2E2E2E2E2E2E2E2E2E2E2E2E2E2E2E2E2E2E2E2E2E2E2E2E2E2E2F5F5E2E2E2E2F5E2F50000F5E2F5E2F5F5E2E2E2E2E2E2E2E2E2E2E2E2E2E2E2E2E2E2E2E2E2E2E2E2E2E2E2E2E2E2E2E2E2E2E2E2E2E2E2E2E2E2E2E2E2E2E2E2E2E2E2E2E2E2E2E2E2E2E2E2E2E2E2E2E2E2E2E2E2E2E2E2E2E2E2E2
310
E2E2E2E2E2E2E2F5F5E2E2E2E2F5E2F50000F5E2F5E2F5F5E2E2E2E2E2E2E2E2E2E2E2E2E2E2E2E2E2E2E2E2E2E2E2E2E2E2E2E2E2E2E2E2E2E2E2E2E2E2E2E2E2E2E2E2E2E2E2E2E2E2E2E2E2E2E2E2E2E2E2E2E2E2E2E2E2E2E2E2E2E2E2E2E2E2E2E2E2E2E2E2E2E2E2F5F5E2E2E2E2F5E2F50000F5E2F5E2F5F5E2E2E2
310
E2E2E2E2E2E2E2E2E2E2E2E2E2E2E2E2E2E2E2E2E2E2E2E2E2E2E2E2E2E2E2E2E2E2E2E2E2E2E2E2E2E2E2E2E2E2E2E2E2E2E2E2E2E2E2E2E2E2E2E2E2E2E2E2E2E2E2E2E2E2E2E2E2E2E2E2E2E2E2E2F5F5E2E2E2E2F5E2F50000F5E2F5E2F5F5E2E2E2E2E2E2E2E2E2E2E2E2E2E2E2E2E2E2E2E2E2E2E2E2E2E2E2E2E2E2
310
E2E2E2E2E2E2E2E2E2E2E2E2E2E2E2E2E2E2E2E2E2E2E2E2E2E2E2E2E2E2E2E2E2E2E2E2E2E2E2E2E2E2E2E2E2E2E2E2E2E2E2E2E2F5F5E2E2E2E2F5E2F50000F5E2F5E2F5F5E2E2E2E2E2E2E2E2E2E2E2E2E2E2E2E2E2E2E2E2E2E2E2E2E2E2E2E2E2E2E2E2E2E2E2E2E2E2E2E2E2E2E2E2E2E2E2E2E2E2E2E2E2E2E2E2E2
310
E2E2E2E2E2E2E2E2E2E2E2E2E2E2E2E2E2E2E2E2E2E2E2E2E2E2F5F5E2E2E2E2F5E2F50000F5E2E2E2F5F5E2E2E2E2E2E2E2E2E2E2E2E2E2E2E2E2E2E2E2E2E2E2E2E2E2E2E2E2E2E2E2E2E2E2E2E2E2E2E2E2E2E2E2E2E2E2E2E2E2E2E2E2E2E2E2E2E2E2E2E2E2E2E2E2E2E2E2E2E2E2E2E2E2E2E2E2E2E2E2E2E2E2E2F5
310
F5E2E2E2E2E2E2F50000F5E2E2E2F5F5F5F5F5F5F5F5F5F5F5F5F5F5F5F5F5F5F5F5F5F5F5F5F5F5F5F5F5F5F5F5F5F5F5F5F5F5F5F5F5F5F5F5F5F5F5F5F5F5F5F5F5F5F5F5F5F5F5F5F5F5F5F5F5F5F5F5F5F5F5F5F5F5F5F5F5F5F5F5F5F5F5F5F5F5F5E2E2E2E2E2E2F50000F5E2E2E2E2E2E2E2E2E2E2E2E2E2F5F5F5
310
F5F5F5F5F5F5F5F5F5F5F5F5F5F5F5F5F5F5F5F5F5F5F5F5F5F5F5F5F5F5F5F5F5F5F5F5F5F5F5F5F5F5F5F5F5F5F5F5F5F5F5F5F5F5F5F5F5F5F5F5F5F5F5F5F5F5F5F5F5F5F5F5F5F5E2E2E2E2E2E2F50000F5E2E2E2E2E2E2E2E2E2E2E2E2E2F5E2E2E2E2E2E2E2E2E2E2E2E2E2E2E2E2E2E2E2E2E2E2E2E2E2E2E2E2E2
310
E2E2E2E2E2E2E2E2E2E2E2E2E2E2E2E2E2E2E2E2E2E2E2E2F5E2E2F5F5F5F5F5F5E2E2F5E2E2E2E2F5F5E2E2E2E2F5E2E2E2E2E2E2F50000F5E2E2E2E2E2E2E2E2E2E2E2E2ECECECE2E2E2E2E2E2F5F5F5F5F5F5F5F5F5F5F5F5F5F5F5F5E2E2E2E2E2E2E2E2E2E2E2E2E2E2E2E2E2E2E2E2E2E2E2E2E2E2E2E2E2E2F5E2E2
310
F5F5F5F5F5F5E2E2F5E2E2E2E2F5F5E2E2E2E2F5E2E2E2E2E2E2F50000F5E2E2E2E2E2E2E2E2E2E2E2E2ECECECE2E2E2E2E2E2F5F5F5F5F5F5F5F5F5F5F5F5F5F5F5F5E2E2E2E2E2E2E2E2E2E2E2E2E2E2E2E2E2E2E2E2E2E2E2E2E2E2E2E2E2E2F5E2E2E2E2E2E2E2E2E2E2F5E2E2E2E2E2E2E2E2E2E2F5E2E2E2E2E2E2F5
310
0000F5E2E2E2E2E2E2E2E2E2E2E2ECECECECECE2E2E2E2E2F5F5F5F5F5F5F5F5F5F5F5F5F5F5F5F5F5F5F5F5F5E2E2E2E2E2E2E2E2E2E2E2E2E2E2E2E2E2E2E2E2E2E2E2E2E2F5E2E2E2F5F5F5F5E2E2E2F5E2E2F5F5F5F5F5E2E2E2F5E2E2E2E2E2E2F50000F5E2E2E2E2E2E2E2E2E2E2ECECECECECECE2E2E2E2E2F5F5F5
310
F5F5F5F5F5F5F5F5F5F5F5F5F5F5F5F5F5F5E2E2E2E2E2E2E2E2E2E2E2E2E2E2E2E2E2E2E2E2E2E2E2E2E2F5E2E2E2E2E2E2E2E2E2E2F5E2E2E2E2E2E2E2E2E2E2F5E2E2E2E2E2E2F50000F5E2E2E2E2E2E2E2E2E2E2ECECECECECECECE2E2E2E2F5F5F5F5F5F5F5F5F5F5F5F5F5F5F5F5F5F5F5F5F5E2E2E2E2E2E2E2E2E2
310
E2E2E2E2E2E2E2E2E2E2E2E2E2E2E2E2F5E2E2E2E2E2E2E2E2E2E2F5E2E2E2E2E2E2E2E2E2E2F5E2E2E2E2E2E2F50000F5E2F5E2E2E2E2E2E2E2ECECECECECECECECE2E2E2E2F5F5F5F5F5F5F5F5F5F5F5F5F5F5F5F5E2E2E2E2E2E2E2E2E2E2E2E2E2E2E2E2E2E2E2E2E2E2E2E2E2E2E2E2E2E2F5F5F5F5F5F5F5F5F5F5F5
310
F5F5F5F5F5F5F5F5F5F5F5F5E2E2E2E2F5E2F50000F5E2F5E2E2E2E2E2E2E2ECECECECECECECECECE2E2E2F5F5F5F5F5F5F5F5F5F5F5F5F5F5F5F5E2E2E2E2E2E2E2E2E2E2E2E2E2E2E2E2E2E2E2E2E2E2E2E2E2E2E2E2E2E2F5E2E2E2E2E2E2E2E2E2E2E2E2E2E2E2E2E2E2E2E2E2F5E2E2E2E2F5E2F50000F5E2F5E2E2E2
310
E2E2E2ECECECECECECECECECECE2E2E2F5F5F5F5F5F5F5F5F5F5F5F5F5F5F5F5E2E2E2E2E2E2E2E2E2E2E2E2E2E2E2E2E2E2E2E2E2E2E2E2E2E2E2E2E2E2F5E2E2F5F5F5F5F5F5F5E2F5F5F5F5F5F5F5F5E2E2E2F5E2E2E2E2F5E2F50000F5E2F5E2E2E2E2E2ECECECECECECECECECECECECE2E2F5F5F5F5F5F5F5F5F5F5F5
310
F5F5F5F5F5F5E2E2E2E2E2E2E2E2E2E2E2E2E2E2E2E2E2E2E2E2E2E2E2E2E2E2E2E2E2F5E2E2F5F5F5F5F5F5F5E2F5F5F5F5F5F5F5F5E2E2E2F5E2E2E2E2F5E2F50000F5E2F5E2E2E2E2E2ECECECECECECECECECECECECE2E2F5F5F5F5F5F5F5F5F5F5F5F5F5F5F5F5F5E2E2E2E2E2E2E2E2E2E2E2E2E2E2E2E2E2E2E2E2E2
310
E2E2E2E2E2E2E2E2F5E2E2E2E2E2E2E2E2E2E2E2E2E2E2E2E2E2E2E2E2E2F5E2E2E2E2F5E2F50000F5E2F5E2E2E2E2ECECECECECECECF5ECECECECECECE2E2E2E2E2E2E2E2E2E2E2E2E2E2E2E2E2E2E2E2E2E2E2E2E2E2E2E2E2E2E2E2E2E2E2E2E2E2E2E2E2E2E2E2E2E2E2F5E2E2E2E2E2E2E2E2E2E2E2E2E2E2E2E2E2E2
310
E2E2E2F5E2E2E2E2F5E2F50000F5E2F5E2E2E2E2E2E2E2E2E2E2E2F5F5F5F5F5F5F5F5F5F5F5F5F5F5F5F5F5F5F5F5F5F5F5F5F5F5F5F5F5F5F5F5F5F5F5F5F5F5F5F5F5F5F5F5F5F5F5F5F5F5F5F5F5F5F5F5F5F5F5F5F5F5F5F5F5F5F5F5F5F5F5F5F5F5F5F5F5E2E2E2E2F5E2F50000F5E2F5E2E2E2E2E2E2E2E2E2E2E2
310
E2E2E2E2E2E2E2E2E2E2E2E2E2E2E2E2E2E2E2E2E2E2E2E2E2E2E2E2E2E2E2E2E2E2E2E2E2E2E2E2E2E2E2E2E2E2E2E2E2E2E2E2E2E2E2E2E2E2E2E2E2E2E2E2E2E2E2E2E2E2E2E2E2E2E2E2E2E2E2E2E2F5E2F50000F5E2F5F5F5F5F5F5F5F5E2E2E2E2E2E2E2E2F5F5F5F5F5F5F5F5F5F5F5F5F5F5F5E2E2E2E2E2E2E2E2
310
E2F5F5F5F5F5F5F5F5F5F5F5F5F5F5E2E2E2E2E2E2E2E2E2F5F5F5F5F5F5F5F5F5F5F5F5F5F5F5E2E2E2E2E2E2E2E2F5F5F5F5F5F5F5F5E2F5F7BFF5E2E2E2E2E2E2E2E2E2E2E2E2E2E2E2E2E2E2E2E2E2E2E2E2E2E2E2E2E2E2E2E2E2E2E2E2E2E2E2E2E2E2E2E2E2E2E2E2E2E2E2E2E2E2E2E2E2E2E2E2E2E2E2E2E2E2E2
310
E2E2E2E2E2E2E2E2E2E2E2E2E2E2E2E2E2E2E2E2E2E2E2E2E2E2E2E2E2F57F0BF5E2E2E2E2E2E2E2E2E2E2E2E2E2E2E2E2E2E2E2E2E2E2E2E2E2E2E2E2E2E2E2E2E2E2E2E2E2E2E2E2E2E2E2E2E2E2E2E2E2E2E2E2E2E2E2E2E2E2E2E2E2E2E2E2E2E2E2E2E2E2E2E2E2E2E2E2E2E2E2E2E2E2E2E2E2E2E2E2E2E2E2E2E2E2
310
E2E2F5D03FF5F5F5F5F5F5F5F5F5F5F5F5F5F5F5F5F5F5F5F5F5F5F5F5F5F5F5F5F5F5F5F5F5F5F5F5F5F5F5F5F5F5F5F5F5F5F5F5F5F5F5F5F5F5F5F5F5F5F5F5F5F5F5F5F5F5F5F5F5F5F5F5F5F5F5F5F5F5F5F5F5F5F5F5F5F5F5F5F5F5F5F5F5F5F5F5F5F55B3FEFEFEFEFEFEFEFEFEFEFEFEFEFEFEFEFEFEFEFEFEFEF
310
EFEFEFEFEFEFEFEFEFEFEFEFEFEFEFEFEFEFEFEFEFEFEFEFEFEFEFEFEFEFEFEFEFEFEFEFEFEFEFEFEFEFEFEFEFEFEFEFEFEFEFEFEFEFEFEFEFEFEFEFEFEFEFEFEFEFEFEFEFEFEFEFEFEFEFEFFABF
  0
XRECORD
  5
73C3
102
{ACAD_REACTORS
330
6DF6
102
}
330
6DF6
100
AcDbXrecord
280
     1
102
MATERIAL
148
0.0
149
0.0
149
0.0
 93
        0
 94
      127
282
     0
 72
     0
 77
     0
171
     0
175
     0
179
     0
273
     0
  0
XRECORD
  5
6DF8
102
{ACAD_REACTORS
330
6DF6
102
}
330
6DF6
100
AcDbXrecord
280
     1
270
     1
271
     1
  0
XRECORD
  5
6DF7
102
{ACAD_REACTORS
330
6DF6
102
}
330
6DF6
100
AcDbXrecord
280
     1
270
     1
271
     1
  0
XRECORD
  5
6DFB
102
{ACAD_REACTORS
330
6DF6
102
}
330
6DF6
100
AcDbXrecord
280
     1
270
     1
271
     1
  0
XRECORD
  5
6DFA
102
{ACAD_REACTORS
330
6DF6
102
}
330
6DF6
100
AcDbXrecord
280
     1
270
     1
271
     1
  0
XRECORD
  5
6DFC
102
{ACAD_REACTORS
330
6DF6
102
}
330
6DF6
100
AcDbXrecord
280
     1
270
     1
271
     1
  0
XRECORD
  5
6DF9
102
{ACAD_REACTORS
330
6DF6
102
}
330
6DF6
100
AcDbXrecord
280
     1
270
     1
271
     1
  0
XRECORD
  5
73C2
102
{ACAD_REACTORS
330
6DEE
102
}
330
6DEE
100
AcDbXrecord
280
     1
102
MATERIAL
148
0.0
149
0.0
149
0.0
 93
        0
 94
      127
282
     0
 72
     0
 77
     0
171
     0
175
     0
179
     0
273
     0
  0
XRECORD
  5
6DF0
102
{ACAD_REACTORS
330
6DEE
102
}
330
6DEE
100
AcDbXrecord
280
     1
270
     1
271
     1
  0
XRECORD
  5
6DEF
102
{ACAD_REACTORS
330
6DEE
102
}
330
6DEE
100
AcDbXrecord
280
     1
270
     1
271
     1
  0
XRECORD
  5
6DF3
102
{ACAD_REACTORS
330
6DEE
102
}
330
6DEE
100
AcDbXrecord
280
     1
270
     1
271
     1
  0
XRECORD
  5
6DF2
102
{ACAD_REACTORS
330
6DEE
102
}
330
6DEE
100
AcDbXrecord
280
     1
270
     1
271
     1
  0
XRECORD
  5
6DF4
102
{ACAD_REACTORS
330
6DEE
102
}
330
6DEE
100
AcDbXrecord
280
     1
270
     1
271
     1
  0
XRECORD
  5
6DF1
102
{ACAD_REACTORS
330
6DEE
102
}
330
6DEE
100
AcDbXrecord
280
     1
270
     1
271
     1
  0
XRECORD
  5
73C4
102
{ACAD_REACTORS
330
6DFE
102
}
330
6DFE
100
AcDbXrecord
280
     1
102
MATERIAL
148
0.0
149
0.0
149
0.0
 93
        0
 94
      127
282
     0
 72
     0
 77
     0
171
     0
175
     0
179
     0
273
     0
  0
XRECORD
  5
6E00
102
{ACAD_REACTORS
330
6DFE
102
}
330
6DFE
100
AcDbXrecord
280
     1
270
     1
271
     1
  0
XRECORD
  5
6DFF
102
{ACAD_REACTORS
330
6DFE
102
}
330
6DFE
100
AcDbXrecord
280
     1
270
     1
271
     1
  0
XRECORD
  5
6E03
102
{ACAD_REACTORS
330
6DFE
102
}
330
6DFE
100
AcDbXrecord
280
     1
270
     1
271
     1
  0
XRECORD
  5
6E02
102
{ACAD_REACTORS
330
6DFE
102
}
330
6DFE
100
AcDbXrecord
280
     1
270
     1
271
     1
  0
XRECORD
  5
6E04
102
{ACAD_REACTORS
330
6DFE
102
}
330
6DFE
100
AcDbXrecord
280
     1
270
     1
271
     1
  0
XRECORD
  5
6E01
102
{ACAD_REACTORS
330
6DFE
102
}
330
6DFE
100
AcDbXrecord
280
     1
270
     1
271
     1
  0
XRECORD
  5
78C9
102
{ACAD_REACTORS
330
78C8
102
}
330
78C8
100
AcDbXrecord
280
     1
102
SHADEPLOT
 70
     0
102
SHADEPLOTRESLEVEL
 70
     2
102
SHADEPLOTCUSTOMDPI
 70
   300
  0
XRECORD
  5
78CB
102
{ACAD_REACTORS
330
78CA
102
}
330
78CA
100
AcDbXrecord
280
     1
102
SHADEPLOT
 70
     0
102
SHADEPLOTRESLEVEL
 70
     2
102
SHADEPLOTCUSTOMDPI
 70
   300
  0
ACAD_PROXY_OBJECT
  5
73A6
102
{ACAD_REACTORS
330
6F1C
102
}
330
6F1C
100
AcDbProxyObject
 90
      499
 91
      514
 95
   983063
 70
     0
 93
     5304
310
40D054060020000020000003200101A000080002A5058000000C10000000000000006101010000000000003E0FC000000000000F83F0000000000003E0FC000000000000F83F000000000000049000000000000001240419019018000000C1003FBFFFFFE0000000000003C8FD029018000000C1003FBFFFFFE00000000000
310
03C8FD049018000000C1003FBFFFFFE0000000000003C8FD089018000000C1003FBFFFFFE0000000000003C8FD109018000000C1003FBFFFFFE0000000000003C8FD209018000000C1003FBFFFFFE0000000000003C8FD01405075F5449544C450041501A8000000C800406800020000A94160000003040000000000000012
310
40404000000000000F83F0000000000003E0FC000000000000F83F0000000000003E0FC0000000000001240000000000000049010640640600000030400FEFFFFFF8000000000000F23F40A40600000030400FEFFFFFF8000000000000F23F41240600000030400FEFFFFFF8000000000000F23F42240600000030400FEFFF
310
FFF8000000000000F23F44240600000030400FEFFFFFF8000000000000F23F48240600000030400FEFFFFFF8000000000000F23F409014217D2115051115480105406A0000003200101A000080002A5028000000C10000000000000004901010000000000003E0FC000000000000F83F0000000000003E0FC000000000000F
310
83F000000000000049000000000000001240419019018000000C1003FBFFFFFE0000000000003C8FD029018000000C1003FBFFFFFE0000000000003C8FD049018000000C1003FBFFFFFE0000000000003C8FD089018000000C1003FBFFFFFE0000000000003C8FD109018000000C1003FBFFFFFE0000000000003C8FD20901
310
8000000C1003FBFFFFFE0000000000003C8FD03409065F444154410000
340
11
340
0
340
0
340
0
340
0
340
0
340
0
340
11
340
0
340
0
340
0
340
0
340
0
340
0
340
11
340
0
340
0
340
0
340
0
340
0
340
0
 94
        0
1001
ACAD
1000
AcRTDxfName
1000
CELLSTYLEMAP
1000
AcRTDxfName
1000
CELLSTYLEMAP
1000
AcRTDxfName
1000
CELLSTYLEMAP
1000
AcRTDxfName
1000
CELLSTYLEMAP
  0
XRECORD
  5
73C5
102
{ACAD_REACTORS
330
6F1C
102
}
330
6F1C
100
AcDbXrecord
280
     1
102
ACAD_ROUNDTRIP_PRE2007_TABLESTYLE
 90
      512
 91
        0
  1

 92
      512
 93
        0
  2

 94
      512
 95
        0
  3

  0
ENDSEC
  0
EOF
