  0
SECTION
  2
HEADER
  9
$ACADVER
  1
AC1015
  9
$ACADMAINTVER
 70
    20
  9
$DWGCODEPAGE
  3
ANSI_1252
  9
$INSBASE
 10
0.0
 20
0.0
 30
0.0
  9
$EXTMIN
 10
-0.0000008680717656
 20
0.0000002788497113
 30
0.0
  9
$EXTMAX
 10
353.9999991319283
 20
482.0000002788496
 30
0.0
  9
$LIMMIN
 10
0.0
 20
0.0000002788497113
  9
$LIMMAX
 10
353.9999991319283
 20
482.0000002788496
  9
$ORTHOMODE
 70
     0
  9
$REGENMODE
 70
     1
  9
$FILLMODE
 70
     1
  9
$QTEXTMODE
 70
     0
  9
$MIRRTEXT
 70
     0
  9
$LTSCALE
 40
1.0
  9
$ATTMODE
 70
     1
  9
$TEXTSIZE
 40
5.0
  9
$TRACEWID
 40
1.0
  9
$TEXTSTYLE
  7
Arial-Bold
  9
$CLAYER
  8
APL Border
  9
$CELTYPE
  6
ByLayer
  9
$CECOLOR
 62
   256
  9
$CELTSCALE
 40
1.0
  9
$DISPSILH
 70
     0
  9
$DIMSCALE
 40
1.0
  9
$DIMASZ
 40
4.0
  9
$DIMEXO
 40
0.625
  9
$DIMDLI
 40
3.75
  9
$DIMRND
 40
0.0
  9
$DIMDLE
 40
0.0
  9
$DIMEXE
 40
1.25
  9
$DIMTP
 40
0.0
  9
$DIMTM
 40
0.0
  9
$DIMTXT
 40
2.5
  9
$DIMCEN
 40
2.5
  9
$DIMTSZ
 40
0.0
  9
$DIMTOL
 70
     0
  9
$DIMLIM
 70
     0
  9
$DIMTIH
 70
     0
  9
$DIMTOH
 70
     0
  9
$DIMSE1
 70
     0
  9
$DIMSE2
 70
     0
  9
$DIMTAD
 70
     1
  9
$DIMZIN
 70
     8
  9
$DIMBLK
  1

  9
$DIMASO
 70
     1
  9
$DIMSHO
 70
     1
  9
$DIMPOST
  1

  9
$DIMAPOST
  1

  9
$DIMALT
 70
     0
  9
$DIMALTD
 70
     3
  9
$DIMALTF
 40
0.03937007874016
  9
$DIMLFAC
 40
1.0
  9
$DIMTOFL
 70
     1
  9
$DIMTVP
 40
0.0
  9
$DIMTIX
 70
     0
  9
$DIMSOXD
 70
     0
  9
$DIMSAH
 70
     0
  9
$DIMBLK1
  1

  9
$DIMBLK2
  1

  9
$DIMSTYLE
  2
ISO-25
  9
$DIMCLRD
 70
     0
  9
$DIMCLRE
 70
     0
  9
$DIMCLRT
 70
     0
  9
$DIMTFAC
 40
1.0
  9
$DIMGAP
 40
0.625
  9
$DIMJUST
 70
     0
  9
$DIMSD1
 70
     0
  9
$DIMSD2
 70
     0
  9
$DIMTOLJ
 70
     0
  9
$DIMTZIN
 70
     8
  9
$DIMALTZ
 70
     0
  9
$DIMALTTZ
 70
     0
  9
$DIMUPT
 70
     0
  9
$DIMDEC
 70
     2
  9
$DIMTDEC
 70
     2
  9
$DIMALTU
 70
     2
  9
$DIMALTTD
 70
     3
  9
$DIMTXSTY
  7
Standard
  9
$DIMAUNIT
 70
     0
  9
$DIMADEC
 70
     0
  9
$DIMALTRND
 40
0.0
  9
$DIMAZIN
 70
     0
  9
$DIMDSEP
 70
    44
  9
$DIMATFIT
 70
     3
  9
$DIMFRAC
 70
     0
  9
$DIMLDRBLK
  1

  9
$DIMLUNIT
 70
     2
  9
$DIMLWD
 70
    -2
  9
$DIMLWE
 70
    -2
  9
$DIMTMOVE
 70
     0
  9
$LUNITS
 70
     2
  9
$LUPREC
 70
     4
  9
$SKETCHINC
 40
1.0
  9
$FILLETRAD
 40
10.0
  9
$AUNITS
 70
     0
  9
$AUPREC
 70
     0
  9
$MENU
  1
.
  9
$ELEVATION
 40
0.0
  9
$PELEVATION
 40
0.0
  9
$THICKNESS
 40
0.0
  9
$LIMCHECK
 70
     0
  9
$CHAMFERA
 40
10.0
  9
$CHAMFERB
 40
10.0
  9
$CHAMFERC
 40
20.0
  9
$CHAMFERD
 40
0.0
  9
$SKPOLY
 70
     0
  9
$TDCREATE
 40
2452417.391545024
  9
$TDUCREATE
 40
2452416.891545023
  9
$TDUPDATE
 40
2455660.582096458
  9
$TDUUPDATE
 40
2455660.082096458
  9
$TDINDWG
 40
0.9220953009
  9
$TDUSRTIMER
 40
0.9220953009
  9
$USRTIMER
 70
     1
  9
$ANGBASE
 50
0.0
  9
$ANGDIR
 70
     0
  9
$PDMODE
 70
     3
  9
$PDSIZE
 40
2.0
  9
$PLINEWID
 40
0.0
  9
$SPLFRAME
 70
     0
  9
$SPLINETYPE
 70
     6
  9
$SPLINESEGS
 70
     8
  9
$HANDSEED
  5
4105
  9
$SURFTAB1
 70
     6
  9
$SURFTAB2
 70
     6
  9
$SURFTYPE
 70
     6
  9
$SURFU
 70
     6
  9
$SURFV
 70
     6
  9
$UCSBASE
  2

  9
$UCSNAME
  2

  9
$UCSORG
 10
0.0
 20
0.0
 30
0.0
  9
$UCSXDIR
 10
1.0
 20
0.0
 30
0.0
  9
$UCSYDIR
 10
0.0
 20
1.0
 30
0.0
  9
$UCSORTHOREF
  2

  9
$UCSORTHOVIEW
 70
     0
  9
$UCSORGTOP
 10
0.0
 20
0.0
 30
0.0
  9
$UCSORGBOTTOM
 10
0.0
 20
0.0
 30
0.0
  9
$UCSORGLEFT
 10
0.0
 20
0.0
 30
0.0
  9
$UCSORGRIGHT
 10
0.0
 20
0.0
 30
0.0
  9
$UCSORGFRONT
 10
0.0
 20
0.0
 30
0.0
  9
$UCSORGBACK
 10
0.0
 20
0.0
 30
0.0
  9
$PUCSBASE
  2

  9
$PUCSNAME
  2

  9
$PUCSORG
 10
0.0
 20
0.0
 30
0.0
  9
$PUCSXDIR
 10
1.0
 20
0.0
 30
0.0
  9
$PUCSYDIR
 10
0.0
 20
1.0
 30
0.0
  9
$PUCSORTHOREF
  2

  9
$PUCSORTHOVIEW
 70
     0
  9
$PUCSORGTOP
 10
0.0
 20
0.0
 30
0.0
  9
$PUCSORGBOTTOM
 10
0.0
 20
0.0
 30
0.0
  9
$PUCSORGLEFT
 10
0.0
 20
0.0
 30
0.0
  9
$PUCSORGRIGHT
 10
0.0
 20
0.0
 30
0.0
  9
$PUCSORGFRONT
 10
0.0
 20
0.0
 30
0.0
  9
$PUCSORGBACK
 10
0.0
 20
0.0
 30
0.0
  9
$USERI1
 70
     0
  9
$USERI2
 70
     0
  9
$USERI3
 70
     0
  9
$USERI4
 70
     0
  9
$USERI5
 70
     0
  9
$USERR1
 40
0.0
  9
$USERR2
 40
0.0
  9
$USERR3
 40
0.0
  9
$USERR4
 40
0.0
  9
$USERR5
 40
0.0
  9
$WORLDVIEW
 70
     1
  9
$SHADEDGE
 70
     3
  9
$SHADEDIF
 70
    70
  9
$TILEMODE
 70
     0
  9
$MAXACTVP
 70
    64
  9
$PINSBASE
 10
0.0
 20
0.0
 30
0.0
  9
$PLIMCHECK
 70
     0
  9
$PEXTMIN
 10
11.46014251777035
 20
3.285575844812797
 30
-0.0015258207003583
  9
$PEXTMAX
 10
189.6073672775216
 20
282.2033753668244
 30
0.0000000349246037
  9
$PLIMMIN
 10
-5.027083396911621
 20
-5.408084392547607
  9
$PLIMMAX
 10
204.8615732192993
 20
291.6449246406555
  9
$UNITMODE
 70
     0
  9
$VISRETAIN
 70
     1
  9
$PLINEGEN
 70
     0
  9
$PSLTSCALE
 70
     1
  9
$TREEDEPTH
 70
  3020
  9
$CMLSTYLE
  2
Standard
  9
$CMLJUST
 70
     0
  9
$CMLSCALE
 40
20.0
  9
$PROXYGRAPHICS
 70
     1
  9
$MEASUREMENT
 70
     1
  9
$CELWEIGHT
370
    -1
  9
$ENDCAPS
280
     0
  9
$JOINSTYLE
280
     0
  9
$LWDISPLAY
290
     0
  9
$INSUNITS
 70
     4
  9
$HYPERLINKBASE
  1

  9
$STYLESHEET
  1

  9
$XEDIT
290
     1
  9
$CEPSNTYPE
380
     0
  9
$PSTYLEMODE
290
     1
  9
$FINGERPRINTGUID
  2
{D079D194-C9C2-11D5-B123-005004D48FB5}
  9
$VERSIONGUID
  2
{1DD07E99-E1C0-4D30-8B72-EAE9FF652C1F}
  9
$EXTNAMES
290
     1
  9
$PSVPSCALE
 40
0.0
  9
$OLESTARTUP
290
     0
  0
ENDSEC
  0
SECTION
  2
CLASSES
  0
CLASS
  1
ACDBDICTIONARYWDFLT
  2
AcDbDictionaryWithDefault
  3
ObjectDBX Classes
 90
        0
280
     0
281
     0
  0
CLASS
  1
ACDBPLACEHOLDER
  2
AcDbPlaceHolder
  3
ObjectDBX Classes
 90
        0
280
     0
281
     0
  0
CLASS
  1
LAYOUT
  2
AcDbLayout
  3
ObjectDBX Classes
 90
        0
280
     0
281
     0
  0
CLASS
  1
DICTIONARYVAR
  2
AcDbDictionaryVar
  3
ObjectDBX Classes
 90
        0
280
     0
281
     0
  0
CLASS
  1
PLOTSETTINGS
  2
AcDbPlotSettings
  3
ObjectDBX Classes
 90
    32768
280
     0
281
     0
  0
CLASS
  1
MATERIAL
  2
AcDbMaterial
  3
ObjectDBX Classes
 90
        0
280
     0
281
     0
  0
CLASS
  1
VISUALSTYLE
  2
AcDbVisualStyle
  3
ObjectDBX Classes
 90
     4095
280
     0
281
     0
  0
CLASS
  1
TABLESTYLE
  2
AcDbTableStyle
  3
ObjectDBX Classes
 90
     2047
280
     0
281
     0
  0
CLASS
  1
SCALE
  2
AcDbScale
  3
ObjectDBX Classes
 90
     1153
280
     0
281
     0
  0
CLASS
  1
MLEADERSTYLE
  2
AcDbMLeaderStyle
  3
ACDB_MLEADERSTYLE_CLASS
 90
     4095
280
     0
281
     0
  0
CLASS
  1
EXACTERMXREFMAP
  2
ExAcTermXrefMap
  3
EXAC_SERVICE
 90
    33793
280
     0
281
     0
  0
CLASS
  1
NPOCOLLECTION
  2
AcDbImpNonPersistentObjectsCollection
  3
ObjectDBX Classes
 90
    33921
280
     0
281
     0
  0
CLASS
  1
EXACXREFPANELOBJECT
  2
ExAcXREFPanelObject
  3
EXAC_ESW
 90
    33793
280
     0
281
     0
  0
CLASS
  1
CELLSTYLEMAP
  2
AcDbCellStyleMap
  3
ObjectDBX Classes
 90
     1152
280
     0
281
     0
  0
CLASS
  1
SORTENTSTABLE
  2
AcDbSortentsTable
  3
ObjectDBX Classes
 90
        0
280
     0
281
     0
  0
CLASS
  1
ACAD_EVALUATION_GRAPH
  2
AcDbEvalGraph
  3
ObjectDBX Classes
 90
    33921
280
     0
281
     0
  0
CLASS
  1
ACAECUSTOBJ
  2
AcAeEditorObj
  3
AcAeEditorObj
 90
    33792
280
     0
281
     0
  0
CLASS
  1
ACDB_DYNAMICBLOCKPURGEPREVENTER_VERSION
  2
AcDbDynamicBlockPurgePreventer
  3
ObjectDBX Classes
 90
    33921
280
     0
281
     0
  0
ENDSEC
  0
SECTION
  2
TABLES
  0
TABLE
  2
VPORT
  5
8
102
{ACAD_XDICTIONARY
360
35D0
102
}
330
0
100
AcDbSymbolTable
 70
     1
  0
VPORT
  5
39CB
330
8
100
AcDbSymbolTableRecord
100
AcDbViewportTableRecord
  2
*Active
 70
     0
 10
0.0
 20
0.0
 11
1.0
 21
1.0
 12
176.9956993215053
 22
241.0000012616685
 13
0.0
 23
0.0
 14
10.0
 24
10.0
 15
10.0
 25
10.0
 16
0.0
 26
0.0
 36
1.0
 17
0.0
 27
0.0
 37
0.0
 40
486.0631382135375
 41
2.243016759776535
 42
50.0
 43
0.0
 44
0.0
 50
0.0
 51
0.0
 71
     0
 72
 20000
 73
     1
 74
     3
 75
     0
 76
     0
 77
     0
 78
     1
281
     0
 65
     1
110
0.0
120
0.0
130
0.0
111
1.0
121
0.0
131
0.0
112
0.0
122
1.0
132
0.0
 79
     0
146
0.0
  0
ENDTAB
  0
TABLE
  2
LTYPE
  5
5
330
0
100
AcDbSymbolTable
 70
     2
  0
LTYPE
  5
14
330
5
100
AcDbSymbolTableRecord
100
AcDbLinetypeTableRecord
  2
ByBlock
 70
     0
  3

 72
    65
 73
     0
 40
0.0
  0
LTYPE
  5
15
330
5
100
AcDbSymbolTableRecord
100
AcDbLinetypeTableRecord
  2
ByLayer
 70
     0
  3

 72
    65
 73
     0
 40
0.0
  0
LTYPE
  5
16
330
5
100
AcDbSymbolTableRecord
100
AcDbLinetypeTableRecord
  2
Continuous
 70
     0
  3
Solid line
 72
    65
 73
     0
 40
0.0
  0
LTYPE
  5
2F80
330
5
100
AcDbSymbolTableRecord
100
AcDbLinetypeTableRecord
  2
DASHED
 70
     0
  3
_ _ _ _ _ _ _ _ _ _ _ _ _ _ _ _
 72
    65
 73
     2
 40
0.2
 49
0.1
 74
     0
 49
-0.1
 74
     0
  0
ENDTAB
  0
TABLE
  2
LAYER
  5
2
102
{ACAD_XDICTIONARY
360
3570
102
}
330
0
100
AcDbSymbolTable
 70
     6
  0
LAYER
  5
10
102
{ACAD_XDICTIONARY
360
359C
102
}
330
2
100
AcDbSymbolTableRecord
100
AcDbLayerTableRecord
  2
0
 70
     4
 62
     7
  6
Continuous
290
     0
370
    -3
390
F
  0
LAYER
  5
2B
102
{ACAD_XDICTIONARY
360
359E
102
}
330
2
100
AcDbSymbolTableRecord
100
AcDbLayerTableRecord
  2
APL Joinery
 70
     0
 62
     2
  6
Continuous
370
    -3
390
F
  0
LAYER
  5
75
102
{ACAD_XDICTIONARY
360
35A0
102
}
330
2
100
AcDbSymbolTableRecord
100
AcDbLayerTableRecord
  2
APL Notes
 70
     0
 62
     7
  6
Continuous
370
    -3
390
F
  0
LAYER
  5
2C09
102
{ACAD_XDICTIONARY
360
35A2
102
}
330
2
100
AcDbSymbolTableRecord
100
AcDbLayerTableRecord
  2
APL Border
 70
     0
 62
     7
  6
Continuous
370
    -3
390
F
  0
LAYER
  5
3557
102
{ACAD_XDICTIONARY
360
35AA
102
}
330
2
100
AcDbSymbolTableRecord
100
AcDbLayerTableRecord
  2
APL Hatch
 70
     0
 62
   253
  6
Continuous
370
    -3
390
F
  0
ENDTAB
  0
TABLE
  2
STYLE
  5
3
330
0
100
AcDbSymbolTable
 70
     4
  0
STYLE
  5
11
330
3
100
AcDbSymbolTableRecord
100
AcDbTextStyleTableRecord
  2
Standard
 70
     0
 40
0.0
 41
1.0
 50
0.0
 71
     0
 42
3.0
  3
txt.shx
  4

  0
STYLE
  5
2830
330
3
100
AcDbSymbolTableRecord
100
AcDbTextStyleTableRecord
  2
Arial-Bold
 70
     0
 40
0.0
 41
1.0
 50
0.0
 71
     0
 42
5.0
  3
ARIALBD.TTF
  4

1001
ACAD
1000
Arial
1071
 33554466
  0
STYLE
  5
31CB
330
3
100
AcDbSymbolTableRecord
100
AcDbTextStyleTableRecord
  2
Arial-Regular
 70
     0
 40
0.0
 41
1.0
 50
0.0
 71
     0
 42
2.5
  3
ARIAL.TTF
  4

1001
ACAD
1000
Arial
1071
       34
  0
ENDTAB
  0
TABLE
  2
VIEW
  5
6
330
0
100
AcDbSymbolTable
 70
     0
  0
ENDTAB
  0
TABLE
  2
UCS
  5
7
330
0
100
AcDbSymbolTable
 70
     0
  0
ENDTAB
  0
TABLE
  2
APPID
  5
9
330
0
100
AcDbSymbolTable
 70
    13
  0
APPID
  5
12
330
9
100
AcDbSymbolTableRecord
100
AcDbRegAppTableRecord
  2
ACAD
 70
     0
  0
APPID
  5
34E9
330
9
100
AcDbSymbolTableRecord
100
AcDbRegAppTableRecord
  2
DCO15
 70
     0
  0
APPID
  5
354D
330
9
100
AcDbSymbolTableRecord
100
AcDbRegAppTableRecord
  2
ACAD_MLEADERVER
 70
     0
  0
APPID
  5
3894
330
9
100
AcDbSymbolTableRecord
100
AcDbRegAppTableRecord
  2
ACAD_PSEXT
 70
     0
  0
APPID
  5
39CC
330
9
100
AcDbSymbolTableRecord
100
AcDbRegAppTableRecord
  2
ACAD_DIMASSOC_CALC_DIMLFAC
 70
     0
  0
APPID
  5
39CD
330
9
100
AcDbSymbolTableRecord
100
AcDbRegAppTableRecord
  2
ACAD_DIMASSOC_DIMLFAC
 70
     0
  0
APPID
  5
39CE
330
9
100
AcDbSymbolTableRecord
100
AcDbRegAppTableRecord
  2
ACAD_DIMASSOC_OVERRIDDEN_DIMLFAC
 70
     0
  0
APPID
  5
3A67
330
9
100
AcDbSymbolTableRecord
100
AcDbRegAppTableRecord
  2
ACAUTHENVIRON
 70
     0
  0
APPID
  5
3A68
330
9
100
AcDbSymbolTableRecord
100
AcDbRegAppTableRecord
  2
AcDbDynamicBlockTrueName
 70
     0
  0
APPID
  5
3A69
330
9
100
AcDbSymbolTableRecord
100
AcDbRegAppTableRecord
  2
AcDbDynamicBlockGUID
 70
     0
  0
APPID
  5
3A6A
330
9
100
AcDbSymbolTableRecord
100
AcDbRegAppTableRecord
  2
AcDbBlockRepETag
 70
     0
  0
APPID
  5
3A6B
330
9
100
AcDbSymbolTableRecord
100
AcDbRegAppTableRecord
  2
AcDbBlockRepBTag
 70
     0
  0
APPID
  5
3A6C
330
9
100
AcDbSymbolTableRecord
100
AcDbRegAppTableRecord
  2
ACAD_EXEMPT_FROM_CAD_STANDARDS
 70
     0
  0
ENDTAB
  0
TABLE
  2
DIMSTYLE
  5
A
330
0
100
AcDbSymbolTable
 70
     2
100
AcDbDimStyleTable
 71
     1
340
27
  0
DIMSTYLE
105
27
330
A
100
AcDbSymbolTableRecord
100
AcDbDimStyleTableRecord
  2
ISO-25
 70
     0
 41
4.0
 42
0.625
 43
3.75
 44
1.25
 73
     0
 74
     0
 77
     1
 78
     8
140
2.5
141
2.5
143
0.03937007874016
147
0.625
171
     3
172
     1
271
     2
272
     2
274
     3
278
    44
283
     0
284
     8
340
11
  0
ENDTAB
  0
TABLE
  2
BLOCK_RECORD
  5
1
330
0
100
AcDbSymbolTable
 70
    31
  0
BLOCK_RECORD
  5
1F
102
{ACAD_XDICTIONARY
360
365E
102
}
330
1
100
AcDbSymbolTableRecord
100
AcDbBlockTableRecord
  2
*Model_Space
340
22
  0
BLOCK_RECORD
  5
318C
330
1
100
AcDbSymbolTableRecord
100
AcDbBlockTableRecord
  2
*Paper_Space
340
318D
  0
BLOCK_RECORD
  5
2691
330
1
100
AcDbSymbolTableRecord
100
AcDbBlockTableRecord
  2
6Glass
340
0
102
{BLKREFS
331
3079
331
36E0
331
36E1
102
}
  0
BLOCK_RECORD
  5
269A
330
1
100
AcDbSymbolTableRecord
100
AcDbBlockTableRecord
  2
9010312l
340
0
102
{BLKREFS
331
307C
331
3BEF
102
}
1001
ACAD
1000
DesignCenter Data
1002
{
1070
     1
1070
     4
1002
}
  0
BLOCK_RECORD
  5
269F
330
1
100
AcDbSymbolTableRecord
100
AcDbBlockTableRecord
  2
9010260R
340
0
102
{BLKREFS
331
307B
102
}
1001
ACAD
1000
DesignCenter Data
1002
{
1070
     1
1070
     4
1002
}
  0
BLOCK_RECORD
  5
26A8
102
{ACAD_XDICTIONARY
360
3CD5
102
}
330
1
100
AcDbSymbolTableRecord
100
AcDbBlockTableRecord
  2
08001
340
0
102
{BLKREFS
331
26FE
331
2913
102
}
1001
ACAD
1000
DesignCenter Data
1002
{
1070
     1
1070
     4
1002
}
  0
BLOCK_RECORD
  5
26B8
330
1
100
AcDbSymbolTableRecord
100
AcDbBlockTableRecord
  2
08022
340
0
102
{BLKREFS
331
307A
102
}
1001
ACAD
1000
DesignCenter Data
1002
{
1070
     1
1070
     4
1002
}
  0
BLOCK_RECORD
  5
26EC
330
1
100
AcDbSymbolTableRecord
100
AcDbBlockTableRecord
  2
9010317
340
0
102
{BLKREFS
331
2700
331
2912
102
}
1001
ACAD
1000
DesignCenter Data
1002
{
1070
     1
1070
     4
1002
}
  0
BLOCK_RECORD
  5
26F6
330
1
100
AcDbSymbolTableRecord
100
AcDbBlockTableRecord
  2
19mmliner
340
0
102
{BLKREFS
331
281C
331
2914
102
}
  0
BLOCK_RECORD
  5
270B
330
1
100
AcDbSymbolTableRecord
100
AcDbBlockTableRecord
  2
08025
340
0
102
{BLKREFS
331
2711
102
}
1001
ACAD
1000
DesignCenter Data
1002
{
1070
     1
1070
     4
1002
}
  0
BLOCK_RECORD
  5
3076
330
1
100
AcDbSymbolTableRecord
100
AcDbBlockTableRecord
  2
08022glaze
340
0
310
28000000200000002000000001000800000000000004000000000000000000000000000000000000000000004000000080000000FF000000002000004020000080200000FF200000004000004040000080400000FF400000006000004060000080600000FF600000008000004080000080800000FF80000000A0000040A000
310
0080A00000FFA0000000C0000040C0000080C00000FFC0000000FF000040FF000080FF0000FFFF0000000020004000200080002000FF002000002020004020200080202000FF202000004020004040200080402000FF402000006020004060200080602000FF602000008020004080200080802000FF80200000A0200040A0
310
200080A02000FFA0200000C0200040C0200080C02000FFC0200000FF200040FF200080FF2000FFFF2000000040004000400080004000FF004000002040004020400080204000FF204000004040004040400080404000FF404000006040004060400080604000FF604000008040004080400080804000FF80400000A0400040
310
A0400080A04000FFA0400000C0400040C0400080C04000FFC0400000FF400040FF400080FF4000FFFF4000000060004000600080006000FF006000002060004020600080206000FF206000004060004040600080406000FF406000006060004060600080606000FF606000008060004080600080806000FF80600000A06000
310
40A0600080A06000FFA0600000C0600040C0600080C06000FFC0600000FF600040FF600080FF6000FFFF6000000080004000800080008000FF008000002080004020800080208000FF208000004080004040800080408000FF408000006080004060800080608000FF608000008080004080800080808000FF80800000A080
310
0040A0800080A08000FFA0800000C0800040C0800080C08000FFC0800000FF800040FF800080FF8000FFFF80000000A0004000A0008000A000FF00A0000020A0004020A0008020A000FF20A0000040A0004040A0008040A000FF40A0000060A0004060A0008060A000FF60A0000080A0004080A0008080A000FF80A00000A0
310
A00040A0A00080A0A000FFA0A00000C0A00040C0A00080C0A000FFC0A00000FFA00040FFA00080FFA000FFFFA0000000C0004000C0008000C000FF00C0000020C0004020C0008020C000FF20C0000040C0004040C0008040C000FF40C0000060C0004060C0008060C000FF60C0000080C0004080C0008080C000FF80C00000
310
A0C00040A0C00080A0C000FFA0C00000C0C00040C0C00080C0C000FFC0C00000FFC00040FFC00080FFC000FFFFC0000000FF004000FF008000FF00FF00FF000020FF004020FF008020FF00FF20FF000040FF004040FF008040FF00FF40FF000060FF004060FF008060FF00FF60FF000080FF004080FF008080FF00FF80FF00
310
00A0FF0040A0FF0080A0FF00FFA0FF0000C0FF0040C0FF0080C0FF00FFC0FF0000FFFF0040FFFF0080FFFF00FFFFFF0000000000000000000000000000000000000000000000000000000000000000000000000000000000000000000000000000000000000000000000000000000000000000000000000000000000000000
310
0000000000000000000000000000000000000000000000000000000000000000000000000000FF92009200FF0000000000000000000000000000000000000000000000000000FF92009200FF0000000000000000000000000000000000000000000000000000FF92009200FF00000000000000000000000000000000000000
310
00000000000000FF92009200FF0000000000000000000000000000000000000000000000000000FF92009200920000000000000000000000000000000000000000000000929292929200920092920000000000FCFCFCFCFCFCFCFCFCFCFCFCFC92929292000000929200920092009292000000FCFCFCFCFCFCFCFCFCFCFCFC
310
0092000000000092929200920092000092000000FCFC000000000000000000FC0092929200929200FF9200920092929292000000FCFC0000000000000000FCFCFCFCFC9200920092929200920092920092000000FCFC00000000000000FCFC00FCFC929200929292929200920092929292000000FCFC000000000000FCFC00
310
00FCFC920000929292929200920092920092000000FCFC0000000000FCFC000000FCFC009200929200929200920092929292000000FCFC00000000FCFC00000000FCFCFC9200009292FF9200920092920092000000FCFC000000FCFC0000000000FC00009200920000FF9200920092920000000000FCFC0000FCFC00000000
310
0000FCFCFC0092000000FF9200920092920000000000FCFC00FCFC00000000000000FCFC000000000000FF9200920092000000000000FC00FCFC0000000000000000FCFC000000000000FF92FF92FFFF000000000000FC00FC000000000000000000FCFC000000000000000000000000000000000000FC00FC000000000000
310
000000FCFC000000000000000000000000000000000000FC00FC000000000000000000FCFC000000000000000000000000000000000000FC00FCFC0000000000000000FCFC000000000000000000000000000000000000FCFCFCFC0000000000000000FC00FC0000000000000000000000000000000000000000FC00000000
310
0000000000FC00FCFC0000000000000000000000000000000000FCFC00000000000000000000FCFCFCFCFC00000000000000000000000000000000FC00000000000000000000000000000000000000000000000000000000000000000000000000000000000000000000000000000000000000000000000000000000000000
310
0000000000000000000000000000000000000000000000000000000000000000000000000000000000000000000000000000000000000000
102
{BLKREFS
331
37DD
331
37DF
102
}
1001
ACAD
1000
DesignCenter Data
1002
{
1070
     1
1070
     4
1002
}
  0
BLOCK_RECORD
  5
307F
330
1
100
AcDbSymbolTableRecord
100
AcDbBlockTableRecord
  2
08033
340
0
102
{BLKREFS
331
3084
331
308B
102
}
1001
ACAD
1000
DesignCenter Data
1002
{
1070
     1
1070
     4
1002
}
  0
BLOCK_RECORD
  5
3197
330
1
100
AcDbSymbolTableRecord
100
AcDbBlockTableRecord
  2
vantage a4 SM border
340
0
102
{BLKREFS
331
319C
102
}
1001
ACAD
1000
DesignCenter Data
1002
{
1070
     1
1070
     4
1002
}
  0
BLOCK_RECORD
  5
32A7
102
{ACAD_XDICTIONARY
360
40D0
102
}
330
1
100
AcDbSymbolTableRecord
100
AcDbBlockTableRecord
  2
08004
340
0
102
{BLKREFS
331
32AC
102
}
1001
ACAD
1000
DesignCenter Data
1002
{
1070
     1
1070
     4
1002
}
  0
BLOCK_RECORD
  5
32AD
330
1
100
AcDbSymbolTableRecord
100
AcDbBlockTableRecord
  2
08012
340
0
102
{BLKREFS
331
32B2
102
}
1001
ACAD
1000
DesignCenter Data
1002
{
1070
     1
1070
     4
1002
}
  0
BLOCK_RECORD
  5
3306
330
1
100
AcDbSymbolTableRecord
100
AcDbBlockTableRecord
  2
UA1505
340
0
102
{BLKREFS
331
330D
102
}
1001
ACAD
1000
DesignCenter Data
1002
{
1070
     1
1070
     4
1002
}
  0
BLOCK_RECORD
  5
339C
330
1
100
AcDbSymbolTableRecord
100
AcDbBlockTableRecord
  2
polystyrene
340
0
102
{BLKREFS
331
33C7
331
33CB
331
33CE
331
33CF
102
}
1001
ACAD
1000
DesignCenter Data
1002
{
1070
     1
1070
     4
1002
}
  0
BLOCK_RECORD
  5
36D6
102
{ACAD_XDICTIONARY
360
40DA
102
}
330
1
100
AcDbSymbolTableRecord
100
AcDbBlockTableRecord
  2
08024
340
0
102
{BLKREFS
331
3BEE
102
}
1001
ACAD
1000
DesignCenter Data
1002
{
1070
     1
1070
     4
1002
}
  0
BLOCK_RECORD
  5
36D9
330
1
100
AcDbSymbolTableRecord
100
AcDbBlockTableRecord
  2
9010250l
340
0
102
{BLKREFS
331
3BF0
102
}
1001
ACAD
1000
DesignCenter Data
1002
{
1070
     1
1070
     4
1002
}
  0
BLOCK_RECORD
  5
36DC
330
1
100
AcDbSymbolTableRecord
100
AcDbBlockTableRecord
  2
20mm igu
340
0
102
{BLKREFS
331
3BED
102
}
1001
ACAD
1000
DesignCenter Data
1002
{
1070
     1
1070
     4
1002
}
  0
BLOCK_RECORD
  5
36E3
102
{ACAD_XDICTIONARY
360
3BF1
102
}
330
1
100
AcDbSymbolTableRecord
100
AcDbBlockTableRecord
  2
08024glaze
340
0
310
2800000020000000200000000100080000000000000400000000000000000000000000000000000000000000000080000080000000808000800000008000800080800000C0C0C000C0DCC000F0CAA6000020400000206000002080000020A0000020C0000020E00000400000004020000040400000406000004080000040A0
310
000040C0000040E00000600000006020000060400000606000006080000060A0000060C0000060E00000800000008020000080400000806000008080000080A0000080C0000080E00000A0000000A0200000A0400000A0600000A0800000A0A00000A0C00000A0E00000C0000000C0200000C0400000C0600000C0800000C0
310
A00000C0C00000C0E00000E0000000E0200000E0400000E0600000E0800000E0A00000E0C00000E0E00040000000400020004000400040006000400080004000A0004000C0004000E00040200000402020004020400040206000402080004020A0004020C0004020E000404000004040200040404000404060004040800040
310
40A0004040C0004040E00040600000406020004060400040606000406080004060A0004060C0004060E00040800000408020004080400040806000408080004080A0004080C0004080E00040A0000040A0200040A0400040A0600040A0800040A0A00040A0C00040A0E00040C0000040C0200040C0400040C0600040C08000
310
40C0A00040C0C00040C0E00040E0000040E0200040E0400040E0600040E0800040E0A00040E0C00040E0E00080000000800020008000400080006000800080008000A0008000C0008000E00080200000802020008020400080206000802080008020A0008020C0008020E00080400000804020008040400080406000804080
310
008040A0008040C0008040E00080600000806020008060400080606000806080008060A0008060C0008060E00080800000808020008080400080806000808080008080A0008080C0008080E00080A0000080A0200080A0400080A0600080A0800080A0A00080A0C00080A0E00080C0000080C0200080C0400080C0600080C0
310
800080C0A00080C0C00080C0E00080E0000080E0200080E0400080E0600080E0800080E0A00080E0C00080E0E000C0000000C0002000C0004000C0006000C0008000C000A000C000C000C000E000C0200000C0202000C0204000C0206000C0208000C020A000C020C000C020E000C0400000C0402000C0404000C0406000C0
310
408000C040A000C040C000C040E000C0600000C0602000C0604000C0606000C0608000C060A000C060C000C060E000C0800000C0802000C0804000C0806000C0808000C080A000C080C000C080E000C0A00000C0A02000C0A04000C0A06000C0A08000C0A0A000C0A0C000C0A0E000C0C00000C0C02000C0C04000C0C06000
310
C0C08000C0C0A000F0FBFF00A4A0A000808080000000FF0000FF000000FFFF00FF000000FF00FF00FFFF0000FFFFFF000000000000000000000000000000000000000000000000000000000000000000000000000000FBFBFBFBFBFBFBFBFBFBFBFBFBFBFBFBFB000000000000000000000000000000FB0000000000000000
310
00000000000000FB00000000000000000000000000FB00FB00FBFBFBFBFBFB00A4A4A4A4A4FBFBA4000000000000000000000000FB00FBFB00FB00000000FB00A4A400A4A4A4A4A4000000000000000000000000FBFBFBFBFB0000000000FBFBFBA400A4A4A40000A400000000000000000000000000FBFB00000000A4A4A4
310
A4A4A4A4A4A4A40000A4A4000000000000000000000000FBFB00000000A4A4A4A4A4A4FFA4A4A4A4A4A4A4FFFFFFFF0000000000000000FBFB00000000FFA4A4A4A4A4A4A4A4A4A4A4A4A4A4A4A4A40000000000000000FBFB00000000FF00000000000000000000000000000000000000000000000000FBFB00000000FFA4
310
A4A4A4A4A4A4A4A4A4A4A4A4A4A4A4A40000000000000000FBFB00000000FF00000000000000000000000000000000000000000000000000FBFB00000000FFFFFFFFFFFFFFFFFFFFFFFFFFFFFFFFFFFF0000000000000000FBFB00000000FF00000000FF0000000000000000000000000000000000000000FBFB00000000FF
310
00000000FF0000000000000000000000000000000000000000FBFB00000000FF00000000FF000000000000000000000000000000000000FBFBFB0000000000FF00000000FF000000000000000000000000000000000000FBFB000000000000FF00000000FF00000000000000000000000000000000000000FB000000000000
310
FF00000000FF00000000000000000000000000000000000000FB000000000000FFFFFFFFFFFFFFFFFFFFFFFFFFFFFFFFFFFF0000000000000000000000000000A4A4A4A4A4A4A4A4A4A4A4A4A4A4A4A4A4A40000000000000000000000000000FF000000000000000000000000000000000000000000000000000000000000
310
00A4A4A4A4A4A4A4A4A4A4A4A4A4A4A4A4A4A40000000000000000000000000000FF00000000000000000000000000000000000000000000000000000000000000FFFFFFFFA4A4FFA4A4FFA4A4A4FFFFFFFFFF000000000000000000000000000000000000A4A400A4A400A400A40000000000000000000000000000000000
310
00000000A4A4A4A4A4A4A4A40000A4000000000000000000000000000000000000000000A40000000000000000A40000000000000000000000000000000000000000000000A4A4A400A4A4A400A40000000000000000000000000000000000000000000000000000A4A400A400A40000000000000000000000000000000000
310
00000000000000000000000000A4A40000000000000000000000000000000000000000000000000000000000000000000000000000000000
102
{BLKREFS
331
36FC
102
}
1001
AcDbDynamicBlockGUID
1000
{3BFEB17C-9ABE-49CB-BEEA-BA66A4C23982}
1001
AcDbBlockRepETag
1070
     1
1071
        4
1001
ACAD
1000
DesignCenter Data
1002
{
1070
     1
1070
     4
1002
}
  0
BLOCK_RECORD
  5
3B58
102
{ACAD_XDICTIONARY
360
3B62
102
}
330
1
100
AcDbSymbolTableRecord
100
AcDbBlockTableRecord
  2
vantage a4 SM attributes (4)
340
0
102
{BLKREFS
331
3B65
102
}
1001
ACAD
1000
DesignCenter Data
1002
{
1070
     1
1070
     4
1002
}
  0
BLOCK_RECORD
  5
3CF4
102
{ACAD_XDICTIONARY
360
3CF5
102
}
330
1
100
AcDbSymbolTableRecord
100
AcDbBlockTableRecord
  2
vantage black & white logo
340
0
310
2800000020000000200000000100080000000000000400000000000000000000000000000000000000000000000080000080000000808000800000008000800080800000C0C0C000C0DCC000F0CAA6000020400000206000002080000020A0000020C0000020E00000400000004020000040400000406000004080000040A0
310
000040C0000040E00000600000006020000060400000606000006080000060A0000060C0000060E00000800000008020000080400000806000008080000080A0000080C0000080E00000A0000000A0200000A0400000A0600000A0800000A0A00000A0C00000A0E00000C0000000C0200000C0400000C0600000C0800000C0
310
A00000C0C00000C0E00000E0000000E0200000E0400000E0600000E0800000E0A00000E0C00000E0E00040000000400020004000400040006000400080004000A0004000C0004000E00040200000402020004020400040206000402080004020A0004020C0004020E000404000004040200040404000404060004040800040
310
40A0004040C0004040E00040600000406020004060400040606000406080004060A0004060C0004060E00040800000408020004080400040806000408080004080A0004080C0004080E00040A0000040A0200040A0400040A0600040A0800040A0A00040A0C00040A0E00040C0000040C0200040C0400040C0600040C08000
310
40C0A00040C0C00040C0E00040E0000040E0200040E0400040E0600040E0800040E0A00040E0C00040E0E00080000000800020008000400080006000800080008000A0008000C0008000E00080200000802020008020400080206000802080008020A0008020C0008020E00080400000804020008040400080406000804080
310
008040A0008040C0008040E00080600000806020008060400080606000806080008060A0008060C0008060E00080800000808020008080400080806000808080008080A0008080C0008080E00080A0000080A0200080A0400080A0600080A0800080A0A00080A0C00080A0E00080C0000080C0200080C0400080C0600080C0
310
800080C0A00080C0C00080C0E00080E0000080E0200080E0400080E0600080E0800080E0A00080E0C00080E0E000C0000000C0002000C0004000C0006000C0008000C000A000C000C000C000E000C0200000C0202000C0204000C0206000C0208000C020A000C020C000C020E000C0400000C0402000C0404000C0406000C0
310
408000C040A000C040C000C040E000C0600000C0602000C0604000C0606000C0608000C060A000C060C000C060E000C0800000C0802000C0804000C0806000C0808000C080A000C080C000C080E000C0A00000C0A02000C0A04000C0A06000C0A08000C0A0A000C0A0C000C0A0E000C0C00000C0C02000C0C04000C0C06000
310
C0C08000C0C0A000F0FBFF00A4A0A000808080000000FF0000FF000000FFFF00FF000000FF00FF00FFFF0000FFFFFF0000000000000000000000000000000000000000000000000000000000000000000000000000000000000000000000000000000000000000000000000000000000000000000000000000000000000000
310
0000000000000000000000000000000000000000000000000000000000000000A4A40000000000000000000000000000000000000000000000000000000000A400000700000000000000000000000000000000000000000000000000000000A4000707000000000000000000000000000000000000000000000000000000A4
310
00A4A407070000000000000000000000000000000000000000000000000000A400A400A40700000000000000000000000000000000000000000000000000A400A4A400A407070000000000000000000000000000000000000000000000A40700A4000000A4070000000000000000000000000000000000000000000000A400
310
A4A4000000A40707000000000000000000000000000000000000000000A400A4A4000000A4A4A400070000000000000000000000000000000000000000A400A400000000A400A4070700000000000000000000000000000000000000A400A4A4000000A4A40000A40007000000000000000000000000000000000000A400A4
310
A4A4A4A4A4A4A4A4A407070000000000000000000000000000000000A400A4A4A4A4A4A4A4A4A4A4A4A40007000000000000000000000000000000A40000A4A4A4A4A4A4A4A4A4A4A4A40700070000000000000000000000000000A400A4A400A4A4A4A4A4A4A4A4A4A4A4070700000000000000000000000000A400A4A4A4
310
A4A4A4A4A4A4A4A4A4A4A4A4070007000000000000000000000000A400A4A4A4A4A4A4A4A4A4A4A4A4A4A4A4A407070000000000000000000000A400A4A400A4A4A4A4A4A4A4A4A4A4A4A4A4A4070007000000000000000000A40700A4A400A4A4A4A4A4A4A4A4A4A4A4A4A400A40707000000000000000000A400A4A4A4A4
310
A4A4A4A4A4A4A4A4A4A4A4A4A4A4A407000700000000000000A400A4A4A4A4A4A4A4A4A4A4A4A4A4A4A4A4A4A4A4A4A4070007000000000000A400A4A4A4A4A4A4A4A4A4A4A4A4A4A4A4A4A4A4A4A4A40700070000000000A400A4A400A4A4A4A4A4A4A4A4A4A4A4A4A4A4A4A4A4A4A40007000700000000A400A4A4A400A4
310
A4A4A4A4A4A4A4A4A4A4A4A4A4A4A4A4A4000700070000000700A4A4A4A4A4A4A4A4A4A4A4A4A4A4A4A4A4A4A4A4A4A4A4A4A40700070000A407A4A4A4A4A4A4A4A4A4A4A4A4A4A4A4A4A4A4A4A4A4A4A4A4A4A407A40000000000000000000000000000000000000000000000000000000000000000000000000000000000
310
0000000000000000000000000000000000000000000000000000000000000000000000000000000000000000000000000000000000000000
102
{BLKREFS
331
3CF2
102
}
1001
AcDbDynamicBlockGUID
1000
{7D04BC3F-8AE2-40EA-A482-CE6E620AF154}
1001
AcDbBlockRepETag
1070
     1
1071
      907
1001
ACAD
1000
DesignCenter Data
1002
{
1070
     1
1070
     4
1002
}
  0
ENDTAB
  0
ENDSEC
  0
SECTION
  2
BLOCKS
  0
BLOCK
  5
20
330
1F
100
AcDbEntity
  8
0
100
AcDbBlockBegin
  2
*Model_Space
 70
     0
 10
0.0
 20
0.0
 30
0.0
  3
*Model_Space
  1

  0
ENDBLK
  5
21
330
1F
100
AcDbEntity
  8
0
100
AcDbBlockEnd
  0
BLOCK
  5
318E
330
318C
100
AcDbEntity
 67
     1
  8
0
100
AcDbBlockBegin
  2
*Paper_Space
 70
     0
 10
0.0
 20
0.0
 30
0.0
  3
*Paper_Space
  1

  0
ENDBLK
  5
318F
330
318C
100
AcDbEntity
 67
     1
  8
0
100
AcDbBlockEnd
  0
BLOCK
  5
2692
330
2691
100
AcDbEntity
  8
0
100
AcDbBlockBegin
  2
6Glass
 70
     0
 10
101.8368839708302
 20
399.4111348733001
 30
0.0
  3
6Glass
  1
6Glass.dwg
  0
LINE
  5
32E1
330
2691
100
AcDbEntity
  8
APL Joinery
 62
     7
100
AcDbLine
 10
95.33688397083029
 20
412.4111348732999
 30
0.0
 11
95.33688397083029
 21
392.4111348733
 31
0.0
  0
LINE
  5
32E2
330
2691
100
AcDbEntity
  8
APL Joinery
 62
     7
100
AcDbLine
 10
89.33688397083029
 20
412.4111348732999
 30
0.0
 11
95.33688397083029
 21
412.4111348732999
 31
0.0
  0
LINE
  5
32E3
330
2691
100
AcDbEntity
  8
APL Joinery
 62
     8
100
AcDbLine
 10
93.33688397083028
 20
412.4111348732999
 30
0.0
 11
93.33688397083028
 21
392.4111348733
 31
0.0
  0
LINE
  5
32E4
330
2691
100
AcDbEntity
  8
APL Joinery
 62
     7
100
AcDbLine
 10
89.33688397083029
 20
412.4111348732999
 30
0.0
 11
89.33688397083029
 21
392.4111348733
 31
0.0
  0
LINE
  5
32E5
330
2691
100
AcDbEntity
  8
APL Joinery
 62
     8
100
AcDbLine
 10
91.33688397083028
 20
412.4111348732999
 30
0.0
 11
91.33688397083028
 21
392.4111348733
 31
0.0
  0
ENDBLK
  5
2693
330
2691
100
AcDbEntity
  8
0
100
AcDbBlockEnd
  0
BLOCK
  5
269B
330
269A
100
AcDbEntity
  8
0
100
AcDbBlockBegin
  2
9010312l
 70
     0
 10
365.0634067278241
 20
339.4121540145173
 30
0.0
  3
9010312l
  1
9010312l.dwg
  0
LWPOLYLINE
  5
3CCC
330
269A
100
AcDbEntity
  8
APL Joinery
  6
Continuous
 62
   252
100
AcDbPolyline
 90
       28
 70
   128
 43
0.0
 10
368.7634067278242
 20
336.2999919725366
 10
368.7634067278242
 20
343.1621540145172
 42
0.7673269879789622
 10
368.2969003768781
 20
343.2871540145172
 10
367.7417988747633
 20
342.3256900094965
 10
365.2336571919708
 20
341.6536354710895
 42
0.3626955242591878
 10
365.0492176629833
 20
341.3914870691883
 10
365.2134067278238
 20
339.4121540145172
 10
366.7634067278242
 20
339.4121540145172
 10
366.7634067278242
 20
336.5121540145171
 10
365.513243805812
 20
336.5121540145171
 10
365.2515573605315
 20
337.3376963843301
 42
0.6640183420487276
 10
364.792655570518
 20
337.3798010733406
 42
0.250000000000001
 10
364.7926555705179
 20
333.1445069556935
 42
0.6640183420487097
 10
365.2515573605313
 20
333.1866116447042
 10
365.513243805812
 20
334.0121540145171
 10
367.0632438058122
 20
334.0121540145171
 10
367.3369346947806
 20
334.2858449034854
 42
-0.6681785464135807
 10
367.7637113900772
 20
334.1090682714504
 10
367.7637118012051
 20
332.4843569389277
 10
368.2660718660176
 20
329.0715154000631
 42
0.9294717386060577
 10
368.7634067278242
 20
329.1079223518048
 10
368.7634067278242
 20
334.5749919747145
 42
0.3563939586926081
 10
367.9634067278242
 20
335.5547878718279
 42
-0.3563939586925715
 10
367.7634067278242
 20
335.7997368461061
 10
367.7634067278241
 20
339.3871540145172
 42
-0.9999999999999998
 10
367.8134067278242
 20
339.3871540145172
 10
367.8134067278242
 20
336.2999919725366
 42
0.9999999999999998
 10
368.7634067234684
 20
336.2999919725366
  0
ENDBLK
  5
269C
330
269A
100
AcDbEntity
  8
0
100
AcDbBlockEnd
  0
BLOCK
  5
26A0
330
269F
100
AcDbEntity
  8
0
100
AcDbBlockBegin
  2
9010260R
 70
     0
 10
156.1743665915094
 20
-81.53902373500953
 30
0.0
  3
9010260R
  1
9010260R.dwg
  0
LWPOLYLINE
  5
3CCF
330
269F
100
AcDbEntity
  8
APL Joinery
  6
Continuous
 62
   252
100
AcDbPolyline
 90
       36
 70
   129
 43
0.0
 10
151.4112849747289
 20
-86.98693969135872
 42
0.4991631999369929
 10
151.6667704724094
 20
-86.79479037559843
 10
151.6667704724094
 20
-86.19810729204813
 42
0.272072501204814
 10
151.4100847187875
 20
-85.76130278484901
 42
-0.055420875940738
 10
148.6334536863916
 20
-83.78341896417607
 42
-0.2134333709620201
 10
148.4667704724094
 20
-83.41072616821833
 10
148.4667704724094
 20
-82.79672757783419
 42
-0.606477064294606
 10
148.7813238722325
 20
-82.6327839332823
 42
0.0778026134852526
 10
151.4078015955849
 20
-83.91640293538889
 42
0.5048527223647302
 10
151.6667704724094
 20
-83.72529387865411
 10
151.6667704724093
 20
-82.71037252415302
 42
0.3020576082188024
 10
151.360292015658
 20
-82.24934170924081
 42
-0.0678144351682685
 10
148.6645537833863
 20
-80.65954656657909
 42
-0.2295412802047894
 10
148.4743665958649
 20
-80.26709781677331
 10
148.4743665958649
 20
-79.01215435192681
 42
-0.4607623830565047
 10
148.763276481804
 20
-78.76520087295517
 10
155.9632764774486
 20
-79.54207025603785
 42
-0.394142907229037
 10
156.1734152660324
 20
-79.81081267069645
 10
156.0222163897248
 20
-81.53902373500963
 10
154.4743665958649
 20
-81.53902373500963
 10
154.4743665958649
 20
-84.43902373500973
 10
154.9743665958649
 20
-84.43902373500973
 42
-0.5486826681767436
 10
155.2009227871826
 20
-84.79472279922322
 10
153.9743665958649
 20
-87.42373282130737
 10
153.9743665958649
 20
-87.90341630654447
 10
154.2377640554862
 20
-87.90341630654447
 42
-0.5773502691896241
 10
154.442667866054
 20
-88.25832011711245
 10
153.7542079459013
 20
-89.45076767779173
 42
-0.267949192431124
 10
153.3211952440091
 20
-89.70076767779174
 10
152.7667704724094
 20
-89.70076767779174
 42
-0.2238716985268056
 10
152.1496898130719
 20
-89.40989581477845
 42
0.122227011028704
 10
151.9561720427158
 20
-89.26649994640433
 42
-0.0461487875582768
 10
148.6482515130876
 20
-86.9134714477949
 42
-0.2184468557088208
 10
148.4743665915091
 20
-86.53446095239122
 10
148.4743665915091
 20
-85.94377607221765
 42
-0.5970869766259792
 10
148.7843563536427
 20
-85.77673639960723
 42
0.0754394984412558
  0
ENDBLK
  5
26A1
330
269F
100
AcDbEntity
  8
0
100
AcDbBlockEnd
  0
BLOCK
  5
26A9
330
26A8
100
AcDbEntity
  8
0
100
AcDbBlockBegin
  2
08001
 70
     0
 10
0.0
 20
0.0
 30
0.0
  3
08001
  1
08001.dwg
  0
LWPOLYLINE
  5
3CD2
102
{ACAD_REACTORS
330
3CD4
102
}
330
26A8
100
AcDbEntity
  8
APL Joinery
100
AcDbPolyline
 90
      106
 70
     1
 43
0.0
 10
48.39999999999998
 20
14.64999999999998
 10
48.5770520258726
 20
5.196255008275387
 42
0.408739403627736
 10
48.77701696039105
 20
4.999999999999971
 10
49.60000000000002
 20
5.0
 10
50.0
 20
5.399999999999977
 10
63.60000300000002
 20
5.399999999999977
 10
64.00000299999999
 20
5.0
 10
65.74999999999999
 20
5.0
 42
0.9999999999999905
 10
65.75000000000011
 20
6.5
 10
50.0
 20
6.5
 10
50.0
 20
14.75
 42
0.4142135623730961
 10
48.39999999999998
 20
16.35000000000002
 10
47.76301891420008
 20
16.35000000000002
 42
-0.5701098464939183
 10
47.32466208961976
 20
17.09050632911379
 42
0.2160671282016072
 10
47.54157548037176
 20
19.93096926507535
 42
-0.507124319317585
 10
47.98995190738225
 20
20.60166532734326
 42
0.4017188249341092
 10
49.99999999999994
 20
22.69973793199995
 10
50.0
 20
25.5
 42
-0.4142135623730961
 10
50.5
 20
26.0
 10
57.79999999999999
 20
26.0
 42
0.4142135623730787
 10
58.5
 20
26.69999999999993
 10
58.5
 20
47.5
 42
0.4142135623730961
 10
58.0
 20
48.0
 10
51.25
 20
48.0
 42
0.4142135623730961
 10
51.0
 20
47.75
 10
51.0
 20
45.29142135618128
 42
0.19891236737966
 10
51.08786796564402
 20
45.07928932182529
 10
52.65857864376267
 20
43.50857864370669
 42
0.6681786379192565
 10
53.0
 20
43.64999999999997
 10
53.0
 20
45.49999999999999
 42
-0.4142135623730961
 10
53.5
 20
46.0
 10
56.20000000000004
 20
46.0
 42
-0.4142135623730961
 10
56.70000000000005
 20
45.49999999999999
 10
56.70000000000005
 20
41.44999999999993
 42
-0.4142135623730961
 10
56.20000000000004
 20
40.94999999999993
 10
51.70000000000005
 20
40.94999999999993
 42
1.000000000000003
 10
51.70000000000005
 20
39.55000000000001
 10
53.70000000000004
 20
39.54999999999996
 10
53.70000000000004
 20
38.74999999999995
 42
0.4142135623730109
 10
53.90000000000009
 20
38.54999999999995
 10
54.50000000000011
 20
38.54999999999995
 42
0.4142135623730129
 10
54.70000000000016
 20
38.74999999999995
 10
54.70000000000005
 20
39.54999999999996
 10
56.70000000000005
 20
39.54999999999996
 10
56.70000000000005
 20
34.44999999999993
 42
1.000000000000003
 10
56.70000000000005
 20
33.64999999999998
 10
56.70000000000005
 20
28.54999999999995
 10
54.70000000000005
 20
28.54999999999995
 10
54.70000000000005
 20
29.34999999999997
 42
0.4142135623730129
 10
54.5
 20
29.54999999999996
 10
53.9000000000002
 20
29.54999999999996
 42
0.4142135623730108
 10
53.70000000000016
 20
29.34999999999997
 10
53.70000000000004
 20
28.0
 10
23.90000000000009
 20
28.0
 10
23.5
 20
27.60000000000002
 10
23.10000000000002
 20
28.0
 10
20.90000000000009
 20
28.0
 10
20.5
 20
27.60000000000002
 10
20.10000000000002
 20
28.0
 10
8.90000000000009
 20
28.0
 10
8.5
 20
27.60000000000002
 10
8.100000000000022
 20
28.0
 10
-4.25
 20
28.0
 42
0.4142135623730961
 10
-4.5
 20
27.75
 10
-4.5
 20
-19.80000000000001
 42
0.4142135623730109
 10
-4.299999999999955
 20
-20.0
 10
-0.2000000000000455
 20
-20.00000000000006
 42
0.4142135623730129
 10
0.0
 20
-19.80000000000007
 10
0.0
 20
-17.69999999999999
 42
0.4142135623730129
 10
-0.2000000000000462
 20
-17.5
 10
-0.7999999999999546
 20
-17.5
 42
0.4142135623730108
 10
-1.0
 20
-17.69999999999999
 10
-1.0
 20
-18.5
 10
-3.0
 20
-18.5
 10
-2.999999999999886
 20
-13.39999999999998
 42
0.9999999999999998
 10
-3.0
 20
-12.60000000000002
 10
-3.0
 20
-7.5
 10
-1.0
 20
-7.5
 10
-1.0
 20
-8.300000000000011
 42
0.4142135623730109
 10
-0.7999999999999554
 20
-8.5
 10
-0.2000000000000455
 20
-8.5
 42
0.4142135623730129
 10
0.0
 20
-8.300000000000011
 10
0.0
 20
-6.199999999999988
 42
0.4142135623730129
 10
-0.2000000000000462
 20
-6.0
 10
-2.899999999999977
 20
-6.0
 10
-2.899999999999977
 20
4.0
 42
-0.4142135623730961
 10
-1.89999999999998
 20
5.0
 10
3.300000000000067
 20
5.0
 42
0.4142135623730961
 10
5.40000000000009
 20
7.100000000000022
 10
5.40000000000009
 20
8.5
 10
13.60000000000002
 20
8.5
 10
13.60000000000002
 20
5.200000000000045
 42
0.4142135623730524
 10
13.80000000000007
 20
5.000000000000028
 10
15.0
 20
5.0
 42
0.4142135623731784
 10
15.20000000000004
 20
5.199999999999988
 10
15.20000000000004
 20
8.5
 42
0.4142135623730961
 10
13.60000000000002
 20
10.10000000000002
 10
12.28745860880008
 20
10.10000000000002
 10
12.28745860880008
 20
10.60000000000002
 42
0.657763010441569
 10
10.76974488229518
 20
11.25454545454499
 42
-0.3973597071192729
 10
8.230255117721977
 20
11.25454545454574
 42
0.1432248589117956
 10
7.780239626801956
 20
11.48423826074858
 42
-0.295976833748959
 10
7.780239626821067
 20
13.71576173925262
 42
0.1432248589113613
 10
8.230255117705043
 20
13.94545454545505
 42
-0.3973597071192736
 10
10.76974488227824
 20
13.94545454545431
 42
0.677856157977275
 10
12.28606864660003
 20
14.64999999999998
  0
LWPOLYLINE
  5
3CD3
102
{ACAD_REACTORS
330
3CD4
102
}
330
26A8
100
AcDbEntity
  8
APL Joinery
100
AcDbPolyline
 90
       41
 70
     1
 43
0.0
 10
3.300000000000068
 20
6.600000000000022
 10
-1.899999999999977
 20
6.600000000000022
 42
-0.4142135623730971
 10
-2.899999999999977
 20
7.600000000000022
 10
-2.899999999999977
 20
17.51715728752538
 10
-2.058578643862688
 20
18.35857864366272
 42
0.4142135623730363
 10
-2.058578643862688
 20
18.64142135613724
 10
-2.899999999999977
 20
19.48284271227453
 10
-2.899999999999977
 20
25.19999999999992
 42
-0.4142135623730992
 10
-1.900000000000091
 20
26.19999999999993
 10
6.0
 20
26.19999999999993
 10
6.0
 20
25.69999999999999
 42
0.4142135623730109
 10
6.200000000000045
 20
25.5
 10
10.79999999999995
 20
25.49999999999994
 42
0.4142135623730129
 10
11.0
 20
25.69999999999993
 10
11.0
 20
26.19999999999993
 10
18.0
 20
26.19999999999993
 10
18.0
 20
25.69999999999999
 42
0.4142135623730109
 10
18.20000000000004
 20
25.5
 10
25.79999999999996
 20
25.5
 42
0.4142135623730129
 10
26.0
 20
25.69999999999999
 10
26.0
 20
26.19999999999993
 10
47.39999999999997
 20
26.19999999999993
 42
-0.4142135623730961
 10
48.39999999999998
 20
25.19999999999993
 10
48.39999999999998
 20
22.69973793199995
 42
-0.4142135623730961
 10
47.89999999999998
 20
22.19973793199995
 10
44.33726783650003
 20
22.19973793200001
 42
0.9929927093380095
 10
44.32601716887365
 20
20.59981704687891
 42
-0.4016728856466486
 10
46.14922524954045
 20
18.80353481615162
 42
0.1432248589113634
 10
46.30501691391759
 20
18.32290847010884
 42
-0.2959768337489483
 10
44.72709152985988
 20
16.74498308605882
 42
0.1432248589118002
 10
44.24646518377825
 20
16.90077475048275
 42
-0.4016728856466394
 10
42.45018295313696
 20
18.72398283112091
 42
1.000000000000004
 10
40.8503411828475
 20
18.70148149588448
 42
0.129938666619159
 10
41.32492589415948
 20
17.00316455696225
 42
-0.5797941154844655
 10
40.89375573389998
 20
16.25
 10
9.499999999999985
 20
16.25
 42
0.5704557393384569
 10
6.301829922913979
 20
10.84096385542177
 42
-0.5704557393379189
 10
5.863724432899971
 20
10.10000000000002
 10
5.40000000000009
 20
10.10000000000002
 42
0.4142135623730961
 10
3.800000000000068
 20
8.499999999999989
 10
3.800000000000068
 20
7.100000000000022
 42
-0.4142135623730961
  0
HATCH
  5
3CD4
330
26A8
100
AcDbEntity
  8
APL Hatch
100
AcDbHatch
 10
0.0
 20
0.0
 30
0.0
210
0.0
220
0.0
230
1.0
  2
SOLID
 70
     1
 71
     1
 91
        2
 92
        1
 93
      106
 72
     1
 10
48.39999999999998
 20
14.64999999999998
 11
48.5770520258726
 21
5.196255008275386
 72
     2
 10
48.77701696039105
 20
5.199999999999931
 40
0.1999999999999602
 50
181.0729238056887
 51
270.0
 73
     1
 72
     1
 10
48.77701696039105
 20
4.999999999999971
 11
49.60000000000002
 21
5.0
 72
     1
 10
49.60000000000002
 20
5.0
 11
50.0
 21
5.399999999999977
 72
     1
 10
50.0
 20
5.399999999999977
 11
63.60000300000002
 21
5.399999999999977
 72
     1
 10
63.60000300000002
 20
5.399999999999977
 11
64.00000299999999
 21
5.0
 72
     1
 10
64.00000299999999
 20
5.0
 11
65.74999999999999
 21
5.0
 72
     2
 10
65.75000000000004
 20
5.75
 40
0.75
 50
269.9999999999957
 51
449.9999999999945
 73
     1
 72
     1
 10
65.75000000000011
 20
6.5
 11
50.0
 21
6.5
 72
     1
 10
50.0
 20
6.5
 11
50.0
 21
14.75
 72
     2
 10
48.39999999999998
 20
14.75
 40
1.600000000000022
 50
359.9999999999999
 51
450.0
 73
     1
 72
     1
 10
48.39999999999998
 20
16.35000000000002
 11
47.76301891420008
 21
16.35000000000002
 72
     2
 10
47.76301891420014
 20
16.85000000000001
 40
0.4999999999999858
 50
90.00000000000733
 51
208.7515612239017
 73
     0
 72
     2
 10
44.3000000000062
 20
18.74999999998292
 40
3.450000000000018
 50
331.2484387764024
 51
380.0176702410015
 73
     1
 72
     2
 10
48.01136902821552
 20
20.10212423103304
 40
0.4999999999675991
 50
159.9823297573707
 51
267.545027623872
 73
     0
 72
     2
 10
47.89999999996584
 20
22.69973793202007
 40
2.100000000034093
 50
272.4549723736544
 51
359.9999999994511
 73
     1
 72
     1
 10
49.99999999999994
 20
22.69973793199995
 11
50.0
 21
25.5
 72
     2
 10
50.5
 20
25.5
 40
0.5
 50
179.9999999999996
 51
270.0
 73
     0
 72
     1
 10
50.5
 20
26.0
 11
57.79999999999999
 21
26.0
 72
     2
 10
57.80000000000001
 20
26.69999999999999
 40
0.6999999999999887
 50
269.9999999999988
 51
359.9999999999954
 73
     1
 72
     1
 10
58.5
 20
26.69999999999993
 11
58.5
 21
47.5
 72
     2
 10
58.0
 20
47.5
 40
0.5
 50
0.0
 51
90.0
 73
     1
 72
     1
 10
58.0
 20
48.0
 11
51.25
 21
48.0
 72
     2
 10
51.25
 20
47.75
 40
0.25
 50
90.0
 51
180.0
 73
     1
 72
     1
 10
51.0
 20
47.75
 11
51.0
 21
45.29142135618128
 72
     2
 10
51.30000000000002
 20
45.29142135618124
 40
0.3000000000000256
 50
179.9999999999932
 51
224.9999999999943
 73
     1
 72
     1
 10
51.08786796564402
 20
45.07928932182529
 11
52.65857864376267
 21
43.50857864370669
 72
     2
 10
52.79999999998839
 20
43.64999999997201
 40
0.2000000000116108
 50
225.0000000080186
 51
360.0000000080119
 73
     1
 72
     1
 10
53.0
 20
43.64999999999997
 11
53.0
 21
45.49999999999999
 72
     2
 10
53.5
 20
45.49999999999999
 40
0.5
 50
180.0
 51
270.0
 73
     0
 72
     1
 10
53.5
 20
46.0
 11
56.20000000000004
 21
46.0
 72
     2
 10
56.20000000000004
 20
45.49999999999999
 40
0.5
 50
270.0
 51
360.0
 73
     0
 72
     1
 10
56.70000000000005
 20
45.49999999999999
 11
56.70000000000005
 21
41.44999999999993
 72
     2
 10
56.20000000000004
 20
41.44999999999993
 40
0.5
 50
360.0
 51
450.0
 73
     0
 72
     1
 10
56.20000000000004
 20
40.94999999999993
 11
51.70000000000005
 21
40.94999999999993
 72
     2
 10
51.70000000000005
 20
40.24999999999997
 40
0.6999999999999602
 50
90.0
 51
270.0
 73
     1
 72
     1
 10
51.70000000000005
 20
39.55000000000001
 11
53.70000000000004
 21
39.54999999999996
 72
     1
 10
53.70000000000004
 20
39.54999999999996
 11
53.70000000000004
 21
38.74999999999995
 72
     2
 10
53.90000000000009
 20
38.75
 40
0.2000000000000455
 50
180.0000000000163
 51
270.0
 73
     1
 72
     1
 10
53.90000000000009
 20
38.54999999999995
 11
54.50000000000011
 21
38.54999999999995
 72
     2
 10
54.50000000000011
 20
38.75
 40
0.2000000000000455
 50
270.0
 51
359.9999999999837
 73
     1
 72
     1
 10
54.70000000000016
 20
38.74999999999995
 11
54.70000000000005
 21
39.54999999999996
 72
     1
 10
54.70000000000005
 20
39.54999999999996
 11
56.70000000000005
 21
39.54999999999996
 72
     1
 10
56.70000000000005
 20
39.54999999999996
 11
56.70000000000005
 21
34.44999999999993
 72
     2
 10
56.70000000000005
 20
34.04999999999996
 40
0.3999999999999772
 50
90.0
 51
270.0
 73
     1
 72
     1
 10
56.70000000000005
 20
33.64999999999998
 11
56.70000000000005
 21
28.54999999999995
 72
     1
 10
56.70000000000005
 20
28.54999999999995
 11
54.70000000000005
 21
28.54999999999995
 72
     1
 10
54.70000000000005
 20
28.54999999999995
 11
54.70000000000005
 21
29.34999999999997
 72
     2
 10
54.5
 20
29.34999999999991
 40
0.2000000000000455
 50
0.0000000000162844
 51
90.0
 73
     1
 72
     1
 10
54.5
 20
29.54999999999996
 11
53.9000000000002
 21
29.54999999999996
 72
     2
 10
53.9000000000002
 20
29.34999999999991
 40
0.2000000000000455
 50
90.0
 51
179.9999999999837
 73
     1
 72
     1
 10
53.70000000000016
 20
29.34999999999997
 11
53.70000000000004
 21
28.0
 72
     1
 10
53.70000000000004
 20
28.0
 11
23.90000000000009
 21
28.0
 72
     1
 10
23.90000000000009
 20
28.0
 11
23.5
 21
27.60000000000002
 72
     1
 10
23.5
 20
27.60000000000002
 11
23.10000000000002
 21
28.0
 72
     1
 10
23.10000000000002
 20
28.0
 11
20.90000000000009
 21
28.0
 72
     1
 10
20.90000000000009
 20
28.0
 11
20.5
 21
27.60000000000002
 72
     1
 10
20.5
 20
27.60000000000002
 11
20.10000000000002
 21
28.0
 72
     1
 10
20.10000000000002
 20
28.0
 11
8.90000000000009
 21
28.0
 72
     1
 10
8.90000000000009
 20
28.0
 11
8.5
 21
27.60000000000002
 72
     1
 10
8.5
 20
27.60000000000002
 11
8.100000000000022
 21
28.0
 72
     1
 10
8.100000000000022
 20
28.0
 11
-4.25
 21
28.0
 72
     2
 10
-4.25
 20
27.75
 40
0.25
 50
90.0
 51
180.0
 73
     1
 72
     1
 10
-4.5
 20
27.75
 11
-4.5
 21
-19.80000000000001
 72
     2
 10
-4.299999999999954
 20
-19.79999999999995
 40
0.2000000000000455
 50
180.0000000000163
 51
269.9999999999998
 73
     1
 72
     1
 10
-4.299999999999955
 20
-20.0
 11
-0.2000000000000455
 21
-20.00000000000006
 72
     2
 10
-0.2000000000000451
 20
-19.80000000000001
 40
0.2000000000000455
 50
269.9999999999999
 51
359.9999999999837
 73
     1
 72
     1
 10
0.0
 20
-19.80000000000007
 11
0.0
 21
-17.69999999999999
 72
     2
 10
-0.2000000000000455
 20
-17.70000000000004
 40
0.2000000000000455
 50
0.0000000000162844
 51
90.00000000000019
 73
     1
 72
     1
 10
-0.2000000000000462
 20
-17.5
 11
-0.7999999999999546
 21
-17.5
 72
     2
 10
-0.7999999999999542
 20
-17.70000000000004
 40
0.2000000000000455
 50
90.00000000000007
 51
179.9999999999837
 73
     1
 72
     1
 10
-1.0
 20
-17.69999999999999
 11
-1.0
 21
-18.5
 72
     1
 10
-1.0
 20
-18.5
 11
-3.0
 21
-18.5
 72
     1
 10
-3.0
 20
-18.5
 11
-2.999999999999886
 21
-13.39999999999998
 72
     2
 10
-2.999999999999943
 20
-13.0
 40
0.3999999999999772
 50
270.0000000000081
 51
450.0000000000081
 73
     1
 72
     1
 10
-3.0
 20
-12.60000000000002
 11
-3.0
 21
-7.5
 72
     1
 10
-3.0
 20
-7.5
 11
-1.0
 21
-7.5
 72
     1
 10
-1.0
 20
-7.5
 11
-1.0
 21
-8.300000000000011
 72
     2
 10
-0.7999999999999547
 20
-8.299999999999954
 40
0.2000000000000454
 50
180.0000000000163
 51
269.9999999999998
 73
     1
 72
     1
 10
-0.7999999999999554
 20
-8.5
 11
-0.2000000000000455
 21
-8.5
 72
     2
 10
-0.2000000000000451
 20
-8.299999999999954
 40
0.2000000000000455
 50
269.9999999999999
 51
359.9999999999837
 73
     1
 72
     1
 10
0.0
 20
-8.300000000000011
 11
0.0
 21
-6.199999999999988
 72
     2
 10
-0.2000000000000455
 20
-6.200000000000045
 40
0.2000000000000455
 50
0.0000000000162844
 51
90.00000000000019
 73
     1
 72
     1
 10
-0.2000000000000462
 20
-6.0
 11
-2.899999999999977
 21
-6.0
 72
     1
 10
-2.899999999999977
 20
-6.0
 11
-2.899999999999977
 21
4.0
 72
     2
 10
-1.89999999999998
 20
4.000000000000003
 40
0.9999999999999964
 50
179.9999999999998
 51
270.0
 73
     0
 72
     1
 10
-1.89999999999998
 20
5.0
 11
3.300000000000068
 21
5.0
 72
     2
 10
3.300000000000071
 20
7.100000000000019
 40
2.100000000000019
 50
269.9999999999999
 51
360.0000000000001
 73
     1
 72
     1
 10
5.40000000000009
 20
7.100000000000022
 11
5.40000000000009
 21
8.5
 72
     1
 10
5.40000000000009
 20
8.5
 11
13.60000000000002
 21
8.5
 72
     1
 10
13.60000000000002
 20
8.5
 11
13.60000000000002
 21
5.200000000000045
 72
     2
 10
13.80000000000007
 20
5.200000000000073
 40
0.2000000000000455
 50
180.0000000000081
 51
270.0
 73
     1
 72
     1
 10
13.80000000000007
 20
5.000000000000028
 11
15.0
 21
5.0
 72
     2
 10
15.00000000000006
 20
5.199999999999988
 40
0.1999999999999886
 50
269.9999999999838
 51
360.0
 73
     1
 72
     1
 10
15.20000000000004
 20
5.199999999999988
 11
15.20000000000004
 21
8.5
 72
     2
 10
13.60000000000002
 20
8.5
 40
1.600000000000022
 50
0.0
 51
90.00000000000019
 73
     1
 72
     1
 10
13.60000000000002
 20
10.10000000000002
 11
12.28745860880008
 21
10.10000000000002
 72
     1
 10
12.28745860880008
 20
10.10000000000002
 11
12.28745860880008
 21
10.60000000000002
 72
     2
 10
11.38745860880873
 20
10.60000000000332
 40
0.8999999999913459
 50
359.9999999997899
 51
493.3417582269896
 73
     1
 72
     2
 10
9.500000000008977
 20
12.59999999999156
 40
1.849999999987796
 50
46.65824177281834
 51
133.3417582272155
 73
     0
 72
     2
 10
7.612541391189854
 20
10.59999999997038
 40
0.9000000000285906
 50
46.65824177362257
 51
79.26123576092161
 73
     1
 72
     2
 10
9.500000000010478
 20
12.59999999998587
 40
2.050000000001013
 50
147.0249334074901
 51
212.9750665934912
 73
     0
 72
     2
 10
7.612541391190416
 20
14.59999999997142
 40
0.8999999999736823
 50
280.7387642409434
 51
313.3417582281449
 73
     1
 72
     2
 10
9.499999999991253
 20
12.60000000000849
 40
1.849999999987793
 50
226.658241772818
 51
313.3417582272153
 73
     0
 72
     2
 10
11.3874586088101
 20
14.60000000000321
 40
0.9000000000091619
 50
226.6582417724787
 51
363.1847385364819
 73
     1
 72
     1
 10
12.28606864660003
 20
14.64999999999998
 11
48.39999999999998
 21
14.64999999999998
 97
        1
330
3CD2
 92
       16
 93
       41
 72
     1
 10
3.300000000000068
 20
6.600000000000022
 11
-1.899999999999977
 21
6.600000000000022
 72
     2
 10
-1.89999999999998
 20
7.600000000000019
 40
0.9999999999999964
 50
89.9999999999998
 51
180.0000000000002
 73
     0
 72
     1
 10
-2.899999999999977
 20
7.600000000000022
 11
-2.899999999999977
 21
17.51715728752538
 72
     1
 10
-2.899999999999977
 20
17.51715728752538
 11
-2.058578643862688
 21
18.35857864366272
 72
     2
 10
-2.200000000099976
 20
18.49999999989998
 40
0.1999999999999493
 50
315.0000000000058
 51
404.9999999999942
 73
     1
 72
     1
 10
-2.058578643862688
 20
18.64142135613724
 11
-2.899999999999977
 21
19.48284271227453
 72
     1
 10
-2.899999999999977
 20
19.48284271227453
 11
-2.899999999999977
 21
25.19999999999992
 72
     2
 10
-1.900000000000034
 20
25.19999999999999
 40
0.9999999999999431
 50
179.9999999999959
 51
269.9999999999968
 73
     0
 72
     1
 10
-1.900000000000091
 20
26.19999999999993
 11
6.0
 21
26.19999999999993
 72
     1
 10
6.0
 20
26.19999999999993
 11
6.0
 21
25.69999999999999
 72
     2
 10
6.200000000000045
 20
25.70000000000005
 40
0.2000000000000455
 50
180.0000000000163
 51
270.0
 73
     1
 72
     1
 10
6.200000000000045
 20
25.5
 11
10.79999999999995
 21
25.49999999999994
 72
     2
 10
10.79999999999995
 20
25.69999999999999
 40
0.2000000000000455
 50
270.0
 51
359.9999999999837
 73
     1
 72
     1
 10
11.0
 20
25.69999999999993
 11
11.0
 21
26.19999999999993
 72
     1
 10
11.0
 20
26.19999999999993
 11
18.0
 21
26.19999999999993
 72
     1
 10
18.0
 20
26.19999999999993
 11
18.0
 21
25.69999999999999
 72
     2
 10
18.20000000000004
 20
25.70000000000005
 40
0.2000000000000455
 50
180.0000000000163
 51
270.0
 73
     1
 72
     1
 10
18.20000000000004
 20
25.5
 11
25.79999999999996
 21
25.5
 72
     2
 10
25.79999999999996
 20
25.70000000000005
 40
0.2000000000000455
 50
270.0
 51
359.9999999999837
 73
     1
 72
     1
 10
26.0
 20
25.69999999999999
 11
26.0
 21
26.19999999999993
 72
     1
 10
26.0
 20
26.19999999999993
 11
47.39999999999997
 21
26.19999999999993
 72
     2
 10
47.39999999999997
 20
25.19999999999993
 40
1.0
 50
270.0
 51
360.0
 73
     0
 72
     1
 10
48.39999999999998
 20
25.19999999999993
 11
48.39999999999998
 21
22.69973793199995
 72
     2
 10
47.89999999999998
 20
22.69973793199995
 40
0.5
 50
360.0
 51
450.0
 73
     0
 72
     1
 10
47.89999999999998
 20
22.19973793199995
 11
44.33726783650003
 21
22.19973793200001
 72
     2
 10
44.33726783649725
 20
21.39973793200785
 40
0.7999999999921528
 50
89.99999999980103
 51
269.1942037227034
 73
     1
 72
     2
 10
44.29999999997504
 20
18.74999999995287
 40
1.85000000004748
 50
270.8057962778577
 51
358.3417582279568
 73
     0
 72
     2
 10
47.04884834377375
 20
18.82957878079455
 40
0.8999999998734537
 50
181.6582417726819
 51
214.2612357598837
 73
     1
 72
     2
 10
44.2999999999662
 20
18.75000000001228
 40
2.050000000035708
 50
12.02493340714006
 51
77.9750665931389
 73
     0
 72
     2
 10
44.22042121907559
 20
16.00115165616225
 40
0.8999999999623454
 50
55.73876423637821
 51
88.34175822367841
 73
     1
 72
     2
 10
44.30000000000508
 20
18.74999999998898
 40
1.84999999998914
 50
91.65824177296551
 51
179.1942037230631
 73
     0
 72
     2
 10
41.65026206799223
 20
18.7127321635027
 40
0.8000000000078641
 50
0.8057962768946966
 51
180.8057962768952
 73
     1
 72
     2
 10
44.29999999997114
 20
18.74999999990479
 40
3.449999999969739
 50
180.8057962755274
 51
210.4196217138265
 73
     1
 72
     2
 10
40.89375573390003
 20
16.75000000000004
 40
0.5000000000000434
 50
329.5803782846089
 51
450.0000000000056
 73
     0
 72
     1
 10
40.89375573389998
 20
16.25
 11
9.499999999999985
 21
16.25
 72
     2
 10
9.500000000007281
 20
12.60000000000484
 40
3.649999999995158
 50
90.00000000011452
 51
208.8113797094123
 73
     1
 72
     2
 10
5.863724432899658
 20
10.60000000000029
 40
0.5000000000002705
 50
331.1886202907593
 51
449.9999999999642
 73
     0
 72
     1
 10
5.863724432899971
 20
10.10000000000002
 11
5.40000000000009
 21
10.10000000000002
 72
     2
 10
5.400000000000093
 20
8.499999999999996
 40
1.600000000000026
 50
90.00000000000007
 51
180.0000000000002
 73
     1
 72
     1
 10
3.800000000000068
 20
8.499999999999989
 11
3.800000000000068
 21
7.100000000000022
 72
     2
 10
3.300000000000069
 20
7.100000000000021
 40
0.4999999999999992
 50
359.9999999999999
 51
450.0
 73
     0
 97
        1
330
3CD3
 75
     0
 76
     1
 98
        1
 10
0.0
 20
0.0
  0
ENDBLK
  5
26AA
330
26A8
100
AcDbEntity
  8
0
100
AcDbBlockEnd
  0
BLOCK
  5
26B9
330
26B8
100
AcDbEntity
  8
0
100
AcDbBlockBegin
  2
08022
 70
     0
 10
0.0
 20
-0.0000000000000031
 30
0.0
  3
08022
  1
08022.dwg
  0
LWPOLYLINE
  5
3CD8
102
{ACAD_REACTORS
330
3CDA
102
}
330
26B8
100
AcDbEntity
  8
APL Joinery
  6
Continuous
100
AcDbPolyline
 90
       45
 70
     1
 43
0.0
 10
2.378679656439999
 20
5.230151519017908
 10
12.54644660940636
 20
15.39791847198324
 42
-0.6681786379192798
 10
13.39999999999963
 20
15.04436508139042
 10
13.39999999999963
 20
0.9764718625768582
 42
0.1989123673796311
 10
13.5464466094063
 20
0.6229184719836099
 10
16.72291847198255
 20
-2.553553390593094
 42
0.1989123673796875
 10
17.07647186257588
 20
-2.699999999999818
 10
19.05004950616257
 20
-2.699999999999717
 42
3.927182716063912
 10
19.05004950616325
 20
-1.599999999999454
 10
17.32499999999982
 20
-1.599999999999454
 10
14.5
 20
1.225000000000363
 10
14.50000000000004
 20
4.500000000000994
 42
0.9999999999975839
 10
14.50000000000005
 20
5.300000000001006
 10
14.5
 20
8.900000000001
 10
16.5
 20
8.900000000000545
 42
0.4142135623730951
 10
17.0
 20
9.400000000000545
 10
17.0
 20
10.95000000000073
 42
0.9999999999999998
 10
16.0
 20
10.95000000000073
 10
16.0
 20
10.20000000000027
 10
14.5
 20
10.20000000000073
 10
14.5
 20
15.70000000000073
 10
16.0
 20
15.70000000000073
 10
16.0
 20
14.95000000000073
 42
0.9999999999999998
 10
17.0
 20
14.95000000000073
 10
17.0
 20
16.50000000000091
 42
0.4142135623730951
 10
16.5
 20
17.00000000000091
 10
15.30000000000018
 20
17.00000000000091
 10
15.30000000000018
 20
18.50000000000091
 42
0.4142135623730951
 10
14.80000000000018
 20
19.00000000000045
 10
0.25
 20
19.00000000000045
 42
0.4142135623730951
 10
0.0
 20
18.75000000000045
 10
0.0
 20
0.2878679656446379
 42
0.4142135623731034
 10
0.2878679656441818
 20
0.0000000000001137
 10
2.25
 20
0.0000000000009095
 42
-0.4142135623730951
 10
2.5
 20
-0.2499999999990905
 10
2.5
 20
-1.353553390602428
 10
2.073223304703788
 20
-1.780330085899549
 42
0.414213562373048
 10
2.073223304703333
 20
-2.133883476492371
 10
3.173223304703242
 20
-3.233883476489609
 42
0.6681786379193531
 10
3.600000000000306
 20
-3.057106781193397
 10
3.600000000000363
 20
0.6000000000003638
 42
0.4142135623730951
 10
3.100000000000363
 20
1.100000000000363
 10
2.0
 20
1.100000000000818
 42
-0.4142135623730951
 10
1.5
 20
1.600000000000363
 10
1.5
 20
3.108831175458334
 42
-0.1989123673796531
  0
LWPOLYLINE
  5
3CD9
102
{ACAD_REACTORS
330
3CDA
102
}
330
26B8
100
AcDbEntity
  8
APL Joinery
  6
Continuous
100
AcDbPolyline
 90
        6
 70
     1
 43
0.0
 10
12.28578643762648
 20
17.900000000001
 10
1.600000000000363
 20
17.90000000000009
 42
0.4142135623730951
 10
1.100000000000363
 20
17.40000000000009
 10
1.100000000000363
 20
6.714213562373515
 42
0.6681786379193371
 10
1.953553390592787
 20
6.360660171779727
 10
12.63933982822055
 20
17.04644660940715
 42
0.6681786379193227
  0
HATCH
  5
3CDA
330
26B8
100
AcDbEntity
  8
APL Hatch
100
AcDbHatch
 10
0.0
 20
0.0
 30
0.0
210
0.0
220
0.0
230
1.0
  2
SOLID
 70
     1
 71
     1
 91
        2
 92
       16
 93
        6
 72
     1
 10
12.28578643762648
 20
17.900000000001
 11
1.600000000000363
 21
17.90000000000009
 72
     2
 10
1.600000000000363
 20
17.40000000000009
 40
0.5
 50
90.0
 51
180.0
 73
     1
 72
     1
 10
1.100000000000363
 20
17.40000000000009
 11
1.100000000000363
 21
6.714213562373515
 72
     2
 10
1.600000000000034
 20
6.714213562373055
 40
0.4999999999996707
 50
179.9999999999473
 51
314.9999999999534
 73
     1
 72
     1
 10
1.953553390592787
 20
6.360660171779727
 11
12.63933982822055
 21
17.04644660940715
 72
     2
 10
12.28578643762678
 20
17.40000000000055
 40
0.5000000000004449
 50
315.0000000000298
 51
450.0000000000335
 73
     1
 97
        1
330
3CD9
 92
        1
 93
       45
 72
     1
 10
2.378679656439999
 20
5.230151519017908
 11
12.54644660940636
 21
15.39791847198324
 72
     2
 10
12.89999999999972
 20
15.04436508139018
 40
0.4999999999999136
 50
224.9999999999755
 51
359.9999999999726
 73
     0
 72
     1
 10
13.39999999999963
 20
15.04436508139042
 11
13.39999999999963
 21
0.976471862576858
 72
     2
 10
13.89999999999964
 20
0.9764718625768246
 40
0.5000000000000018
 50
179.9999999999962
 51
224.9999999999903
 73
     1
 72
     1
 10
13.5464466094063
 20
0.6229184719836099
 11
16.72291847198255
 21
-2.553553390593094
 72
     2
 10
17.07647186257582
 20
-2.199999999999816
 40
0.5000000000000028
 50
225.0000000000004
 51
270.0000000000069
 73
     1
 72
     1
 10
17.07647186257588
 20
-2.699999999999818
 11
19.05004950616257
 21
-2.699999999999717
 72
     2
 10
20.0599999999988
 20
-2.150000000000205
 40
1.149999999999781
 50
208.5718781422871
 51
511.4281218576425
 73
     1
 72
     1
 10
19.05004950616325
 20
-1.599999999999454
 11
17.32499999999982
 21
-1.599999999999454
 72
     1
 10
17.32499999999982
 20
-1.599999999999454
 11
14.5
 21
1.225000000000363
 72
     1
 10
14.5
 20
1.225000000000363
 11
14.50000000000004
 21
4.500000000000994
 72
     2
 10
14.49999999999908
 20
4.900000000001
 40
0.4000000000000057
 50
270.0000000001377
 51
449.9999999998608
 73
     1
 72
     1
 10
14.50000000000005
 20
5.300000000001006
 11
14.5
 21
8.900000000001
 72
     1
 10
14.5
 20
8.900000000001
 11
16.5
 21
8.900000000000545
 72
     2
 10
16.5
 20
9.400000000000545
 40
0.5
 50
270.0
 51
360.0
 73
     1
 72
     1
 10
17.0
 20
9.400000000000545
 11
17.0
 21
10.95000000000073
 72
     2
 10
16.5
 20
10.95000000000073
 40
0.5
 50
0.0
 51
180.0
 73
     1
 72
     1
 10
16.0
 20
10.95000000000073
 11
16.0
 21
10.20000000000027
 72
     1
 10
16.0
 20
10.20000000000027
 11
14.5
 21
10.20000000000073
 72
     1
 10
14.5
 20
10.20000000000073
 11
14.5
 21
15.70000000000073
 72
     1
 10
14.5
 20
15.70000000000073
 11
16.0
 21
15.70000000000073
 72
     1
 10
16.0
 20
15.70000000000073
 11
16.0
 21
14.95000000000073
 72
     2
 10
16.5
 20
14.95000000000073
 40
0.5
 50
180.0
 51
360.0
 73
     1
 72
     1
 10
17.0
 20
14.95000000000073
 11
17.0
 21
16.50000000000091
 72
     2
 10
16.5
 20
16.50000000000091
 40
0.5
 50
0.0
 51
90.0
 73
     1
 72
     1
 10
16.5
 20
17.00000000000091
 11
15.30000000000018
 21
17.00000000000091
 72
     1
 10
15.30000000000018
 20
17.00000000000091
 11
15.30000000000018
 21
18.50000000000091
 72
     2
 10
14.80000000000041
 20
18.50000000000068
 40
0.4999999999997727
 50
0.0000000000260551
 51
90.00000000002605
 73
     1
 72
     1
 10
14.80000000000018
 20
19.00000000000045
 11
0.25
 21
19.00000000000045
 72
     2
 10
0.25
 20
18.75000000000045
 40
0.25
 50
90.0
 51
180.0
 73
     1
 72
     1
 10
0.0
 20
18.75000000000045
 11
0.0
 21
0.2878679656446366
 72
     2
 10
0.2878679656443489
 20
0.2878679656444626
 40
0.2878679656443489
 50
179.9999999999651
 51
269.9999999999667
 73
     1
 72
     1
 10
0.2878679656441818
 20
0.0000000000001137
 11
2.25
 21
0.0000000000009095
 72
     2
 10
2.25
 20
-0.2499999999990905
 40
0.25
 50
270.0
 51
360.0
 73
     0
 72
     1
 10
2.5
 20
-0.2499999999990905
 11
2.5
 21
-1.353553390602428
 72
     1
 10
2.5
 20
-1.353553390602428
 11
2.073223304703788
 21
-1.780330085899549
 72
     2
 10
2.25
 20
-1.957106781196188
 40
0.2499999999997006
 50
134.9999999999309
 51
224.9999999999217
 73
     1
 72
     1
 10
2.073223304703333
 20
-2.133883476492371
 11
3.173223304703242
 21
-3.233883476489609
 72
     2
 10
3.350000000000188
 20
-3.057106781193114
 40
0.2500000000001182
 50
224.9999999999268
 51
359.9999999999353
 73
     1
 72
     1
 10
3.600000000000306
 20
-3.057106781193397
 11
3.600000000000363
 21
0.6000000000003638
 72
     2
 10
3.100000000000363
 20
0.6000000000003638
 40
0.5
 50
0.0
 51
90.0
 73
     1
 72
     1
 10
3.100000000000363
 20
1.100000000000363
 11
2.0
 21
1.100000000000818
 72
     2
 10
1.999999999999772
 20
1.600000000000591
 40
0.4999999999997727
 50
89.99999999997395
 51
179.9999999999739
 73
     0
 72
     1
 10
1.5
 20
1.600000000000363
 11
1.5
 21
3.108831175458334
 72
     2
 10
4.499999999999806
 20
3.108831175458704
 40
2.999999999999806
 50
179.9999999999929
 51
224.9999999999918
 73
     0
 97
        1
330
3CD8
 75
     0
 76
     1
 98
        1
 10
0.0
 20
0.0
  0
ENDBLK
  5
26BA
330
26B8
100
AcDbEntity
  8
0
100
AcDbBlockEnd
  0
BLOCK
  5
26ED
330
26EC
100
AcDbEntity
  8
0
100
AcDbBlockBegin
  2
9010317
 70
     0
 10
0.0
 20
0.0
 30
0.0
  3
9010317
  1
9010317.dwg
  0
LWPOLYLINE
  5
3CDC
330
26EC
100
AcDbEntity
  8
APL Joinery
  6
Continuous
 62
   252
100
AcDbPolyline
 90
       12
 70
     1
 43
0.0
 10
-1.260557280899964
 20
-1.021114561800001
 10
1.439442719099853
 20
-2.371114561800025
 42
-0.4884978633711547
 10
1.501611632788765
 20
-2.680437390356985
 10
0.7778238181522355
 20
-3.52171957232341
 42
0.6414138097735301
 10
1.914911064067338
 20
-6.0
 10
4.200000000000001
 20
-6.000000000000001
 42
-0.4142135623730951
 10
5.200000000000001
 20
-7.000000000000001
 10
5.199999999999999
 20
-10.5
 42
-0.4142135623730951
 10
4.699999999999999
 20
-11.0
 10
-0.5499999999999999
 20
-11.0
 42
-0.4142135623730951
 10
-1.549999999999999
 20
-10.0
 10
-1.549999999999997
 20
-1.199999999999987
 42
-0.5575365158350433
  0
ENDBLK
  5
26EE
330
26EC
100
AcDbEntity
  8
0
100
AcDbBlockEnd
  0
BLOCK
  5
26F7
330
26F6
100
AcDbEntity
  8
0
100
AcDbBlockBegin
  2
19mmliner
 70
     0
 10
110.739951507863
 20
355.7623510830485
 30
0.0
  3
19mmliner
  1
19mmliner.dwg
  0
LINE
  5
32E7
330
26F6
100
AcDbEntity
  8
APL Joinery
 62
     3
100
AcDbLine
 10
110.739951507863
 20
336.7623510830484
 30
0.0
 11
160.7399515078631
 21
336.7623510830485
 31
0.0
  0
LINE
  5
32E8
330
26F6
100
AcDbEntity
  8
APL Joinery
 62
     3
100
AcDbLine
 10
110.739951507863
 20
355.7623510830485
 30
0.0
 11
177.7399515078631
 21
355.7623510830485
 31
0.0
  0
LINE
  5
32E9
330
26F6
100
AcDbEntity
  8
APL Joinery
 62
     8
100
AcDbLine
 10
136.9304814615635
 20
338.5194764502585
 30
0.0
 11
148.1588522325407
 21
350.7651184192899
 31
0.0
  0
SPLINE
  5
32EA
330
26F6
100
AcDbEntity
  8
APL Joinery
 62
     8
100
AcDbSpline
210
0.0
220
0.0
230
1.0
 70
     8
 71
     3
 72
    14
 73
    10
 74
     8
 42
0.0000000001
 43
0.0000000001
 44
0.0000000001
 40
0.0
 40
0.0
 40
0.0
 40
0.0
 40
8.267050822299994
 40
20.90203347130239
 40
31.18486054127779
 40
41.04700630219173
 40
47.37085711970707
 40
52.62972264650577
 40
55.04603969815228
 40
55.04603969815228
 40
55.04603969815228
 40
55.04603969815228
 10
112.962024863876
 20
352.4416363673449
 30
0.0
 10
115.710435231041
 20
352.6547702152513
 30
0.0
 10
122.6593903931888
 20
353.1936480954732
 30
0.0
 10
133.0603500725692
 20
353.1446097782715
 30
0.0
 10
143.9830780527489
 20
353.7000992866996
 30
0.0
 10
152.8130144084047
 20
352.2948735856875
 30
0.0
 10
159.402266048835
 20
349.3943549626646
 30
0.0
 10
163.2730412780899
 20
346.7537889098187
 30
0.0
 10
165.2352067994704
 20
345.1119730676722
 30
0.0
 10
165.8529398578057
 20
344.5950931661851
 30
0.0
 11
112.962024863876
 21
352.4416363673449
 31
0.0
 11
121.2107623821955
 21
352.9915987772956
 31
0.0
 11
133.8426794995448
 21
353.2699088220463
 31
0.0
 11
144.1252702312661
 21
353.3396253547937
 31
0.0
 11
153.8351469582417
 21
351.6132960245525
 31
0.0
 11
159.6232888309603
 21
349.0660420475272
 31
0.0
 11
163.9838780752223
 21
346.1264964922112
 31
0.0
 11
165.8529398578057
 21
344.5950931661851
 31
0.0
  0
SPLINE
  5
32EB
330
26F6
100
AcDbEntity
  8
APL Joinery
 62
     8
100
AcDbSpline
210
0.0
220
0.0
230
1.0
 70
     8
 71
     3
 72
    13
 73
     9
 74
     7
 42
0.0000000001
 43
0.0000000001
 44
0.0000000001
 40
0.0
 40
0.0
 40
0.0
 40
0.0
 40
7.873644080568313
 40
17.07129258656329
 40
24.77081643184663
 40
33.27528257512341
 40
39.90117587444498
 40
45.52268627951728
 40
45.52268627951728
 40
45.52268627951728
 40
45.52268627951728
 10
117.2336493875612
 20
346.4777841475926
 30
0.0
 10
119.8422678032878
 20
346.8000537066384
 30
0.0
 10
125.4981607755736
 20
347.4987845456142
 30
0.0
 10
133.7781962604838
 20
347.1223878341504
 30
0.0
 10
142.2036965073619
 20
346.5273623865884
 30
0.0
 10
149.7800610034507
 20
345.0750496880203
 30
0.0
 10
155.8214982068499
 20
341.4387446299347
 30
0.0
 10
158.650253791137
 20
338.4840976402127
 30
0.0
 10
159.9486415420667
 20
337.1279262265049
 30
0.0
 11
117.2336493875612
 21
346.4777841475926
 31
0.0
 11
125.0702377681257
 21
347.2407740958025
 31
0.0
 11
134.2660784444942
 21
347.0584219785152
 31
0.0
 11
141.9373280562645
 21
346.3991823877746
 31
0.0
 11
150.2087695760063
 21
344.4220128028292
 31
0.0
 11
155.8982514277181
 21
341.0260949190992
 31
0.0
 11
159.9486415420667
 21
337.1279262265049
 31
0.0
  0
LINE
  5
32EC
330
26F6
100
AcDbEntity
  8
APL Joinery
 62
     3
100
AcDbLine
 10
110.739951507863
 20
336.7623510830484
 30
0.0
 11
110.739951507863
 21
355.7623510830485
 31
0.0
  0
LINE
  5
32ED
330
26F6
100
AcDbEntity
  8
APL Joinery
 62
     8
100
AcDbLine
 10
130.1934589989773
 20
339.0760965397599
 30
0.0
 11
127.6670755755074
 21
350.2084983297885
 31
0.0
  0
SPLINE
  5
32EE
330
26F6
100
AcDbEntity
  8
APL Joinery
 62
     8
100
AcDbSpline
210
0.0
220
0.0
230
1.0
 70
     8
 71
     3
 72
    15
 73
    11
 74
     9
 42
0.0000000001
 43
0.0000000001
 44
0.0000000001
 40
0.0
 40
0.0
 40
0.0
 40
0.0
 40
4.844139449286539
 40
10.54193621031332
 40
16.07410556410715
 40
19.51351901015936
 40
22.27929741151003
 40
25.6710732269026
 40
27.95241956603697
 40
30.23778869522836
 40
30.23778869522836
 40
30.23778869522836
 40
30.23778869522836
 10
115.8770369925237
 20
337.0554560822224
 30
0.0
 10
117.1487211363271
 20
338.1096881093439
 30
0.0
 10
119.9161916569408
 20
340.4039339495252
 30
0.0
 10
125.4540610404964
 20
340.8199775377686
 30
0.0
 10
130.238054618822
 20
341.7249569545736
 30
0.0
 10
134.1816997355666
 20
341.426500736041
 30
0.0
 10
137.2886936906936
 20
340.6778211815542
 30
0.0
 10
140.1492368439622
 20
340.581128745862
 30
0.0
 10
142.5350224188241
 20
339.1458380938952
 30
0.0
 10
143.2897884662015
 20
337.8009584142327
 30
0.0
 10
143.6675039241498
 20
337.1279262265049
 30
0.0
 11
115.8770369925237
 21
337.0554560822224
 31
0.0
 11
119.8746185322385
 21
339.7913341565277
 31
0.0
 11
125.4579300570243
 21
340.9277849241204
 31
0.0
 11
130.9542151154868
 21
341.556870224519
 31
0.0
 11
134.3846942728782
 21
341.3091251870553
 31
0.0
 11
137.1049409005003
 21
340.8093367815391
 31
0.0
 11
140.4461645861669
 21
340.2259265791753
 31
0.0
 11
142.3805274829412
 21
339.0164716181847
 31
0.0
 11
143.6675039241498
 21
337.1279262265049
 31
0.0
  0
LINE
  5
32EF
330
26F6
100
AcDbEntity
  8
APL Joinery
 62
     8
100
AcDbLine
 10
122.8950179978421
 20
338.2411664055077
 30
0.0
 11
112.4454077587423
 21
345.190146322691
 31
0.0
  0
LINE
  5
32F0
330
26F6
100
AcDbEntity
  8
APL Joinery
 62
     3
100
AcDbLine
 10
177.7399515078631
 20
336.7623510830485
 30
0.0
 11
170.7399515078631
 21
336.7623510830485
 31
0.0
  0
SPLINE
  5
32F1
330
26F6
100
AcDbEntity
  8
APL Joinery
 62
     8
100
AcDbSpline
210
0.0
220
0.0
230
1.0
 70
     8
 71
     3
 72
    11
 73
     7
 74
     5
 42
0.0000000001
 43
0.0000000001
 44
0.0000000001
 40
0.0
 40
0.0
 40
0.0
 40
0.0
 40
4.077163776164723
 40
7.378903861023069
 40
10.95052549711435
 40
14.90356917242528
 40
14.90356917242528
 40
14.90356917242528
 40
14.90356917242528
 10
165.2821176582808
 20
355.2180791353014
 30
0.0
 10
166.5726858318287
 20
354.7818781738363
 30
0.0
 10
168.9083728440546
 20
353.9924360185927
 30
0.0
 10
172.0610412556228
 20
352.0900882102073
 30
0.0
 10
174.6875300120783
 20
349.5844033021437
 30
0.0
 10
176.2507024700006
 20
347.6216106372748
 30
0.0
 10
177.0719069678068
 20
346.5904677480291
 30
0.0
 11
165.2821176582808
 21
355.2180791353014
 31
0.0
 11
169.0893137398045
 21
353.7591334699317
 31
0.0
 11
171.9114927001994
 21
352.0454259384479
 31
0.0
 11
174.5358983769054
 21
349.6228289939545
 31
0.0
 11
177.0719069678068
 21
346.5904677480291
 31
0.0
  0
LINE
  5
32F2
330
26F6
100
AcDbEntity
  8
APL Joinery
 62
     3
100
AcDbLine
 10
160.7399515078631
 20
343.7623510830484
 30
0.0
 11
170.7399515078631
 21
343.7623510830484
 31
0.0
  0
LINE
  5
32F3
330
26F6
100
AcDbEntity
  8
APL Joinery
 62
     8
100
AcDbLine
 10
145.9131780783453
 20
339.6327166292613
 30
0.0
 11
175.1069420828859
 21
352.7132887325449
 31
0.0
  0
LINE
  5
32F4
330
26F6
100
AcDbEntity
  8
APL Joinery
 62
     3
100
AcDbLine
 10
160.7399515078631
 20
336.7623510830485
 30
0.0
 11
160.7399515078631
 21
343.7623510830484
 31
0.0
  0
LINE
  5
32F5
330
26F6
100
AcDbEntity
  8
APL Joinery
 62
     3
100
AcDbLine
 10
170.7399515078631
 20
336.7623510830485
 30
0.0
 11
170.7399515078631
 21
343.7623510830484
 31
0.0
  0
LINE
  5
32F6
330
26F6
100
AcDbEntity
  8
APL Joinery
 62
     3
100
AcDbLine
 10
177.7399515078631
 20
336.7623510830485
 30
0.0
 11
177.7399515078631
 21
355.7623510830485
 31
0.0
  0
ENDBLK
  5
26F8
330
26F6
100
AcDbEntity
  8
0
100
AcDbBlockEnd
  0
BLOCK
  5
270C
330
270B
100
AcDbEntity
  8
0
100
AcDbBlockBegin
  2
08025
 70
     0
 10
0.0
 20
0.0
 30
0.0
  3
08025
  1
08025.dwg
  0
LWPOLYLINE
  5
3CDE
330
270B
100
AcDbEntity
  8
APL Joinery
  6
Continuous
100
AcDbPolyline
 90
       71
 70
     1
 43
0.0
 10
-5.976415094338976
 20
75.74503062088307
 42
-1.0
 10
-7.123584905659339
 20
76.86037873873407
 42
2.366997536942897
 10
-9.776415094338592
 20
76.86037873873384
 42
-0.9999999999999996
 10
-10.92358490565921
 20
75.74503062088247
 42
-0.1380297893446888
 10
-11.81481481481364
 20
77.38808054099871
 42
0.8944271909998759
 10
-12.99999999999966
 20
77.25557280899869
 10
-13.0
 20
73.19999999999983
 42
-0.4142135623731034
 10
-14.29999999999927
 20
71.8999999999998
 10
-16.75
 20
71.89999999999963
 42
-0.4142135623730951
 10
-17.0
 20
72.14999999999964
 10
-17.0
 20
73.94999999999981
 42
-0.9999999999999998
 10
-16.0
 20
73.94999999999981
 10
-16.0
 20
73.19999999999982
 10
-14.5
 20
73.19999999999982
 10
-14.5
 20
78.69999999999982
 10
-16.0
 20
78.69999999999982
 10
-16.0
 20
77.94999999999982
 42
-0.9999999999999998
 10
-17.0
 20
77.94999999999982
 10
-17.0
 20
79.75
 42
-0.4142135623730951
 10
-16.75
 20
80.0
 10
-15.29999999999927
 20
80.0
 10
-15.29999999999927
 20
81.75
 42
-0.4142135623730951
 10
-15.04999999999927
 20
82.0
 10
-0.5
 20
82.0
 42
-0.4142135623730951
 10
0.0
 20
81.5
 10
0.0
 20
0.25
 42
-0.4142135623730951
 10
-0.25
 20
0.0
 10
-1.75
 20
0.0
 42
-0.4142135623730951
 10
-2.0
 20
0.25
 10
-2.0
 20
3.0
 10
-2.716506350946133
 20
4.241025403784078
 42
-0.5773502691899033
 10
-2.5
 20
4.616025403784078
 10
-2.0
 20
4.616025403784078
 10
-2.0
 20
15.0
 42
0.4142135623730951
 10
-3.0
 20
16.0
 10
-45.0
 20
16.0
 42
0.4142135623730951
 10
-46.0
 20
15.0
 10
-46.0
 20
4.616025403784078
 10
-45.49999999999999
 20
4.616025403784078
 42
-0.5773502691899033
 10
-45.28349364905387
 20
4.241025403784078
 10
-46.0
 20
3.0
 10
-46.0
 20
0.25
 42
-0.4142135623730951
 10
-46.25
 20
0.0
 10
-47.75
 20
0.0
 42
-0.4142135623730951
 10
-48.0
 20
0.25
 10
-48.0
 20
62.75
 42
-0.4142135623730951
 10
-47.75
 20
62.99999999999977
 10
-46.97474487139152
 20
62.99999999999977
 42
-0.3563939586925993
 10
-45.50505102572162
 20
61.79999999999978
 42
-0.4744978678080451
 10
-45.75
 20
61.49999999999977
 10
-46.5
 20
61.49999999999977
 10
-46.5
 20
58.49999999999977
 10
-46.19999999999982
 20
58.49999999999977
 10
-46.19999999999959
 20
54.9999999999998
 42
0.4142135623731365
 10
-45.99999999999954
 20
54.79999999999995
 10
-34.04999999999973
 20
54.79999999999995
 42
0.4142135623730951
 10
-33.79999999999973
 20
55.04999999999995
 10
-33.79999999999973
 20
58.69999999999959
 42
-0.4142135623730951
 10
-33.30000000000018
 20
59.19999999999982
 10
-27.0
 20
59.19999999999982
 42
0.4142135623730951
 10
-26.5
 20
59.69999999999981
 10
-26.5
 20
61.5
 42
0.4142135623730951
 10
-27.0
 20
62.0
 10
-29.5
 20
62.0
 42
-0.9999999999999998
 10
-29.5
 20
63.0
 10
-4.0
 20
63.0
 42
0.4142135623730951
 10
-2.0
 20
65.0
 10
-2.0
 20
79.0
 42
0.4142135623730951
 10
-3.0
 20
80.0
 10
-4.737857761345367
 20
80.0
 42
0.5204832016756438
 10
-5.207749183959784
 20
79.32911392405056
 42
-0.2875912244633886
  0
LWPOLYLINE
  5
3CDF
330
270B
100
AcDbEntity
  8
APL Joinery
  6
Continuous
100
AcDbPolyline
 90
       38
 70
     1
 43
0.0
 10
-21.20500000000003
 20
52.38007812612234
 42
-1.000000000000035
 10
-22.49500000000033
 20
53.63542668329647
 42
2.368487253623623
 10
-25.50499999999999
 20
53.63542668329679
 42
-0.9999999999999998
 10
-26.7949999999997
 20
52.38007812612203
 42
-0.294049235910349
 10
-27.63300981702219
 20
56.51818181818175
 42
0.5279300905746681
 10
-28.09878030638401
 20
57.19999999999981
 10
-31.29999999999973
 20
57.19999999999981
 42
0.4142135623730953
 10
-31.79999999999973
 20
56.69999999999959
 10
-31.79999999999973
 20
55.04999999999916
 42
-0.4142135623730951
 10
-34.04999999999973
 20
52.79999999999915
 10
-35.83785776134539
 20
52.79999999999915
 42
0.5204832016756554
 10
-36.30774918395978
 20
52.12911392404979
 42
-0.2875912244633451
 10
-37.07641509433859
 20
48.54503062088269
 42
-0.9999999999999447
 10
-38.22358490566007
 20
49.66037873873442
 42
2.366997536942683
 10
-40.87641509433962
 20
49.6603787387341
 42
-0.9999999999999996
 10
-42.02358490566015
 20
48.54503062088284
 42
-0.2875912244633512
 10
-42.79225081603982
 20
52.12911392405
 42
0.5204832016754871
 10
-43.26214223865429
 20
52.79999999999995
 10
-45.0
 20
52.79999999999995
 42
0.4142135623730951
 10
-46.0
 20
51.79999999999996
 10
-46.0
 20
19.0
 42
0.4142135623730951
 10
-45.0
 20
18.0
 10
-28.0987803063835
 20
18.0
 42
0.5279300905750312
 10
-27.633009817022
 20
18.68181818181804
 42
-0.2940492359103961
 10
-26.79499999999963
 20
22.81992187387788
 42
-0.999999999999995
 10
-25.50500000000003
 20
21.56457331670345
 42
2.368487253623622
 10
-22.49499999999944
 20
21.56457331670337
 42
-0.9999999999999998
 10
-21.20500000000003
 20
22.81992187387796
 42
-0.2940492359103895
 10
-20.36699018297821
 20
18.68181818181819
 42
0.5279300905750869
 10
-19.90121969361644
 20
18.00000000000003
 10
-3.0
 20
18.0
 42
0.4142135623730951
 10
-2.0
 20
19.0
 10
-2.0
 20
60.0
 42
0.4142135623730951
 10
-3.0
 20
61.0
 10
-24.0
 20
61.0
 42
0.4142135623730951
 10
-24.5
 20
60.5
 10
-24.5
 20
59.50000000000091
 42
0.4142135623733615
 10
-23.99999999999999
 20
59.00000000000045
 42
-0.6632671881071989
  0
LWPOLYLINE
  5
3CE0
330
270B
100
AcDbEntity
  8
APL Joinery
  6
Continuous
100
AcDbPolyline
 90
        2
 70
     0
 43
0.0
 10
-46.19999999999982
 20
58.49999999999977
 10
-46.5
 20
58.49999999999977
  0
HATCH
  5
3CE1
330
270B
100
AcDbEntity
  8
APL Hatch
100
AcDbHatch
 10
0.0
 20
0.0
 30
0.0
210
0.0
220
0.0
230
1.0
  2
SOLID
 70
     1
 71
     0
 91
        3
 92
       16
 93
       38
 72
     2
 10
-21.8500000000002
 20
53.00775240470938
 40
0.8999999999999918
 50
44.22004442766737
 51
224.220044427671
 73
     0
 72
     2
 10
-24.0
 20
55.10000000000001
 40
2.099999999999763
 50
315.7799555723104
 51
584.2200444276774
 73
     1
 72
     2
 10
-26.14999999999984
 20
53.00775240470941
 40
0.8999999999999982
 50
315.7799555723034
 51
495.7799555723034
 73
     0
 72
     2
 10
-23.99999999999955
 20
55.10000000000042
 40
3.900000000000371
 50
135.779955572314
 51
201.323686263488
 73
     0
 72
     2
 10
-28.09878030638424
 20
56.69999999999967
 40
0.5000000000001489
 50
338.6763137365396
 51
449.9999999999739
 73
     1
 72
     1
 10
-28.09878030638401
 20
57.19999999999981
 11
-31.29999999999973
 21
57.19999999999981
 72
     2
 10
-31.29999999999962
 20
56.6999999999997
 40
0.5000000000001137
 50
90.00000000001303
 51
180.000000000013
 73
     1
 72
     1
 10
-31.79999999999973
 20
56.69999999999959
 11
-31.79999999999973
 21
55.04999999999916
 72
     2
 10
-34.04999999999973
 20
55.04999999999916
 40
2.25
 50
360.0
 51
450.0
 73
     0
 72
     1
 10
-34.04999999999973
 20
52.79999999999915
 11
-35.83785776134539
 21
52.79999999999915
 72
     2
 10
-35.83785776134542
 20
52.29999999999922
 40
0.4999999999999432
 50
89.99999999999674
 51
199.9848799707318
 73
     1
 72
     2
 10
-39.54999999999883
 20
50.94999999999886
 40
3.449999999999511
 50
340.0151200292695
 51
404.1942037229234
 73
     0
 72
     2
 10
-37.6499999999993
 20
49.10270467980859
 40
0.8000000000004362
 50
44.19420372292659
 51
224.1942037229201
 73
     0
 72
     2
 10
-39.55
 20
50.9499999999999
 40
1.850000000000208
 50
315.8057962770787
 51
584.1942037229356
 73
     1
 72
     2
 10
-41.44999999999988
 20
49.10270467980847
 40
0.7999999999999274
 50
315.8057962770656
 51
495.8057962770651
 73
     0
 72
     2
 10
-39.55000000000037
 20
50.94999999999972
 40
3.449999999999667
 50
135.8057962770628
 51
199.9848799707181
 73
     0
 72
     2
 10
-43.26214223865456
 20
52.2999999999996
 40
0.5000000000003546
 50
340.0151200292636
 51
449.999999999969
 73
     1
 72
     1
 10
-43.26214223865429
 20
52.79999999999995
 11
-45.0
 21
52.79999999999995
 72
     2
 10
-45.0
 20
51.79999999999996
 40
1.0
 50
90.0
 51
180.0
 73
     1
 72
     1
 10
-46.0
 20
51.79999999999996
 11
-46.0
 21
19.0
 72
     2
 10
-45.0
 20
19.0
 40
1.0
 50
180.0
 51
270.0
 73
     1
 72
     1
 10
-45.0
 20
18.0
 11
-28.0987803063835
 21
18.0
 72
     2
 10
-28.0987803063836
 20
18.49999999999982
 40
0.4999999999998224
 50
270.000000000011
 51
381.3236862635102
 73
     1
 72
     2
 10
-23.99999999999994
 20
20.09999999999965
 40
3.899999999999941
 50
158.6763137365051
 51
224.2200444276891
 73
     0
 72
     2
 10
-26.14999999999983
 20
22.19224759529066
 40
0.8999999999998459
 50
224.2200444276918
 51
404.2200444276912
 73
     0
 72
     2
 10
-23.99999999999977
 20
20.09999999999958
 40
2.100000000000411
 50
135.7799555723148
 51
404.220044427682
 73
     1
 72
     2
 10
-21.84999999999974
 20
22.19224759529067
 40
0.8999999999998367
 50
135.7799555723003
 51
315.7799555723006
 73
     0
 72
     2
 10
-24.00000000000003
 20
20.10000000000017
 40
3.899999999999854
 50
315.7799555723187
 51
381.3236862635013
 73
     0
 72
     2
 10
-19.90121969361648
 20
18.49999999999998
 40
0.4999999999999444
 50
158.6763137364954
 51
270.0000000000049
 73
     1
 72
     1
 10
-19.90121969361644
 20
18.00000000000003
 11
-3.0
 21
18.0
 72
     2
 10
-3.0
 20
19.0
 40
1.0
 50
270.0
 51
360.0
 73
     1
 72
     1
 10
-2.0
 20
19.0
 11
-2.0
 21
60.0
 72
     2
 10
-3.0
 20
60.0
 40
1.0
 50
0.0
 51
90.0
 73
     1
 72
     1
 10
-3.0
 20
61.0
 11
-24.0
 21
61.0
 72
     2
 10
-24.0
 20
60.5
 40
0.5
 50
90.0
 51
180.0
 73
     1
 72
     1
 10
-24.5
 20
60.5
 11
-24.5
 21
59.50000000000091
 72
     2
 10
-24.0
 20
59.50000000000045
 40
0.5000000000000036
 50
179.9999999999479
 51
270.0000000000004
 73
     1
 72
     2
 10
-23.99999999999971
 20
55.10000000000054
 40
3.899999999999906
 50
269.9999999999958
 51
404.2200444276889
 73
     0
 97
        0
 92
        1
 93
       71
 72
     2
 10
-6.549999999999158
 20
76.30270467980857
 40
0.7999999999997759
 50
44.19420372293214
 51
224.1942037229322
 73
     0
 72
     2
 10
-8.449999999999075
 20
78.14999999999961
 40
1.850000000000109
 50
315.805796277073
 51
584.1942037229367
 73
     1
 72
     2
 10
-10.3499999999989
 20
76.30270467980816
 40
0.7999999999999951
 50
315.8057962770647
 51
495.8057962770648
 73
     0
 72
     2
 10
-8.449999999998937
 20
78.1499999999994
 40
3.450000000000063
 50
135.8057962770678
 51
167.2412595831016
 73
     0
 72
     2
 10
-12.39999999999924
 20
77.25557280899863
 40
0.6000000000004224
 50
12.7587404168854
 51
179.9999999999945
 73
     1
 72
     1
 10
-12.99999999999966
 20
77.25557280899869
 11
-13.0
 21
73.19999999999983
 72
     2
 10
-14.29999999999963
 20
73.19999999999943
 40
1.299999999999631
 50
359.9999999999824
 51
449.9999999999841
 73
     0
 72
     1
 10
-14.29999999999927
 20
71.8999999999998
 11
-16.75
 21
71.89999999999963
 72
     2
 10
-16.75
 20
72.14999999999964
 40
0.25
 50
90.0
 51
180.0
 73
     0
 72
     1
 10
-17.0
 20
72.14999999999964
 11
-17.0
 21
73.94999999999981
 72
     2
 10
-16.5
 20
73.94999999999981
 40
0.5
 50
180.0
 51
360.0
 73
     0
 72
     1
 10
-16.0
 20
73.94999999999981
 11
-16.0
 21
73.19999999999982
 72
     1
 10
-16.0
 20
73.19999999999982
 11
-14.5
 21
73.19999999999982
 72
     1
 10
-14.5
 20
73.19999999999982
 11
-14.5
 21
78.69999999999982
 72
     1
 10
-14.5
 20
78.69999999999982
 11
-16.0
 21
78.69999999999982
 72
     1
 10
-16.0
 20
78.69999999999982
 11
-16.0
 21
77.94999999999982
 72
     2
 10
-16.5
 20
77.94999999999982
 40
0.5
 50
360.0
 51
540.0
 73
     0
 72
     1
 10
-17.0
 20
77.94999999999982
 11
-17.0
 21
79.75
 72
     2
 10
-16.75
 20
79.75
 40
0.25
 50
180.0
 51
270.0
 73
     0
 72
     1
 10
-16.75
 20
80.0
 11
-15.29999999999927
 21
80.0
 72
     1
 10
-15.29999999999927
 20
80.0
 11
-15.29999999999927
 21
81.75
 72
     2
 10
-15.04999999999927
 20
81.75
 40
0.25
 50
180.0
 51
270.0
 73
     0
 72
     1
 10
-15.04999999999927
 20
82.0
 11
-0.5
 21
82.0
 72
     2
 10
-0.5
 20
81.5
 40
0.5
 50
270.0
 51
360.0
 73
     0
 72
     1
 10
0.0
 20
81.5
 11
0.0
 21
0.25
 72
     2
 10
-0.25
 20
0.25
 40
0.25
 50
360.0
 51
450.0
 73
     0
 72
     1
 10
-0.25
 20
0.0
 11
-1.75
 21
0.0
 72
     2
 10
-1.75
 20
0.25
 40
0.25
 50
90.0
 51
180.0
 73
     0
 72
     1
 10
-2.0
 20
0.25
 11
-2.0
 21
3.0
 72
     1
 10
-2.0
 20
3.0
 11
-2.716506350946133
 21
4.241025403784078
 72
     2
 10
-2.500000000000115
 20
4.366025403784131
 40
0.2499999999999467
 50
149.9999999999788
 51
270.0000000000265
 73
     0
 72
     1
 10
-2.5
 20
4.616025403784078
 11
-2.0
 21
4.616025403784078
 72
     1
 10
-2.0
 20
4.616025403784078
 11
-2.0
 21
15.0
 72
     2
 10
-3.0
 20
15.0
 40
1.0
 50
0.0
 51
90.0
 73
     1
 72
     1
 10
-3.0
 20
16.0
 11
-45.0
 21
16.0
 72
     2
 10
-45.0
 20
15.0
 40
1.0
 50
90.0
 51
180.0
 73
     1
 72
     1
 10
-46.0
 20
15.0
 11
-46.0
 21
4.616025403784078
 72
     1
 10
-46.0
 20
4.616025403784078
 11
-45.49999999999999
 21
4.616025403784078
 72
     2
 10
-45.49999999999989
 20
4.366025403784131
 40
0.2499999999999467
 50
269.9999999999739
 51
390.0000000000209
 73
     0
 72
     1
 10
-45.28349364905387
 20
4.241025403784078
 11
-46.0
 21
3.0
 72
     1
 10
-46.0
 20
3.0
 11
-46.0
 21
0.25
 72
     2
 10
-46.25
 20
0.25
 40
0.25
 50
360.0
 51
450.0
 73
     0
 72
     1
 10
-46.25
 20
0.0
 11
-47.75
 21
0.0
 72
     2
 10
-47.75
 20
0.25
 40
0.25
 50
90.0
 51
180.0
 73
     0
 72
     1
 10
-48.0
 20
0.25
 11
-48.0
 21
62.75
 72
     2
 10
-47.75000000000011
 20
62.74999999999988
 40
0.2499999999998863
 50
180.000000000026
 51
270.000000000026
 73
     0
 72
     1
 10
-47.75
 20
62.99999999999977
 11
-46.97474487139152
 21
62.99999999999977
 72
     2
 10
-46.97474487139152
 20
61.49999999999979
 40
1.499999999999985
 50
270.0
 51
348.4630409671845
 73
     0
 72
     2
 10
-45.74999999999999
 20
61.74999999999982
 40
0.2500000000000405
 50
348.4630409671937
 51
450.0000000000016
 73
     0
 72
     1
 10
-45.75
 20
61.49999999999977
 11
-46.5
 21
61.49999999999977
 72
     1
 10
-46.5
 20
61.49999999999977
 11
-46.5
 21
58.49999999999977
 72
     1
 10
-46.5
 20
58.49999999999977
 11
-46.19999999999982
 21
58.49999999999977
 72
     1
 10
-46.19999999999982
 20
58.49999999999977
 11
-46.19999999999959
 21
54.9999999999998
 72
     2
 10
-45.99999999999965
 20
54.99999999999989
 40
0.1999999999999318
 50
180.0000000000244
 51
270.0000000000326
 73
     1
 72
     1
 10
-45.99999999999954
 20
54.79999999999995
 11
-34.04999999999973
 21
54.79999999999995
 72
     2
 10
-34.04999999999973
 20
55.04999999999995
 40
0.25
 50
270.0
 51
360.0
 73
     1
 72
     1
 10
-33.79999999999973
 20
55.04999999999995
 11
-33.79999999999973
 21
58.69999999999959
 72
     2
 10
-33.29999999999984
 20
58.69999999999993
 40
0.4999999999998864
 50
179.9999999999609
 51
269.9999999999609
 73
     0
 72
     1
 10
-33.30000000000018
 20
59.19999999999982
 11
-27.0
 21
59.19999999999982
 72
     2
 10
-27.0
 20
59.69999999999981
 40
0.5
 50
270.0
 51
360.0
 73
     1
 72
     1
 10
-26.5
 20
59.69999999999981
 11
-26.5
 21
61.5
 72
     2
 10
-27.0
 20
61.5
 40
0.5
 50
0.0
 51
90.0
 73
     1
 72
     1
 10
-27.0
 20
62.0
 11
-29.5
 21
62.0
 72
     2
 10
-29.5
 20
62.5
 40
0.5
 50
90.0
 51
270.0
 73
     0
 72
     1
 10
-29.5
 20
63.0
 11
-4.0
 21
63.0
 72
     2
 10
-4.0
 20
65.0
 40
2.0
 50
270.0
 51
360.0
 73
     1
 72
     1
 10
-2.0
 20
65.0
 11
-2.0
 21
79.0
 72
     2
 10
-3.0
 20
79.0
 40
1.0
 50
0.0
 51
90.0
 73
     1
 72
     1
 10
-3.0
 20
80.0
 11
-4.737857761345367
 21
80.0
 72
     2
 10
-4.737857761345374
 20
79.5
 40
0.5
 50
89.9999999999992
 51
199.9848799707316
 73
     1
 72
     2
 10
-8.449999999998823
 20
78.14999999999963
 40
3.449999999999505
 50
340.0151200292695
 51
404.1942037229326
 73
     0
 97
        0
 92
       49
 93
        2
 72
     2
 10
-8.450000000000816
 20
78.15000000000171
 40
10.30000000000014
 50
219.8497603995988
 51
220.578211739637
 73
     1
 72
     1
 10
-46.19999999999982
 20
58.49999999999977
 11
-46.5
 21
58.49999999999977
 97
        0
 75
     0
 76
     1
 98
        1
 10
0.0
 20
0.0
  0
ENDBLK
  5
270D
330
270B
100
AcDbEntity
  8
0
100
AcDbBlockEnd
  0
BLOCK
  5
3077
330
3076
100
AcDbEntity
  8
0
100
AcDbBlockBegin
  2
08022glaze
 70
     0
 10
0.0
 20
0.0
 30
0.0
  3
08022glaze
  1

  0
INSERT
  5
3079
330
3076
100
AcDbEntity
  8
APL Joinery
100
AcDbBlockReference
  2
6Glass
 10
35.49983707798776
 20
-19.00000000000068
 30
0.0
  0
INSERT
  5
307A
330
3076
100
AcDbEntity
  8
APL Joinery
100
AcDbBlockReference
  2
08022
 10
0.0
 20
0.0
 30
0.0
 41
-1.0
 50
180.0
  0
INSERT
  5
307B
330
3076
100
AcDbEntity
  8
APL Joinery
100
AcDbBlockReference
  2
9010260R
 10
15.29983707798794
 20
-17.00000000000125
 30
0.0
 50
180.0
  0
INSERT
  5
307C
330
3076
100
AcDbEntity
  8
APL Joinery
100
AcDbBlockReference
  2
9010312l
 10
32.6998370779878
 20
-17.00000000000102
 30
0.0
 50
180.0
  0
ENDBLK
  5
3078
330
3076
100
AcDbEntity
  8
0
100
AcDbBlockEnd
  0
BLOCK
  5
3080
330
307F
100
AcDbEntity
  8
0
100
AcDbBlockBegin
  2
08033
 70
     0
 10
0.0
 20
0.0
 30
0.0
  3
08033
  1
08033.dwg
  0
LWPOLYLINE
  5
3CE3
102
{ACAD_REACTORS
330
3CE4
102
}
330
307F
100
AcDbEntity
  8
APL Joinery
100
AcDbPolyline
 90
       94
 70
     1
 43
0.0
 10
-24.0
 20
21.0000000000001
 42
-0.4142135623736278
 10
-24.5
 20
21.5000000000001
 10
-24.5
 20
22.5000000000001
 42
-0.4142135623730951
 10
-24.0
 20
23.0000000000001
 10
-12.16214223860004
 20
23.0000000000001
 42
-0.5204832016754438
 10
-11.69225081604021
 20
22.3291139240493
 42
0.2875912244630764
 10
-10.92358490566069
 20
18.74503062087473
 42
1.00000000000003
 10
-9.776415094340352
 20
19.86037873873525
 42
-2.366997536941006
 10
-7.123584905660718
 20
19.86037873872538
 42
1.000000000000009
 10
-5.976415094338433
 20
18.74503062088459
 42
0.2875912244630795
 10
-5.207749183914528
 20
22.32911392405092
 42
-0.5204832016754506
 10
-4.737857761300006
 20
23.0000000000001
 10
-3.0
 20
23.0000000000001
 42
-0.4142135623730951
 10
-2.0
 20
22.0000000000001
 10
-2.0
 20
10.50270467980006
 42
0.4142135623730534
 10
-1.800000000000011
 20
10.30270467980004
 10
-1.600000000000022
 20
10.30270467980004
 10
-1.599999999999965
 20
0.2000000000000313
 42
0.4142135623731367
 10
-1.399999999999977
 20
0.0000000000000995
 10
-0.2000000000000455
 20
0.0000000000000142
 42
0.4142135623730951
 10
0.0
 20
0.2000000000000313
 10
0.0
 20
43.5000000000001
 42
0.4142135623730951
 10
-0.5
 20
44.0000000000001
 10
-15.05000000000007
 20
44.0000000000001
 42
0.4142135623730951
 10
-15.30000000000007
 20
43.75000000000009
 10
-15.30000000000007
 20
42.00000000000009
 10
-16.75
 20
42.00000000000009
 42
0.4142135623730951
 10
-17.0
 20
41.7500000000001
 10
-17.0
 20
39.95000000000003
 42
0.9999999999999998
 10
-16.0
 20
39.95000000000003
 10
-16.0
 20
40.70000000000002
 10
-14.5
 20
40.70000000000002
 10
-14.5
 20
35.20000000000003
 10
-16.0
 20
35.20000000000003
 10
-16.0
 20
35.95000000000003
 42
0.9999999999999998
 10
-17.0
 20
35.95000000000003
 10
-17.0
 20
34.15000000000008
 42
0.4142135623730951
 10
-16.75
 20
33.90000000000008
 10
-14.30000000000006
 20
33.90000000000002
 42
0.4142135623730868
 10
-13.0
 20
35.20000000000003
 10
-13.0
 20
41.0000000000001
 42
-0.4142135623730951
 10
-12.0
 20
42.00000000000009
 10
-3.0
 20
42.00000000000009
 42
-0.4142135623730951
 10
-2.0
 20
41.0000000000001
 10
-2.0
 20
27.0000000000001
 42
-0.4142135623730951
 10
-4.0
 20
25.0000000000001
 10
-29.5
 20
25.0000000000001
 42
0.9999999999999998
 10
-29.5
 20
24.0000000000001
 10
-27.0
 20
24.0000000000001
 42
-0.4142135623730951
 10
-26.5
 20
23.5000000000001
 10
-26.5
 20
21.70000000000003
 42
-0.4142135623730951
 10
-27.0
 20
21.20000000000003
 10
-33.30000000000007
 20
21.20000000000003
 42
0.4142135623730951
 10
-33.80000000000007
 20
20.70000000000003
 10
-33.80000000000007
 20
17.05000000000005
 42
-0.4142135623730951
 10
-34.05000000000007
 20
16.80000000000005
 10
-46.0
 20
16.80000000000005
 42
-0.4142135623731367
 10
-46.19999999999999
 20
17.0000000000001
 10
-46.20000000000004
 20
20.30000000000008
 42
0.4142135623730534
 10
-46.40000000000003
 20
20.5000000000001
 10
-46.5
 20
20.5000000000001
 10
-46.5
 20
23.5000000000001
 10
-45.75
 20
23.5000000000001
 42
0.4744978678079088
 10
-45.50505102572168
 20
23.80000000000004
 42
0.3563939586926741
 10
-46.9747448713
 20
25.0000000000001
 10
-47.75
 20
25.0000000000001
 42
0.4142135623730951
 10
-48.0
 20
24.7500000000001
 10
-48.0
 20
0.2000000000000313
 42
0.4142135623730951
 10
-47.80000000000007
 20
0.0000000000000142
 10
-46.60000000000002
 20
0.0000000000000995
 42
0.4142135623731367
 10
-46.40000000000003
 20
0.2000000000000313
 10
-46.39999999999997
 20
10.30270467980004
 10
-46.19999999999993
 20
10.30270467980007
 42
0.4142135623730951
 10
-45.99999999999994
 20
10.50270467980006
 10
-46.0
 20
13.80000000000005
 42
-0.4142135623730951
 10
-45.0
 20
14.80000000000005
 10
-43.26214223859563
 20
14.80000000000005
 42
-0.5204832016754507
 10
-42.7922508159811
 20
14.12911392405089
 42
0.2875912244630876
 10
-42.02358490565734
 20
10.54503062088453
 42
1.000000000000019
 10
-40.87641509433509
 20
11.66037873872546
 42
-2.366997536941006
 10
-38.22358490565546
 20
11.66037873873519
 42
0.9999999999999598
 10
-37.07641509433501
 20
10.54503062087477
 42
0.2875912244630795
 10
-36.30774918395559
 20
14.12911392404929
 42
-0.5204832016754307
 10
-35.83785776129583
 20
14.80000000000005
 10
-34.05000000000007
 20
14.80000000000005
 42
0.4142135623730951
 10
-31.80000000000007
 20
17.05000000000005
 10
-31.80000000000007
 20
18.70000000000003
 42
-0.4142135623730951
 10
-31.30000000000007
 20
19.20000000000003
 10
-28.0987803063
 20
19.20000000000003
 42
-0.5279300905745186
 10
-27.63300981693823
 20
18.51818181818185
 42
0.2940492359104622
 10
-26.79499999999923
 20
14.38007812612121
 42
0.9999999999999998
 10
-25.50500000000016
 20
15.63542668328751
 42
-2.368487253624519
 10
-22.49500000000041
 20
15.63542668329604
 42
1.0
 10
-21.20500000000077
 20
14.38007812612121
 42
0.6632671881072399
  0
HATCH
  5
3CE4
330
307F
100
AcDbEntity
  8
APL Hatch
100
AcDbHatch
 10
0.0
 20
0.0
 30
0.0
210
0.0
220
0.0
230
1.0
  2
SOLID
 70
     1
 71
     1
 91
        1
 92
        1
 93
       94
 72
     2
 10
-24.00000000000046
 20
21.49999999999964
 40
0.4999999999995453
 50
89.99999999994789
 51
180.0000000000521
 73
     0
 72
     1
 10
-24.5
 20
21.5000000000001
 11
-24.5
 21
22.5000000000001
 72
     2
 10
-24.0
 20
22.5000000000001
 40
0.5
 50
180.0
 51
270.0
 73
     0
 72
     1
 10
-24.0
 20
23.0000000000001
 11
-12.16214223860004
 21
23.0000000000001
 72
     2
 10
-12.16214223862796
 20
22.50000000001843
 40
0.499999999981668
 50
270.0000000031997
 51
379.9848799738965
 73
     0
 72
     2
 10
-8.449999999991701
 20
21.14999999999589
 40
3.450000000009256
 50
160.0151200292844
 51
224.1942037228816
 73
     1
 72
     2
 10
-10.3500000000005
 20
19.30270467980497
 40
0.8000000000030883
 50
224.1942037231756
 51
404.194203723179
 73
     1
 72
     2
 10
-8.449999999995734
 20
21.14999999999469
 40
1.849999999999353
 50
135.805796277314
 51
404.1942037231126
 73
     0
 72
     2
 10
-6.549999999999581
 20
19.30270467980498
 40
0.7999999999969015
 50
135.8057962773776
 51
315.8057962773786
 73
     1
 72
     2
 10
-8.449999999978626
 20
21.15000000003702
 40
3.450000000010404
 50
315.8057962764128
 51
379.9848799700106
 73
     1
 72
     2
 10
-4.737857761300007
 20
22.5000000000001
 40
0.5000000000000037
 50
160.0151200293018
 51
270.0000000000002
 73
     0
 72
     1
 10
-4.737857761300006
 20
23.0000000000001
 11
-3.0
 21
23.0000000000001
 72
     2
 10
-3.0
 20
22.0000000000001
 40
1.0
 50
270.0
 51
360.0
 73
     0
 72
     1
 10
-2.0
 20
22.0000000000001
 11
-2.0
 21
10.50270467980006
 72
     2
 10
-1.799999999999982
 20
10.50270467980006
 40
0.200000000000017
 50
180.0
 51
269.9999999999919
 73
     1
 72
     1
 10
-1.800000000000011
 20
10.30270467980004
 11
-1.600000000000022
 21
10.30270467980004
 72
     1
 10
-1.600000000000022
 20
10.30270467980004
 11
-1.599999999999965
 21
0.2000000000000313
 72
     2
 10
-1.400000000000019
 20
0.2000000000000455
 40
0.199999999999946
 50
180.000000000004
 51
270.0000000000122
 73
     1
 72
     1
 10
-1.399999999999977
 20
0.0000000000000995
 11
-0.2000000000000455
 21
0.0000000000000142
 72
     2
 10
-0.2000000000000313
 20
0.2000000000000455
 40
0.2000000000000313
 50
269.9999999999959
 51
359.9999999999959
 73
     1
 72
     1
 10
0.0
 20
0.2000000000000313
 11
0.0
 21
43.5000000000001
 72
     2
 10
-0.5
 20
43.5000000000001
 40
0.5
 50
0.0
 51
90.0
 73
     1
 72
     1
 10
-0.5
 20
44.0000000000001
 11
-15.05000000000007
 21
44.0000000000001
 72
     2
 10
-15.05000000000007
 20
43.75000000000009
 40
0.25
 50
90.0
 51
180.0
 73
     1
 72
     1
 10
-15.30000000000007
 20
43.75000000000009
 11
-15.30000000000007
 21
42.00000000000009
 72
     1
 10
-15.30000000000007
 20
42.00000000000009
 11
-16.75
 21
42.00000000000009
 72
     2
 10
-16.75
 20
41.7500000000001
 40
0.25
 50
90.0
 51
180.0
 73
     1
 72
     1
 10
-17.0
 20
41.7500000000001
 11
-17.0
 21
39.95000000000003
 72
     2
 10
-16.5
 20
39.95000000000003
 40
0.5
 50
180.0
 51
360.0
 73
     1
 72
     1
 10
-16.0
 20
39.95000000000003
 11
-16.0
 21
40.70000000000002
 72
     1
 10
-16.0
 20
40.70000000000002
 11
-14.5
 21
40.70000000000002
 72
     1
 10
-14.5
 20
40.70000000000002
 11
-14.5
 21
35.20000000000003
 72
     1
 10
-14.5
 20
35.20000000000003
 11
-16.0
 21
35.20000000000003
 72
     1
 10
-16.0
 20
35.20000000000003
 11
-16.0
 21
35.95000000000003
 72
     2
 10
-16.5
 20
35.95000000000003
 40
0.5
 50
0.0
 51
180.0
 73
     1
 72
     1
 10
-17.0
 20
35.95000000000003
 11
-17.0
 21
34.15000000000008
 72
     2
 10
-16.75
 20
34.15000000000008
 40
0.25
 50
180.0
 51
270.0
 73
     1
 72
     1
 10
-16.75
 20
33.90000000000008
 11
-14.30000000000006
 21
33.90000000000002
 72
     2
 10
-14.30000000000006
 20
35.20000000000008
 40
1.300000000000054
 50
269.9999999999995
 51
359.9999999999981
 73
     1
 72
     1
 10
-13.0
 20
35.20000000000003
 11
-13.0
 21
41.0000000000001
 72
     2
 10
-12.0
 20
41.0000000000001
 40
1.0
 50
180.0
 51
270.0
 73
     0
 72
     1
 10
-12.0
 20
42.00000000000009
 11
-3.0
 21
42.00000000000009
 72
     2
 10
-3.0
 20
41.0000000000001
 40
1.0
 50
270.0
 51
360.0
 73
     0
 72
     1
 10
-2.0
 20
41.0000000000001
 11
-2.0
 21
27.0000000000001
 72
     2
 10
-4.0
 20
27.0000000000001
 40
2.0
 50
360.0
 51
450.0
 73
     0
 72
     1
 10
-4.0
 20
25.0000000000001
 11
-29.5
 21
25.0000000000001
 72
     2
 10
-29.5
 20
24.5000000000001
 40
0.5
 50
90.0
 51
270.0
 73
     1
 72
     1
 10
-29.5
 20
24.0000000000001
 11
-27.0
 21
24.0000000000001
 72
     2
 10
-27.0
 20
23.5000000000001
 40
0.5
 50
270.0
 51
360.0
 73
     0
 72
     1
 10
-26.5
 20
23.5000000000001
 11
-26.5
 21
21.70000000000003
 72
     2
 10
-27.0
 20
21.70000000000003
 40
0.5
 50
360.0
 51
450.0
 73
     0
 72
     1
 10
-27.0
 20
21.20000000000003
 11
-33.30000000000007
 21
21.20000000000003
 72
     2
 10
-33.30000000000007
 20
20.70000000000003
 40
0.5
 50
90.0
 51
180.0
 73
     1
 72
     1
 10
-33.80000000000007
 20
20.70000000000003
 11
-33.80000000000007
 21
17.05000000000005
 72
     2
 10
-34.05000000000007
 20
17.05000000000005
 40
0.25
 50
360.0
 51
450.0
 73
     0
 72
     1
 10
-34.05000000000007
 20
16.80000000000005
 11
-46.0
 21
16.80000000000005
 72
     2
 10
-45.99999999999998
 20
17.00000000000005
 40
0.2000000000000028
 50
90.00000000000406
 51
180.0000000000122
 73
     0
 72
     1
 10
-46.19999999999999
 20
17.0000000000001
 11
-46.20000000000004
 21
20.30000000000008
 72
     2
 10
-46.40000000000006
 20
20.30000000000008
 40
0.200000000000017
 50
0.0
 51
89.99999999999186
 73
     1
 72
     1
 10
-46.40000000000003
 20
20.5000000000001
 11
-46.5
 21
20.5000000000001
 72
     1
 10
-46.5
 20
20.5000000000001
 11
-46.5
 21
23.5000000000001
 72
     1
 10
-46.5
 20
23.5000000000001
 11
-45.75
 21
23.5000000000001
 72
     2
 10
-45.75000000000005
 20
23.75000000000013
 40
0.2500000000000284
 50
270.0000000000114
 51
371.5369590327935
 73
     1
 72
     2
 10
-46.97474487134563
 20
23.5000000000564
 40
1.499999999943701
 50
11.53695903105742
 51
89.99999999825702
 73
     1
 72
     1
 10
-46.9747448713
 20
25.0000000000001
 11
-47.75
 21
25.0000000000001
 72
     2
 10
-47.75
 20
24.7500000000001
 40
0.25
 50
90.0
 51
180.0
 73
     1
 72
     1
 10
-48.0
 20
24.7500000000001
 11
-48.0
 21
0.2000000000000313
 72
     2
 10
-47.80000000000002
 20
0.1999999999999886
 40
0.1999999999999744
 50
179.9999999999878
 51
269.9999999999878
 73
     1
 72
     1
 10
-47.80000000000007
 20
0.0000000000000142
 11
-46.60000000000002
 21
0.0000000000000995
 72
     2
 10
-46.59999999999998
 20
0.2000000000000455
 40
0.199999999999946
 50
269.9999999999878
 51
359.9999999999959
 73
     1
 72
     1
 10
-46.40000000000003
 20
0.2000000000000313
 11
-46.39999999999997
 21
10.30270467980004
 72
     1
 10
-46.39999999999997
 20
10.30270467980004
 11
-46.19999999999993
 21
10.30270467980007
 72
     2
 10
-46.19999999999993
 20
10.50270467980006
 40
0.1999999999999886
 50
270.0
 51
360.0
 73
     1
 72
     1
 10
-45.99999999999994
 20
10.50270467980006
 11
-46.0
 21
13.80000000000005
 72
     2
 10
-45.0
 20
13.80000000000005
 40
1.0
 50
180.0
 51
270.0
 73
     0
 72
     1
 10
-45.0
 20
14.80000000000005
 11
-43.26214223859563
 21
14.80000000000005
 72
     2
 10
-43.26214223859562
 20
14.30000000000005
 40
0.4999999999999983
 50
269.9999999999992
 51
379.9848799706978
 73
     0
 72
     2
 10
-39.54999999996715
 20
12.94999999995709
 40
3.449999999990578
 50
160.0151200284579
 51
224.1942037220574
 73
     1
 72
     2
 10
-41.44999999999621
 20
11.10270467980498
 40
0.7999999999969418
 50
224.1942037226254
 51
404.1942037226275
 73
     1
 72
     2
 10
-39.55000000000001
 20
12.94999999999469
 40
1.84999999999935
 50
135.8057962768904
 51
404.1942037226891
 73
     0
 72
     2
 10
-37.64999999999521
 20
11.102704679805
 40
0.8000000000030883
 50
135.8057962768306
 51
315.8057962768257
 73
     1
 72
     2
 10
-39.55000000000397
 20
12.94999999999582
 40
3.450000000009152
 50
315.8057962771195
 51
379.9848799707174
 73
     1
 72
     2
 10
-35.83785776131788
 20
14.2999999999834
 40
0.5000000000166529
 50
160.0151200318326
 51
270.0000000025274
 73
     0
 72
     1
 10
-35.83785776129583
 20
14.80000000000005
 11
-34.05000000000007
 21
14.80000000000005
 72
     2
 10
-34.05000000000007
 20
17.05000000000005
 40
2.25
 50
270.0
 51
360.0
 73
     1
 72
     1
 10
-31.80000000000007
 20
17.05000000000005
 11
-31.80000000000007
 21
18.70000000000003
 72
     2
 10
-31.30000000000007
 20
18.70000000000003
 40
0.5
 50
180.0
 51
270.0
 73
     0
 72
     1
 10
-31.30000000000007
 20
19.20000000000003
 11
-28.0987803063
 21
19.20000000000003
 72
     2
 10
-28.09878030630041
 20
18.69999999999977
 40
0.5000000000002629
 50
270.0000000000468
 51
381.3236862634541
 73
     0
 72
     2
 10
-23.99999999995809
 20
17.09999999993491
 40
3.899999999984638
 50
158.676313735387
 51
224.220044426585
 73
     1
 72
     2
 10
-26.1499999999997
 20
15.00775240470436
 40
0.8999999999968231
 50
224.2200444275178
 51
404.2200444275179
 73
     1
 72
     2
 10
-24.00000000000443
 20
17.09999999999599
 40
2.100000000000385
 50
135.7799555721387
 51
404.2200444275368
 73
     0
 72
     2
 10
-21.85000000000059
 20
15.00775240470862
 40
0.8999999999999964
 50
135.7799555723002
 51
315.7799555723003
 73
     1
 72
     2
 10
-24.00000000000002
 20
17.10000000000005
 40
3.900000000000042
 50
315.7799555723001
 51
449.9999999999997
 73
     1
 97
        1
330
3CE3
 75
     0
 76
     1
 98
        1
 10
0.0
 20
0.0
  0
ENDBLK
  5
3081
330
307F
100
AcDbEntity
  8
0
100
AcDbBlockEnd
  0
BLOCK
  5
3198
330
3197
100
AcDbEntity
  8
0
100
AcDbBlockBegin
  2
vantage a4 SM border
 70
     0
 10
0.0
 20
0.0
 30
0.0
  3
vantage a4 SM border
  1
vantage a4 SM border.dwg
  0
TEXT
  5
3CE6
330
3197
100
AcDbEntity
  8
APL Border
100
AcDbText
 10
11.59500000000003
 20
3.979818213543524
 30
0.0
 40
1.5
  1
VANTAGE SPECIFIER'S GUIDE 2011:1     ARCHITECTURAL PROFILES LTD. NB. TECHNICAL SPECIFICATIONS SUBJECT TO CHANGE WITHOUT NOTICE.
 41
1.175568529931163
  7
Arial-Regular
 72
     5
 11
189.595
 21
3.979818213543524
 31
0.0
100
AcDbText
  0
LINE
  5
3CE7
330
3197
100
AcDbEntity
  8
APL Border
100
AcDbLine
 10
11.59500000000003
 20
6.189999999999997
 30
0.0
 11
189.595
 21
6.189999999999997
 31
0.0
  0
MTEXT
  5
3CE8
330
3197
100
AcDbEntity
  8
APL Border
100
AcDbMText
 10
57.55102029361978
 20
3.879818213543526
 30
0.0
 40
1.5
 41
0.0
 71
     8
 72
     5
  1
{\fCommercialPi BT|b0|i0|c2|p18;a}
  7
Arial-Regular
 73
     1
 44
1.0
1001
ACAD
1000
MTEXTBEGIN
1070
    73
1070
     1
1070
    44
1040
1.0
1070
    74
1070
     0
1000
MTEXTEND
  0
LINE
  5
3CE9
330
3197
100
AcDbEntity
  8
APL Border
100
AcDbLine
 10
189.595
 20
268.19
 30
0.0
 11
142.595
 21
268.19
 31
0.0
  0
LINE
  5
3CEA
330
3197
100
AcDbEntity
  8
APL Border
100
AcDbLine
 10
189.595
 20
282.19
 30
0.0
 11
189.595
 21
254.19
 31
0.0
  0
LINE
  5
3CEB
330
3197
100
AcDbEntity
  8
APL Border
100
AcDbLine
 10
166.095
 20
268.19
 30
0.0
 11
166.095
 21
254.19
 31
0.0
  0
LINE
  5
3CEC
330
3197
100
AcDbEntity
  8
APL Border
100
AcDbLine
 10
189.595
 20
254.19
 30
0.0
 11
24.99473224900737
 21
254.19
 31
0.0
  0
LINE
  5
3CED
330
3197
100
AcDbEntity
  8
APL Border
100
AcDbLine
 10
189.595
 20
282.19
 30
0.0
 11
24.99473224900737
 21
282.19
 31
0.0
  0
LINE
  5
3CEE
330
3197
100
AcDbEntity
  8
APL Border
100
AcDbLine
 10
142.595
 20
282.19
 30
0.0
 11
142.595
 21
254.19
 31
0.0
  0
TEXT
  5
3CEF
330
3197
100
AcDbEntity
  8
APL Border
100
AcDbText
 10
147.845
 20
273.69
 30
0.0
 40
2.5
  1
CAD REF.
  7
Arial-Regular
100
AcDbText
  0
TEXT
  5
3CF0
330
3197
100
AcDbEntity
  8
APL Border
100
AcDbText
 10
149.6877694406548
 20
262.19
 30
0.0
 40
2.5
  1
DATE
  7
Arial-Regular
 72
     1
 11
154.345
 21
262.19
 31
0.0
100
AcDbText
  0
TEXT
  5
3CF1
330
3197
100
AcDbEntity
  8
APL Border
100
AcDbText
 10
172.1185334242838
 20
262.19
 30
0.0
 40
2.5
  1
SCALE
  7
Arial-Regular
 72
     1
 11
177.845
 21
262.19
 31
0.0
100
AcDbText
  0
INSERT
  5
3CF2
102
{ACAD_XDICTIONARY
360
3CF3
102
}
330
3197
100
AcDbEntity
  8
APL Border
100
AcDbBlockReference
  2
vantage black & white logo
 10
24.99473224900737
 20
256.19
 30
0.0
 41
0.5
 42
0.5
 43
0.5
  0
LINE
  5
3D37
330
3197
100
AcDbEntity
  8
APL Border
100
AcDbLine
 10
24.99473224900737
 20
256.19
 30
0.0
 11
24.99473224900737
 21
254.19
 31
0.0
  0
LINE
  5
3D38
330
3197
100
AcDbEntity
  8
APL Border
100
AcDbLine
 10
24.99473224900716
 20
279.6304177948761
 30
0.0
 11
24.99473224900737
 21
282.19
 31
0.0
  0
ENDBLK
  5
3199
330
3197
100
AcDbEntity
  8
0
100
AcDbBlockEnd
  0
BLOCK
  5
32A8
330
32A7
100
AcDbEntity
  8
0
100
AcDbBlockBegin
  2
08004
 70
     0
 10
0.0
 20
0.0
 30
0.0
  3
08004
  1
08004.dwg
  0
LWPOLYLINE
  5
40CD
102
{ACAD_REACTORS
330
40CF
102
}
330
32A7
100
AcDbEntity
  8
APL Joinery
  6
Continuous
100
AcDbPolyline
 90
       84
 70
     1
 43
0.0
 10
0.365505767468477
 20
5.384615384612235
 42
-0.0048309960569738
 10
0.0000000000008527
 20
6.787032781469122
 10
0.0000000000014921
 20
11.74999999999998
 42
-0.414213562373095
 10
0.2500000000014779
 20
11.99999999999997
 10
1.750000000001492
 20
11.99999999999998
 42
-0.4142135623730951
 10
2.000000000001477
 20
11.74999999999997
 10
2.000000000001477
 20
8.099999999998516
 10
5.929108770945845
 20
8.099999999998487
 10
5.929108770945845
 20
14.49999999999998
 42
0.4142135623730951
 10
5.429108770945845
 20
14.99999999999994
 10
5.000000000001477
 20
14.99999999999998
 42
-0.4142135623730951
 10
3.000000000001477
 20
16.99999999999997
 10
3.000000000001477
 20
24.60000000000034
 10
3.400000000001114
 20
24.99999999999997
 10
3.000000000001477
 20
25.40000000000006
 10
3.000000000001506
 20
32.99999999999997
 42
-0.4142135623730951
 10
5.000000000001506
 20
34.99999999999995
 10
5.429108770945873
 20
34.99999999999997
 42
0.4142135623730951
 10
5.929108770945873
 20
35.49999999999994
 10
5.929108770945873
 20
41.90000000000139
 10
2.000000000001506
 20
41.90000000000142
 10
2.000000000001506
 20
38.24999999999997
 42
-0.4142135623730951
 10
1.750000000001506
 20
37.99999999999997
 10
0.2500000000015063
 20
37.99999999999997
 42
-0.4142135623730951
 10
0.0000000000015064
 20
38.24999999999997
 10
0.000000000001279
 20
43.21296721853253
 42
-0.004830996056968
 10
0.3655057674684206
 20
44.61538461538757
 42
-0.3386692097310372
 10
0.6068040311816106
 20
44.80000000000288
 10
2.079108770940052
 20
44.80000000000288
 42
-0.4142135623730951
 10
2.329108770940052
 20
44.55000000000288
 10
2.329108770940052
 20
43.90000000000142
 10
5.929108770945873
 20
43.9000000000014
 10
5.929108770945873
 20
47.99999999999994
 10
2.329108770940052
 20
47.99999999999997
 10
2.329108770940052
 20
47.35000000000215
 42
-0.4142135623730951
 10
2.079108770940052
 20
47.10000000000215
 10
1.424486495394859
 20
47.10000000000215
 42
-0.5062176410645378
 10
1.185922955642581
 20
47.42474916388272
 42
-0.0084581898357935
 10
1.985406388121106
 20
49.83277591973243
 42
-0.3184880486124246
 10
2.221304983098804
 20
49.99999999999997
 10
52.37499999999968
 20
49.99999999999994
 42
-0.9999999999999998
 10
52.37499999999968
 20
49.24999999999994
 10
52.00000000000151
 20
49.24999999999994
 10
52.00000000000151
 20
47.97474487139147
 42
-0.3563939586926118
 10
50.80000000000146
 20
46.50505102572163
 42
-0.4744978678080236
 10
50.5000000000015
 20
46.74999999999994
 10
50.5000000000015
 20
48.49999999999994
 10
48.20000000000042
 20
48.49999999999994
 10
48.20000000000042
 20
27.99999999999997
 42
0.4142135623730951
 10
48.70000000000039
 20
27.49999999999995
 10
50.5000000000015
 20
27.49999999999995
 42
0.4142135623730951
 10
51.00000000000147
 20
27.99999999999994
 10
51.0000000000015
 20
30.49999999999994
 42
-0.9999999999999998
 10
52.00000000000148
 20
30.49999999999994
 10
52.00000000000148
 20
25.99999999999994
 10
51.00000000000057
 20
24.99999999999995
 10
52.00000000000148
 20
23.99999999999995
 10
52.00000000000151
 20
19.49999999999995
 42
-1.0
 10
51.00000000000147
 20
19.49999999999994
 10
51.0000000000015
 20
21.99999999999994
 42
0.4142135623730951
 10
50.50000000000148
 20
22.49999999999994
 10
48.70000000000041
 20
22.49999999999997
 42
0.4142135623730951
 10
48.20000000000039
 20
21.99999999999994
 10
48.20000000000039
 20
1.499999999999943
 10
50.50000000000148
 20
1.499999999999943
 10
50.50000000000148
 20
3.249999999999957
 42
-0.4744978678080925
 10
50.80000000000147
 20
3.494948974278351
 42
-0.3563939586926026
 10
52.00000000000148
 20
2.025255128608421
 10
51.99999999999966
 20
0.7499999999999432
 10
52.37499999999966
 20
0.7499999999999574
 42
-0.9999999999999998
 10
52.37499999999966
 20
-0.0000000000000568
 10
2.221304983098775
 20
0.0000000000000142
 42
-0.3184880486124629
 10
1.98540638812112
 20
0.1672240802674452
 42
-0.0084581898358004
 10
1.18592295564224
 20
2.575250836118228
 42
-0.506217641064572
 10
1.42448649539483
 20
2.899999999997817
 10
2.079108770940024
 20
2.899999999997803
 42
-0.4142135623730951
 10
2.329108770940024
 20
2.649999999997788
 10
2.329108770940024
 20
1.999999999999971
 10
5.929108770945845
 20
1.999999999999943
 10
5.929108770945845
 20
6.099999999998487
 10
2.329108770940024
 20
6.099999999998516
 10
2.329108770940038
 20
5.449999999997046
 42
-0.4142135623730951
 10
2.079108770940024
 20
5.199999999997032
 10
0.6068040311815964
 20
5.199999999997132
 42
-0.3386692097310517
  0
LWPOLYLINE
  5
40CE
102
{ACAD_REACTORS
330
40CF
102
}
330
32A7
100
AcDbEntity
  8
APL Joinery
  6
Continuous
100
AcDbPolyline
 90
       43
 70
     1
 43
0.0
 10
32.20000000000039
 20
2.299999999999942
 42
0.4142135623730951
 10
32.00000000000038
 20
2.499999999999943
 10
30.40000000000039
 20
2.499999999999943
 42
0.4142135623730951
 10
30.20000000000039
 20
2.299999999999942
 10
30.20000000000039
 20
1.999999999999943
 10
20.00000000000148
 20
1.999999999999957
 10
20.00000000000148
 20
2.299999999999957
 42
0.4142135623730951
 10
19.80000000000148
 20
2.499999999999957
 10
18.20000000000147
 20
2.499999999999957
 42
0.4142135623730951
 10
18.00000000000148
 20
2.299999999999957
 10
18.00000000000148
 20
1.999999999999975
 10
8.929108770945845
 20
1.999999999999985
 42
-0.414213562373095
 10
7.929108770945845
 20
2.999999999999943
 10
7.929108770945845
 20
14.99999999999998
 42
0.4142135623730951
 10
5.929108770945845
 20
16.99999999999994
 10
5.500000000001477
 20
16.99999999999998
 42
-0.4142135623730951
 10
5.000000000001477
 20
17.49999999999994
 10
5.000000000001506
 20
32.49999999999997
 42
-0.4142135623730951
 10
5.500000000001506
 20
32.99999999999994
 10
5.929108770945873
 20
32.99999999999997
 42
0.4142135623730951
 10
7.929108770945873
 20
34.99999999999995
 10
7.929108770945873
 20
46.99999999999997
 42
-0.4142135623730951
 10
8.929108770945873
 20
47.99999999999994
 10
18.00000000000148
 20
47.99999999999997
 10
18.00000000000148
 20
47.69999999999997
 42
0.4142135623730951
 10
18.20000000000147
 20
47.49999999999997
 10
19.80000000000148
 20
47.49999999999997
 42
0.4142135623730951
 10
20.00000000000148
 20
47.69999999999997
 10
20.00000000000148
 20
47.99999999999997
 10
30.20000000000039
 20
47.99999999999994
 10
30.20000000000039
 20
47.69999999999995
 42
0.4142135623730951
 10
30.40000000000039
 20
47.49999999999994
 10
32.00000000000038
 20
47.49999999999994
 42
0.4142135623730951
 10
32.20000000000039
 20
47.69999999999995
 10
32.20000000000039
 20
47.99999999999994
 10
45.20000000000041
 20
47.99999999999997
 42
-0.4142135623730951
 10
46.20000000000041
 20
46.99999999999994
 10
46.20000000000039
 20
25.99999999999994
 10
47.20000000000129
 20
24.99999999999995
 10
46.20000000000039
 20
23.99999999999995
 10
46.20000000000039
 20
2.999999999999957
 42
-0.4142135623730951
 10
45.20000000000038
 20
1.999999999999943
 10
32.20000000000039
 20
1.999999999999943
  0
HATCH
  5
40CF
330
32A7
100
AcDbEntity
  8
APL Hatch
100
AcDbHatch
 10
0.0
 20
0.0
 30
0.0
210
0.0
220
0.0
230
1.0
  2
SOLID
 70
     1
 71
     1
 91
        2
 92
        7
 72
     1
 73
     1
 93
       84
 10
52.0000000000015
 20
49.24999999999993
 42
0.0
 10
52.37499999999969
 20
49.24999999999994
 42
1.0
 10
52.37499999999968
 20
49.99999999999994
 42
0.0
 10
2.221304983098811
 20
49.99999999999997
 42
0.3184880486124549
 10
1.985406388121116
 20
49.83277591973238
 42
0.0084581898357951
 10
1.185922955642431
 20
47.42474916388222
 42
0.5062176410645379
 10
1.424486495395386
 20
47.10000000000215
 42
0.0
 10
2.079108770940052
 20
47.10000000000215
 42
0.4142135623730951
 10
2.329108770940052
 20
47.35000000000215
 42
0.0
 10
2.329108770940052
 20
47.99999999999998
 42
0.0
 10
5.929108770945873
 20
47.99999999999993
 42
0.0
 10
5.929108770945873
 20
43.9000000000014
 42
0.0
 10
2.329108770940052
 20
43.90000000000142
 42
0.0
 10
2.329108770940052
 20
44.55000000000288
 42
0.4142135623730951
 10
2.079108770940052
 20
44.80000000000288
 42
0.0
 10
0.6068040311816044
 20
44.80000000000288
 42
0.3386692097311101
 10
0.3655057674683926
 20
44.61538461538751
 42
0.0048309960569677
 10
0.000000000001279
 20
43.21296721853257
 42
0.0
 10
0.0000000000015064
 20
38.24999999999996
 42
0.4142135623730784
 10
0.2500000000015063
 20
37.99999999999997
 42
0.0
 10
1.750000000001506
 20
37.99999999999997
 42
0.4142135623730951
 10
2.000000000001506
 20
38.24999999999997
 42
0.0
 10
2.000000000001506
 20
41.90000000000142
 42
0.0
 10
5.929108770945873
 20
41.90000000000139
 42
0.0
 10
5.929108770945873
 20
35.49999999999996
 42
-0.4142135623730758
 10
5.42910877094592
 20
34.99999999999997
 42
0.0
 10
5.000000000001359
 20
34.99999999999995
 42
0.4142135623730747
 10
3.000000000001506
 20
32.99999999999997
 42
0.0
 10
3.000000000001477
 20
25.40000000000006
 42
0.0
 10
3.400000000001113
 20
24.99999999999997
 42
0.0
 10
3.000000000001478
 20
24.60000000000034
 42
0.0
 10
3.000000000001477
 20
16.99999999999998
 42
0.414213562373066
 10
5.000000000001271
 20
14.99999999999998
 42
0.0
 10
5.429108770945916
 20
14.99999999999994
 42
-0.414213562373066
 10
5.929108770945845
 20
14.49999999999996
 42
0.0
 10
5.929108770945845
 20
8.099999999998487
 42
0.0
 10
2.000000000001477
 20
8.099999999998514
 42
0.0
 10
2.000000000001477
 20
11.74999999999998
 42
0.4142135623730978
 10
1.750000000001475
 20
11.99999999999998
 42
0.0
 10
0.2500000000014756
 20
11.99999999999997
 42
0.4142135623730547
 10
0.0000000000014921
 20
11.75000000000002
 42
0.0
 10
0.0000000000008384
 20
6.787032781469125
 42
0.0048309960569733
 10
0.365505767468441
 20
5.384615384612388
 42
0.3386692097310819
 10
0.6068040311814707
 20
5.199999999997132
 42
0.0
 10
2.079108770940007
 20
5.199999999997032
 42
0.4142135623731209
 10
2.329108770940038
 20
5.449999999997052
 42
0.0
 10
2.329108770940024
 20
6.099999999998517
 42
0.0
 10
5.929108770945845
 20
6.099999999998487
 42
0.0
 10
5.929108770945845
 20
1.999999999999943
 42
0.0
 10
2.329108770940024
 20
1.999999999999971
 42
0.0
 10
2.329108770940024
 20
2.649999999997795
 42
0.4142135623730887
 10
2.079108770940022
 20
2.899999999997803
 42
0.0
 10
1.424486495394828
 20
2.899999999997817
 42
0.5062176410645563
 10
1.185922955642221
 20
2.57525083611825
 42
0.0084581898358002
 10
1.985406388121093
 20
0.1672240802675126
 42
0.3184880486124652
 10
2.221304983098702
 20
0.0000000000000142
 42
0.0
 10
52.37499999999966
 20
-0.0000000000000568
 42
1.0
 10
52.37499999999965
 20
0.7499999999999574
 42
0.0
 10
51.99999999999967
 20
0.7499999999999431
 42
0.0
 10
52.00000000000148
 20
2.025255128606301
 42
0.3563939586929925
 10
50.80000000000151
 20
3.494948974278342
 42
0.4744978678080872
 10
50.50000000000148
 20
3.250000000000004
 42
0.0
 10
50.50000000000148
 20
1.499999999999943
 42
0.0
 10
48.20000000000039
 20
1.499999999999943
 42
0.0
 10
48.20000000000039
 20
21.99999999999994
 42
-0.4142135623730993
 10
48.70000000000042
 20
22.49999999999997
 42
0.0
 10
50.50000000000149
 20
22.49999999999994
 42
-0.4142135623730951
 10
51.0000000000015
 20
21.99999999999992
 42
0.0
 10
51.00000000000147
 20
19.49999999999995
 42
1.0
 10
52.00000000000151
 20
19.49999999999996
 42
0.0
 10
52.00000000000148
 20
23.99999999999995
 42
0.0
 10
51.00000000000056
 20
24.99999999999994
 42
0.0
 10
52.00000000000148
 20
25.99999999999994
 42
0.0
 10
52.00000000000148
 20
30.49999999999994
 42
1.0
 10
51.0000000000015
 20
30.49999999999995
 42
0.0
 10
51.00000000000147
 20
27.99999999999992
 42
-0.4142135623730909
 10
50.50000000000149
 20
27.49999999999995
 42
0.0
 10
48.70000000000041
 20
27.49999999999995
 42
-0.4142135623730951
 10
48.20000000000042
 20
27.99999999999994
 42
0.0
 10
48.20000000000042
 20
48.49999999999994
 42
0.0
 10
50.50000000000151
 20
48.49999999999994
 42
0.0
 10
50.5000000000015
 20
46.74999999999995
 42
0.474497867808066
 10
50.80000000000149
 20
46.50505102572163
 42
0.3563939586926115
 10
52.00000000000151
 20
47.9747448713915
 42
0.0
 97
        1
330
40CD
 92
       22
 72
     1
 73
     1
 93
       43
 10
45.20000000000039
 20
47.99999999999997
 42
-0.4142135623730972
 10
46.20000000000041
 20
46.99999999999995
 42
0.0
 10
46.20000000000039
 20
25.99999999999995
 42
0.0
 10
47.2000000000013
 20
24.99999999999995
 42
0.0
 10
46.20000000000039
 20
23.99999999999994
 42
0.0
 10
46.20000000000039
 20
2.99999999999995
 42
-0.4142135623730951
 10
45.20000000000037
 20
1.999999999999943
 42
0.0
 10
32.20000000000039
 20
1.999999999999943
 42
0.0
 10
32.20000000000039
 20
2.299999999999941
 42
0.414213562373097
 10
32.00000000000038
 20
2.499999999999943
 42
0.0
 10
30.40000000000039
 20
2.499999999999943
 42
0.4142135623730996
 10
30.20000000000039
 20
2.299999999999943
 42
0.0
 10
30.20000000000039
 20
1.999999999999943
 42
0.0
 10
20.00000000000147
 20
1.999999999999957
 42
0.0
 10
20.00000000000148
 20
2.299999999999955
 42
0.4142135623731031
 10
19.80000000000147
 20
2.499999999999957
 42
0.0
 10
18.20000000000148
 20
2.499999999999957
 42
0.4142135623730996
 10
18.00000000000148
 20
2.299999999999957
 42
0.0
 10
18.00000000000147
 20
1.999999999999975
 42
0.0
 10
8.929108770945822
 20
1.999999999999985
 42
-0.4142135623730945
 10
7.929108770945845
 20
2.999999999999964
 42
0.0
 10
7.929108770945845
 20
14.99999999999996
 42
0.414213562373066
 10
5.929108770946065
 20
16.99999999999994
 42
0.0
 10
5.500000000001406
 20
16.99999999999998
 42
-0.414213562373066
 10
5.000000000001477
 20
17.49999999999996
 42
0.0
 10
5.000000000001506
 20
32.49999999999996
 42
-0.4142135623730758
 10
5.500000000001459
 20
32.99999999999994
 42
0.0
 10
5.92910877094602
 20
32.99999999999997
 42
0.4142135623730758
 10
7.929108770945873
 20
34.99999999999996
 42
0.0
 10
7.929108770945873
 20
46.99999999999995
 42
-0.4142135623730942
 10
8.929108770945855
 20
47.99999999999994
 42
0.0
 10
18.00000000000148
 20
47.99999999999997
 42
0.0
 10
18.00000000000148
 20
47.69999999999997
 42
0.4142135623731004
 10
18.20000000000148
 20
47.49999999999997
 42
0.0
 10
19.80000000000147
 20
47.49999999999997
 42
0.4142135623731004
 10
20.00000000000148
 20
47.69999999999997
 42
0.0
 10
20.00000000000148
 20
47.99999999999997
 42
0.0
 10
30.20000000000039
 20
47.99999999999994
 42
0.0
 10
30.20000000000039
 20
47.69999999999995
 42
0.4142135623731004
 10
30.40000000000039
 20
47.49999999999994
 42
0.0
 10
32.00000000000038
 20
47.49999999999994
 42
0.4142135623730951
 10
32.20000000000039
 20
47.69999999999995
 42
0.0
 10
32.20000000000039
 20
47.99999999999994
 42
0.0
 97
        1
330
40CE
 75
     0
 76
     1
 47
0.0745762021893057
 98
        2
 10
38.29087476670682
 20
48.8480931635857
 10
38.29087476670682
 20
48.8480931635857
  0
ENDBLK
  5
32A9
330
32A7
100
AcDbEntity
  8
0
100
AcDbBlockEnd
  0
BLOCK
  5
32AE
330
32AD
100
AcDbEntity
  8
0
100
AcDbBlockBegin
  2
08012
 70
     0
 10
0.0
 20
0.0
 30
0.0
  3
08012
  1
08012.dwg
  0
LWPOLYLINE
  5
40D2
102
{ACAD_REACTORS
330
40D3
102
}
330
32AD
100
AcDbEntity
  8
APL Joinery
 48
2.0
100
AcDbPolyline
 90
       39
 70
     1
 43
0.0
 10
0.8262364050693193
 20
-13.77276111737245
 10
0.6085185434299411
 20
-14.58529523872579
 42
0.4931454260313105
 10
0.8500000000022065
 20
-14.90000000000143
 10
1.779108770947568
 20
-14.90000000000143
 42
-0.4142135623730951
 10
2.029108770947568
 20
-15.15000000000142
 10
2.029108770947568
 20
-16.15000000000143
 42
-0.4142135623730951
 10
1.779108770947568
 20
-16.40000000000142
 10
0.8500000000022055
 20
-16.40000000000142
 42
-0.4931454260313103
 10
-0.8403701960036798
 20
-14.19706667107198
 10
-0.6226523343642322
 20
-13.38453254971847
 42
0.5773502691896202
 10
-1.847397205755815
 20
-12.15978767832689
 10
-3.085295238722185
 20
-12.49148145657224
 42
-0.4931454260312741
 10
-3.399999999997792
 20
-12.24999999999997
 10
-3.399999999997788
 20
-0.3999999999996067
 10
-2.999999999998152
 20
0.0000000000000293
 10
-3.399999999997788
 20
0.3999999999996657
 10
-3.399999999997785
 20
12.25000000000003
 42
-0.4931454260312737
 10
-3.085295238722178
 20
12.49148145657233
 10
-1.847397205755808
 20
12.15978767832694
 42
0.5773502691896202
 10
-0.6226523343642287
 20
13.38453254971853
 10
-0.840370196003645
 20
14.19706667107204
 42
-0.4931454260313103
 10
0.8500000000022161
 20
16.40000000000148
 10
1.779108770947578
 20
16.40000000000148
 42
-0.4142135623730951
 10
2.029108770947578
 20
16.15000000000148
 10
2.029108770947577
 20
15.15000000000148
 42
-0.4142135623730951
 10
1.779108770947577
 20
14.90000000000148
 10
0.8500000000022158
 20
14.90000000000148
 42
0.4931454260313102
 10
0.6085185434299137
 20
14.58529523872579
 10
0.8262364050693246
 20
13.77276111737254
 42
-0.4698929269041907
 10
-1.399999999997785
 20
10.6328359951255
 10
-1.399999999997787
 20
5.082842712474615
 10
-0.4585786437604605
 20
4.141421356237317
 42
-0.4142135623730981
 10
-0.4585786437604599
 20
3.85857864376274
 10
-1.399999999997787
 20
2.917157287525384
 10
-1.399999999997789
 20
-2.917157287525327
 10
-0.458578643760463
 20
-3.858578643762682
 42
-0.4142135623730981
 10
-0.4585786437604624
 20
-4.141421356237259
 10
-1.39999999999779
 20
-5.082842712474558
 10
-1.399999999997817
 20
-10.63283599512544
 42
-0.4698929269041913
  0
HATCH
  5
40D3
330
32AD
100
AcDbEntity
  8
APL Hatch
100
AcDbHatch
 10
0.0
 20
0.0
 30
0.0
210
0.0
220
0.0
230
1.0
  2
SOLID
 70
     1
 71
     1
 91
        1
 92
        1
 93
       39
 72
     1
 10
0.8262364050693193
 20
-13.77276111737245
 11
0.6085185434299411
 21
-14.58529523872579
 72
     2
 10
0.8500000000022067
 20
-14.65000000000143
 40
0.25
 50
164.9999999999988
 51
270.0
 73
     1
 72
     1
 10
0.8500000000022065
 20
-14.90000000000143
 11
1.779108770947568
 21
-14.90000000000143
 72
     2
 10
1.779108770947568
 20
-15.15000000000142
 40
0.25
 50
270.0
 51
360.0
 73
     0
 72
     1
 10
2.029108770947568
 20
-15.15000000000142
 11
2.029108770947568
 21
-16.15000000000143
 72
     2
 10
1.779108770947568
 20
-16.15000000000143
 40
0.25
 50
360.0
 51
450.0
 73
     0
 72
     1
 10
1.779108770947568
 20
-16.40000000000142
 11
0.8500000000022055
 21
-16.40000000000142
 72
     2
 10
0.8500000000021936
 20
-14.65000000000141
 40
1.75000000000001
 50
89.99999999999959
 51
195.0000000000007
 73
     0
 72
     1
 10
-0.8403701960036798
 20
-14.19706667107198
 11
-0.6226523343642322
 21
-13.38453254971847
 72
     2
 10
-1.588578160653301
 20
-13.12571350461596
 40
0.9999999999999978
 50
345.0000000000006
 51
464.9999999999995
 73
     1
 72
     1
 10
-1.847397205755815
 20
-12.15978767832689
 11
-3.085295238722185
 21
-12.49148145657224
 72
     2
 10
-3.149999999997792
 20
-12.24999999999997
 40
0.2500000000000003
 50
75.00000000000555
 51
180.0
 73
     0
 72
     1
 10
-3.399999999997792
 20
-12.24999999999997
 11
-3.399999999997788
 21
-0.399999999999606
 72
     1
 10
-3.399999999997788
 20
-0.3999999999996067
 11
-2.999999999998152
 21
0.0000000000000294
 72
     1
 10
-2.999999999998152
 20
0.0000000000000293
 11
-3.399999999997788
 21
0.3999999999996657
 72
     1
 10
-3.399999999997788
 20
0.3999999999996657
 11
-3.399999999997785
 21
12.25000000000003
 72
     2
 10
-3.149999999997774
 20
12.25000000000004
 40
0.2500000000000111
 50
179.9999999999967
 51
284.9999999999911
 73
     0
 72
     1
 10
-3.085295238722178
 20
12.49148145657233
 11
-1.847397205755808
 21
12.15978767832694
 72
     2
 10
-1.588578160653297
 20
13.12571350461601
 40
0.9999999999999987
 50
255.0000000000005
 51
374.9999999999996
 73
     1
 72
     1
 10
-0.6226523343642287
 20
13.38453254971853
 11
-0.840370196003645
 21
14.19706667107204
 72
     2
 10
0.850000000002216
 20
14.65000000000148
 40
1.75
 50
164.9999999999988
 51
270.0
 73
     0
 72
     1
 10
0.8500000000022161
 20
16.40000000000148
 11
1.779108770947578
 21
16.40000000000148
 72
     2
 10
1.779108770947578
 20
16.15000000000148
 40
0.25
 50
270.0000000000001
 51
360.0
 73
     0
 72
     1
 10
2.029108770947578
 20
16.15000000000148
 11
2.029108770947577
 21
15.15000000000148
 72
     2
 10
1.779108770947577
 20
15.15000000000148
 40
0.25
 50
360.0
 51
450.0
 73
     0
 72
     1
 10
1.779108770947577
 20
14.90000000000148
 11
0.8500000000022158
 21
14.90000000000148
 72
     2
 10
0.8500000000022195
 20
14.65000000000144
 40
0.2500000000000426
 50
90.00000000000087
 51
195.0000000000019
 73
     1
 72
     1
 10
0.6085185434299137
 20
14.58529523872579
 11
0.8262364050693246
 21
13.77276111737254
 72
     2
 10
-1.588578160653278
 20
13.12571350461604
 40
2.499999999999986
 50
344.9999999999952
 51
445.6739978790768
 73
     0
 72
     1
 10
-1.399999999997785
 20
10.6328359951255
 11
-1.399999999997787
 21
5.082842712474615
 72
     1
 10
-1.399999999997787
 20
5.082842712474615
 11
-0.4585786437604604
 21
4.141421356237317
 72
     2
 10
-0.5999999999977472
 20
4.000000000000028
 40
0.1999999999999692
 50
314.9999999999995
 51
405.0000000000001
 73
     0
 72
     1
 10
-0.4585786437604599
 20
3.85857864376274
 11
-1.399999999997787
 21
2.917157287525384
 72
     1
 10
-1.399999999997787
 20
2.917157287525384
 11
-1.399999999997789
 21
-2.917157287525327
 72
     1
 10
-1.399999999997789
 20
-2.917157287525327
 11
-0.458578643760463
 21
-3.858578643762682
 72
     2
 10
-0.5999999999977496
 20
-3.999999999999971
 40
0.1999999999999691
 50
314.9999999999995
 51
405.0000000000001
 73
     0
 72
     1
 10
-0.4585786437604624
 20
-4.141421356237259
 11
-1.39999999999779
 21
-5.082842712474558
 72
     1
 10
-1.39999999999779
 20
-5.082842712474558
 11
-1.399999999997817
 21
-10.63283599512544
 72
     2
 10
-1.588578160653286
 20
-13.12571350461597
 40
2.499999999999984
 50
274.3260021209226
 51
375.0000000000044
 73
     0
 97
        1
330
40D2
 75
     0
 76
     1
 98
        1
 10
0.0
 20
0.0
  0
ENDBLK
  5
32AF
330
32AD
100
AcDbEntity
  8
0
100
AcDbBlockEnd
  0
BLOCK
  5
3307
330
3306
100
AcDbEntity
  8
0
100
AcDbBlockBegin
  2
UA1505
 70
     0
 10
0.0
 20
0.0
 30
0.0
  3
UA1505
  1
UA1505.dwg
  0
LWPOLYLINE
  5
40D5
102
{ACAD_REACTORS
330
40D6
102
}
330
3306
100
AcDbEntity
  8
APL Joinery
100
AcDbPolyline
 90
        8
 70
     1
 43
0.0
 10
46.4
 20
1.600000000000022
 10
1.599999999999994
 20
1.600000000000022
 10
1.599999999999994
 20
25.0
 10
0.0
 20
25.0
 10
0.0
 20
0.0
 10
48.0
 20
0.0
 10
48.0
 20
25.0
 10
46.4
 20
25.0
  0
HATCH
  5
40D6
330
3306
100
AcDbEntity
  8
APL Hatch
100
AcDbHatch
 10
0.0
 20
0.0
 30
0.0
210
0.0
220
0.0
230
1.0
  2
SOLID
 70
     1
 71
     1
 91
        1
 92
        1
 93
        8
 72
     1
 10
46.4
 20
1.600000000000022
 11
1.599999999999994
 21
1.600000000000022
 72
     1
 10
1.599999999999994
 20
1.600000000000022
 11
1.599999999999994
 21
25.0
 72
     1
 10
1.599999999999994
 20
25.0
 11
0.0
 21
25.0
 72
     1
 10
0.0
 20
25.0
 11
0.0
 21
0.0
 72
     1
 10
0.0
 20
0.0
 11
48.0
 21
0.0
 72
     1
 10
48.0
 20
0.0
 11
48.0
 21
25.0
 72
     1
 10
48.0
 20
25.0
 11
46.4
 21
25.0
 72
     1
 10
46.4
 20
25.0
 11
46.4
 21
1.600000000000022
 97
        1
330
40D5
 75
     0
 76
     1
 98
        1
 10
0.0
 20
0.0
  0
ENDBLK
  5
3308
330
3306
100
AcDbEntity
  8
0
100
AcDbBlockEnd
  0
BLOCK
  5
33C5
330
339C
100
AcDbEntity
  8
0
100
AcDbBlockBegin
  2
polystyrene
 70
     0
 10
0.0
 20
0.0
 30
0.0
  3
polystyrene
  1

  0
CIRCLE
  5
339D
330
339C
100
AcDbEntity
  8
APL Joinery
  6
Continuous
 62
     8
100
AcDbCircle
 10
0.614837930599947
 20
-6.236438480799989
 30
0.0
 40
2.5268043384
  0
CIRCLE
  5
339E
330
339C
100
AcDbEntity
  8
APL Joinery
  6
Continuous
 62
     8
100
AcDbCircle
 10
0.2630803591999893
 20
3.68312503140001
 30
0.0
 40
2.5268043384
  0
CIRCLE
  5
339F
330
339C
100
AcDbEntity
  8
APL Joinery
  6
Continuous
 62
     8
100
AcDbCircle
 10
0.0
 20
0.0
 30
0.0
 40
2.2516051896
  0
CIRCLE
  5
33A0
330
339C
100
AcDbEntity
  8
APL Joinery
  6
Continuous
 62
     8
100
AcDbCircle
 10
0.1315401795999378
 20
6.577008984600013
 30
0.0
 40
0.7083655464000001
  0
CIRCLE
  5
33A1
330
339C
100
AcDbEntity
  8
APL Joinery
  6
Continuous
 62
     8
100
AcDbCircle
 10
-7.409113030400021
 20
-5.447197402599982
 30
0.0
 40
1.605652519
  0
CIRCLE
  5
33A2
330
339C
100
AcDbEntity
  8
APL Joinery
  6
Continuous
 62
     8
100
AcDbCircle
 10
-7.277572850800083
 20
-8.998782254199966
 30
0.0
 40
0.8319331434
  0
CIRCLE
  5
33A3
330
339C
100
AcDbEntity
  8
APL Joinery
  6
Continuous
 62
     8
100
AcDbCircle
 10
-3.725987999200015
 20
-9.130322433999992
 30
0.0
 40
0.6577008984
  0
CIRCLE
  5
33A4
330
339C
100
AcDbEntity
  8
APL Joinery
  6
Continuous
 62
     8
100
AcDbCircle
 10
-4.515229077200046
 20
-8.078000996399964
 30
0.0
 40
1.060510832999999
  0
CIRCLE
  5
33A5
330
339C
100
AcDbEntity
  8
APL Joinery
  6
Continuous
 62
     8
100
AcDbCircle
 10
-1.752885303800098
 20
-9.393402793199982
 30
0.0
 40
0.5882655672000001
  0
CIRCLE
  5
33A6
330
339C
100
AcDbEntity
  8
APL Joinery
  6
Continuous
 62
     8
100
AcDbCircle
 10
-7.497790242400014
 20
7.103169703200023
 30
0.0
 40
0.1315401796
  0
CIRCLE
  5
33A7
330
339C
100
AcDbEntity
  8
APL Joinery
  6
Continuous
 62
     8
100
AcDbCircle
 10
-7.629330422200041
 20
0.9207812578000016
 30
0.0
 40
0.8319331434
  0
CIRCLE
  5
33A8
330
339C
100
AcDbEntity
  8
APL Joinery
  6
Continuous
 62
     8
100
AcDbCircle
 10
-7.760870601800093
 20
4.472366109400013
 30
0.0
 40
1.605652519
  0
CIRCLE
  5
33A9
330
339C
100
AcDbEntity
  8
APL Joinery
  6
Continuous
 62
     8
100
AcDbCircle
 10
-8.987595186800035
 20
-2.290233089999986
 30
0.0
 40
0.2630803594
  0
CIRCLE
  5
33AA
330
339C
100
AcDbEntity
  8
APL Joinery
  6
Continuous
 62
     8
100
AcDbCircle
 10
-9.339352758200107
 20
7.629330422000009
 30
0.0
 40
0.2630803594
  0
CIRCLE
  5
33AB
330
339C
100
AcDbEntity
  8
APL Joinery
  6
Continuous
 62
     8
100
AcDbCircle
 10
-4.866986648600004
 20
1.841562515600003
 30
0.0
 40
1.060510832999999
  0
CIRCLE
  5
33AC
330
339C
100
AcDbEntity
  8
APL Joinery
  6
Continuous
 62
     8
100
AcDbCircle
 10
-4.077745570400111
 20
0.789241078200007
 30
0.0
 40
0.6577008984
  0
CIRCLE
  5
33AD
330
339C
100
AcDbEntity
  8
APL Joinery
  6
Continuous
 62
     8
100
AcDbCircle
 10
-3.989068358600093
 20
-3.079474168199965
 30
0.0
 40
1.116155436599999
  0
CIRCLE
  5
33AE
330
339C
100
AcDbEntity
  8
APL Joinery
  6
Continuous
 62
     8
100
AcDbCircle
 10
-3.46290763980005
 20
-5.973358121399996
 30
0.0
 40
0.957626963
  0
CIRCLE
  5
33AF
330
339C
100
AcDbEntity
  8
APL Joinery
  6
Continuous
 62
     8
100
AcDbCircle
 10
-7.146032671000057
 20
-2.8163938088
 30
0.0
 40
0.1315401796
  0
CIRCLE
  5
33B0
330
339C
100
AcDbEntity
  8
APL Joinery
  6
Continuous
 62
     8
100
AcDbCircle
 10
-6.09371123360006
 20
-2.684853628999974
 30
0.0
 40
0.394620539
  0
CIRCLE
  5
33B1
330
339C
100
AcDbEntity
  8
APL Joinery
  6
Continuous
 62
     8
100
AcDbCircle
 10
-2.104642875200056
 20
0.5261607188000142
 30
0.0
 40
0.5882655672000001
  0
CIRCLE
  5
33B2
330
339C
100
AcDbEntity
  8
APL Joinery
  6
Continuous
 62
     8
100
AcDbCircle
 10
-4.340825929800075
 20
6.840089344000006
 30
0.0
 40
1.116155436599999
  0
CIRCLE
  5
33B3
330
339C
100
AcDbEntity
  8
APL Joinery
  6
Continuous
 62
     8
100
AcDbCircle
 10
-3.814665211200008
 20
3.946205390800002
 30
0.0
 40
0.957626963
  0
CIRCLE
  5
33B4
330
339C
100
AcDbEntity
  8
APL Joinery
  6
Continuous
 62
     8
100
AcDbCircle
 10
-6.445468805000018
 20
7.234709883000022
 30
0.0
 40
0.394620539
  0
CIRCLE
  5
33B5
330
339C
100
AcDbEntity
  8
APL Joinery
  6
Continuous
 62
     8
100
AcDbCircle
 10
5.771466427199925
 20
-2.235874035400001
 30
0.0
 40
0.6577008984
  0
CIRCLE
  5
33B6
330
339C
100
AcDbEntity
  8
APL Joinery
  6
Continuous
 62
     8
100
AcDbCircle
 10
6.034546786599889
 20
0.921090277199994
 30
0.0
 40
0.957626963
  0
CIRCLE
  5
33B7
330
339C
100
AcDbEntity
  8
APL Joinery
  6
Continuous
 62
     8
100
AcDbCircle
 10
2.088341395999918
 20
1.447250995800004
 30
0.0
 40
1.605652519
  0
CIRCLE
  5
33B8
330
339C
100
AcDbEntity
  8
APL Joinery
  6
Continuous
 62
     8
100
AcDbCircle
 10
2.21988157559997
 20
-2.104333855799978
 30
0.0
 40
0.8319331434
  0
CIRCLE
  5
33B9
330
339C
100
AcDbEntity
  8
APL Joinery
  6
Continuous
 62
     8
100
AcDbCircle
 10
2.324860266599898
 20
-1.895612550999999
 30
0.0
 40
1.341451886199999
  0
CIRCLE
  5
33BA
330
339C
100
AcDbEntity
  8
APL Joinery
  6
Continuous
 62
     8
100
AcDbCircle
 10
0.4832977509998955
 20
-3.342554527599986
 30
0.0
 40
0.7083655464000001
  0
CIRCLE
  5
33BB
330
339C
100
AcDbEntity
  8
APL Joinery
  6
Continuous
 62
     8
100
AcDbCircle
 10
4.982225349199893
 20
-1.183552598000005
 30
0.0
 40
1.060510832999999
  0
CIRCLE
  5
33BC
330
339C
100
AcDbEntity
  8
APL Joinery
  6
Continuous
 62
     8
100
AcDbCircle
 10
1.973102695199941
 20
8.023950961200029
 30
0.0
 40
1.341451886199999
  0
CIRCLE
  5
33BD
330
339C
100
AcDbEntity
  8
APL Joinery
  6
Continuous
 62
     8
100
AcDbCircle
 10
2.351421755399996
 20
4.078054589600014
 30
0.0
 40
0.1315401796
  0
CIRCLE
  5
33BE
330
339C
100
AcDbEntity
  8
APL Joinery
  6
Continuous
 62
     8
100
AcDbCircle
 10
0.5098592395999049
 20
4.6042153084
 30
0.0
 40
0.2630803594
  0
CIRCLE
  5
33BF
330
339C
100
AcDbEntity
  8
APL Joinery
  6
Continuous
 62
     8
100
AcDbCircle
 10
3.403743192799993
 20
4.209594769400013
 30
0.0
 40
0.394620539
  0
CIRCLE
  5
33C0
330
339C
100
AcDbEntity
  8
APL Joinery
  6
Continuous
 62
     8
100
AcDbCircle
 10
10.112292357
 20
0.6580099178000296
 30
0.0
 40
2.5268043384
  0
CIRCLE
  5
33C1
330
339C
100
AcDbEntity
  8
APL Joinery
  6
Continuous
 62
     8
100
AcDbCircle
 10
9.849211997599923
 20
-3.02511511359998
 30
0.0
 40
2.2516051896
  0
CIRCLE
  5
33C2
330
339C
100
AcDbEntity
  8
APL Joinery
  6
Continuous
 62
     8
100
AcDbCircle
 10
7.744569122599955
 20
-2.498954394799966
 30
0.0
 40
0.5882655672000001
  0
CIRCLE
  5
33C3
330
339C
100
AcDbEntity
  8
APL Joinery
  6
Continuous
 62
     8
100
AcDbCircle
 10
9.980752177399949
 20
3.551893871000004
 30
0.0
 40
0.7083655464000001
  0
CIRCLE
  5
33C4
330
339C
100
AcDbEntity
  8
APL Joinery
  6
Continuous
 62
     8
100
AcDbCircle
 10
11.82231469299995
 20
4.99883584760002
 30
0.0
 40
1.341451886199999
  0
ENDBLK
  5
33C6
330
339C
100
AcDbEntity
  8
0
100
AcDbBlockEnd
  0
BLOCK
  5
36D7
330
36D6
100
AcDbEntity
  8
0
100
AcDbBlockBegin
  2
08024
 70
     0
 10
0.0
 20
0.0
 30
0.0
  3
08024
  1
I:\DWG Master Blocks\08024.dwg
  0
LWPOLYLINE
  5
40D8
102
{ACAD_REACTORS
330
40D9
102
}
330
36D6
100
AcDbEntity
  8
APL Joinery
  6
Continuous
100
AcDbPolyline
 90
       40
 70
     1
 43
0.0
 10
2.073223304703276
 20
-2.133883476492311
 10
3.173223304703242
 20
-3.233883476489548
 42
0.6681786379193478
 10
3.600000000000306
 20
-3.057106781193393
 10
3.600000000000306
 20
-1.100000000000189
 10
15.90999999999866
 20
-1.100000000000417
 42
-0.4142135623730951
 10
16.40999999999862
 20
-1.600000000000431
 42
0.414213562373195
 10
17.50999999999857
 20
-2.6999999999997
 10
18.65004950616254
 20
-2.699999999999729
 42
3.927182716063912
 10
18.65004950616316
 20
-1.59999999999945
 10
17.50999999999868
 20
-1.600000000000814
 42
0.414213562372829
 10
15.90999999999889
 20
-0.0000000000007923
 10
4.699999999999988
 20
-0.0000000000002238
 10
4.700000000000038
 20
0.0198364968875957
 42
0.3814371313442931
 10
3.72424057796347
 20
1.112797739927518
 42
-0.3886847959560829
 10
1.950769923104132
 20
3.150488954916941
 10
1.950769923104083
 20
7.900002040453632
 42
-0.4142135623730937
 10
2.950769923104069
 20
8.900002040453646
 10
3.750039940743285
 20
8.900002040453674
 42
0.4142135623730951
 10
4.000039940743285
 20
9.150002040453674
 10
4.000039940743285
 20
10.95000204045366
 42
0.9999999999999998
 10
3.000039940743285
 20
10.95000204045366
 10
3.000039940743285
 20
10.20000204045365
 10
1.500039940743171
 20
10.20000204045365
 10
1.500039940743171
 20
15.70000204045365
 10
3.000039940743285
 20
15.70000204045365
 10
3.000039940743285
 20
14.95000204045366
 42
0.9999999999999998
 10
4.000039940743285
 20
14.95000204045366
 10
4.000039940743285
 20
16.75000204045367
 42
0.4142135623730951
 10
3.750039940743285
 20
17.00000204045367
 10
2.300039940743239
 20
17.00000204045367
 10
2.300039940743239
 20
18.75000204045367
 42
0.4142135623730951
 10
2.050039940743239
 20
19.00000204045367
 10
0.2500000000000071
 20
19.00000204045365
 42
0.414213562373094
 10
0.000000000000008
 20
18.75000204045365
 10
0.0
 20
0.287867965644697
 42
0.4142135623730951
 10
0.2878679656441249
 20
0.0000000000001172
 10
2.249999999999943
 20
0.000000000000913
 42
-0.4142135623730951
 10
2.499999999999943
 20
-0.2499999999990869
 10
2.499999999999943
 20
-1.353553390602424
 10
2.073223304703738
 20
-1.780330085899489
 42
0.4142135623730831
  0
HATCH
  5
40D9
330
36D6
100
AcDbEntity
  8
APL Hatch
100
AcDbHatch
 10
0.0
 20
0.0
 30
0.0
210
0.0
220
0.0
230
1.0
  2
SOLID
 70
     1
 71
     1
 91
        1
 92
        1
 93
       40
 72
     1
 10
2.073223304703276
 20
-2.133883476492311
 11
3.173223304703242
 21
-3.233883476489548
 72
     2
 10
3.350000000000199
 20
-3.05710678119308
 40
0.2500000000001072
 50
224.9999999999206
 51
359.9999999999283
 73
     1
 72
     1
 10
3.600000000000306
 20
-3.057106781193393
 11
3.600000000000306
 21
-1.100000000000189
 72
     1
 10
3.600000000000306
 20
-1.100000000000189
 11
15.90999999999866
 21
-1.100000000000417
 72
     2
 10
15.90999999999863
 20
-1.600000000000402
 40
0.4999999999999858
 50
270.0000000000033
 51
360.0000000000032
 73
     0
 72
     2
 10
17.50999999999804
 20
-1.600000000000277
 40
1.099999999999422
 50
180.000000000008
 51
270.0000000000276
 73
     1
 72
     1
 10
17.50999999999857
 20
-2.6999999999997
 11
18.65004950616254
 21
-2.699999999999729
 72
     2
 10
19.65999999999875
 20
-2.15000000000015
 40
1.149999999999797
 50
208.5718781422904
 51
511.428121857646
 73
     1
 72
     1
 10
18.65004950616316
 20
-1.59999999999945
 11
17.50999999999868
 21
-1.600000000000814
 72
     2
 10
15.90999999999804
 20
-1.600000000001428
 40
1.600000000000635
 50
0.0000000000219538
 51
89.99999999996992
 73
     1
 72
     1
 10
15.90999999999889
 20
-0.0000000000007923
 11
4.699999999999988
 21
-0.0000000000002238
 72
     1
 10
4.699999999999988
 20
-0.0000000000002238
 11
4.700000000000038
 21
0.0198364968875957
 72
     2
 10
3.600000000000025
 20
0.0198364968876124
 40
1.100000000000012
 50
359.9999999999992
 51
443.514833546125
 73
     1
 72
     2
 10
3.950132537897039
 20
3.10000000000008
 40
2.000000000000031
 50
96.48516645387577
 51
181.4465556865123
 73
     0
 72
     1
 10
1.950769923104132
 20
3.150488954916941
 11
1.950769923104083
 21
7.900002040453632
 72
     2
 10
2.950769923104085
 20
7.900002040453643
 40
1.000000000000002
 50
179.9999999999993
 51
269.9999999999991
 73
     0
 72
     1
 10
2.950769923104069
 20
8.900002040453646
 11
3.750039940743285
 21
8.900002040453674
 72
     2
 10
3.750039940743285
 20
9.150002040453674
 40
0.25
 50
270.0
 51
360.0
 73
     1
 72
     1
 10
4.000039940743285
 20
9.150002040453674
 11
4.000039940743285
 21
10.95000204045366
 72
     2
 10
3.500039940743285
 20
10.95000204045366
 40
0.5
 50
0.0
 51
180.0
 73
     1
 72
     1
 10
3.000039940743285
 20
10.95000204045366
 11
3.000039940743285
 21
10.20000204045365
 72
     1
 10
3.000039940743285
 20
10.20000204045365
 11
1.500039940743171
 21
10.20000204045365
 72
     1
 10
1.500039940743171
 20
10.20000204045365
 11
1.500039940743171
 21
15.70000204045365
 72
     1
 10
1.500039940743171
 20
15.70000204045365
 11
3.000039940743285
 21
15.70000204045365
 72
     1
 10
3.000039940743285
 20
15.70000204045365
 11
3.000039940743285
 21
14.95000204045366
 72
     2
 10
3.500039940743285
 20
14.95000204045366
 40
0.5
 50
180.0
 51
360.0
 73
     1
 72
     1
 10
4.000039940743285
 20
14.95000204045366
 11
4.000039940743285
 21
16.75000204045367
 72
     2
 10
3.750039940743285
 20
16.75000204045367
 40
0.25
 50
0.0
 51
90.0
 73
     1
 72
     1
 10
3.750039940743285
 20
17.00000204045367
 11
2.300039940743239
 21
17.00000204045367
 72
     1
 10
2.300039940743239
 20
17.00000204045367
 11
2.300039940743239
 21
18.75000204045367
 72
     2
 10
2.050039940743239
 20
18.75000204045367
 40
0.25
 50
0.0
 51
90.0
 73
     1
 72
     1
 10
2.050039940743239
 20
19.00000204045367
 11
0.2500000000000071
 21
19.00000204045365
 72
     2
 10
0.250000000000008
 20
18.75000204045365
 40
0.25
 50
90.00000000000019
 51
180.0
 73
     1
 72
     1
 10
0.000000000000008
 20
18.75000204045365
 11
0.0
 21
0.287867965644697
 72
     2
 10
0.2878679656443523
 20
0.2878679656444695
 40
0.2878679656443523
 50
179.9999999999547
 51
269.9999999999548
 73
     1
 72
     1
 10
0.2878679656441249
 20
0.0000000000001172
 11
2.249999999999943
 21
0.000000000000913
 72
     2
 10
2.249999999999943
 20
-0.2499999999990869
 40
0.25
 50
270.0
 51
360.0
 73
     0
 72
     1
 10
2.499999999999943
 20
-0.2499999999990869
 11
2.499999999999943
 21
-1.353553390602424
 72
     1
 10
2.499999999999943
 20
-1.353553390602424
 11
2.073223304703738
 21
-1.780330085899489
 72
     2
 10
2.249999999999925
 20
-1.957106781196131
 40
0.2499999999996855
 50
134.9999999999263
 51
224.999999999924
 73
     1
 97
        1
330
40D8
 75
     0
 76
     1
 98
        1
 10
0.0
 20
0.0
  0
ENDBLK
  5
36D8
330
36D6
100
AcDbEntity
  8
0
100
AcDbBlockEnd
  0
BLOCK
  5
36DA
330
36D9
100
AcDbEntity
  8
0
100
AcDbBlockBegin
  2
9010250l
 70
     0
 10
121.7743665915091
 20
118.4609762649905
 30
0.0
  3
9010250l
  1
I:\DWG Master Blocks\9010250l.dwg
  0
LWPOLYLINE
  5
40DC
330
36D9
100
AcDbEntity
  8
APL Joinery
  6
Continuous
 62
   252
100
AcDbPolyline
 90
       35
 70
   129
 43
0.0
 10
128.2214041892004
 20
113.237162025908
 42
0.4340964952257526
 10
127.8564264353586
 20
113.2516672307586
 42
-0.1536145893906839
 10
126.1665848234194
 20
112.3836279395214
 42
-0.4648333009751577
 10
125.8743665871533
 20
112.6300373965773
 10
125.8743665871533
 20
113.8094047359767
 42
-0.2915390373815183
 10
126.1631670868723
 20
114.2626097349353
 42
0.122912838877769
 10
128.3370962921861
 20
116.0230618678046
 42
0.3152263475814818
 10
128.3643015296608
 20
116.8050726870086
 10
128.3054542116656
 20
116.895689610204
 42
0.3630140704661038
 10
127.9375672903661
 20
117.0088437804028
 42
-0.1219902707494916
 10
126.1935750224063
 20
116.0026940736885
 42
-0.4989702342470917
 10
125.8743665871533
 20
116.2429235316861
 10
125.8743665871534
 20
117.2881686513476
 42
-0.3136800272017972
 10
126.2005910348754
 20
117.7569991723576
 42
0.1785411124350255
 10
128.4109533989318
 20
119.6504102703136
 42
0.1279718777770435
 10
128.4743665871533
 20
119.8941149189789
 10
128.4743665871533
 20
121.1878456480732
 42
0.4607623830565047
 10
128.1854567012142
 20
121.4347991270448
 10
121.9854567055696
 20
120.4579297439621
 42
0.3941429072290372
 10
121.7753179169858
 20
120.1891873293035
 10
121.9265167932934
 20
118.4609762649903
 10
123.4743665871533
 20
118.4609762649903
 10
123.4743665871533
 20
115.5609762649902
 10
122.9743665871533
 20
115.5609762649902
 42
0.5486826681767417
 10
122.7478103958356
 20
115.2052772007768
 10
123.9743665871533
 20
112.5762671786926
 10
123.9743665871533
 20
112.0965836934555
 10
123.710969127532
 20
112.0965836934555
 42
0.5773502691896264
 10
123.5060653169642
 20
111.7416798828875
 10
124.600199612073
 20
109.8465836934555
 42
0.2487009021145858
 10
124.997156080752
 20
109.597885439953
 42
0.3109226116934106
 10
125.8972608716131
 20
110.2877394163853
 42
-0.2088596723963019
 10
126.1629196373118
 20
110.5871267326566
 42
0.1426663047989766
 10
128.4040654372803
 20
112.5394783919284
 42
0.3321417186747404
 10
128.3666167137426
 20
113.0688908313857
  0
ENDBLK
  5
36DB
330
36D9
100
AcDbEntity
  8
0
100
AcDbBlockEnd
  0
BLOCK
  5
36DD
330
36DC
100
AcDbEntity
  8
0
100
AcDbBlockBegin
  2
20mm igu
 70
     0
 10
0.0
 20
0.0
 30
0.0
  3
20mm igu
  1

  0
LINE
  5
36DE
330
36DC
100
AcDbEntity
  8
APL Joinery
 62
     7
100
AcDbLine
 10
-10.29999999999995
 20
6.000000000000028
 30
0.0
 11
-18.29999999999995
 21
6.000000000000028
 31
0.0
  0
LINE
  5
36DF
330
36DC
100
AcDbEntity
  8
APL Joinery
 62
     7
100
AcDbLine
 10
-10.29999999999995
 20
12.00000000000003
 30
0.0
 11
-18.29999999999995
 21
12.00000000000003
 31
0.0
  0
INSERT
  5
36E0
330
36DC
100
AcDbEntity
  8
APL Joinery
100
AcDbBlockReference
  2
6Glass
 10
-30.7999999999999
 20
18.9999999999998
 30
0.0
 50
180.0
  0
INSERT
  5
36E1
330
36DC
100
AcDbEntity
  8
APL Joinery
100
AcDbBlockReference
  2
6Glass
 10
-16.7999999999999
 20
18.9999999999998
 30
0.0
 50
180.0
  0
ENDBLK
  5
36E2
330
36DC
100
AcDbEntity
  8
0
100
AcDbBlockEnd
  0
BLOCK
  5
36E4
330
36E3
100
AcDbEntity
  8
0
100
AcDbBlockBegin
  2
08024glaze
 70
     0
 10
0.0
 20
0.0
 30
0.0
  3
08024glaze
  1

  0
INSERT
  5
3BED
330
36E3
100
AcDbEntity
  8
APL Joinery
100
AcDbBlockReference
  2
20mm igu
 10
-0.0000000000000568
 20
33.30003994509855
 30
0.0
 41
-1.0
 50
270.0
1001
AcDbBlockRepETag
1070
     1
1071
        0
1005
3BED
  0
INSERT
  5
3BEE
330
36E3
100
AcDbEntity
  8
APL Joinery
100
AcDbBlockReference
  2
08024
 10
0.0
 20
0.0
 30
0.0
 41
-1.0
 50
270.0
1001
AcDbBlockRepETag
1070
     1
1071
        1
1005
3BEE
  0
INSERT
  5
3BEF
330
36E3
100
AcDbEntity
  8
APL Joinery
100
AcDbBlockReference
  2
9010312l
 10
17.00000204045369
 20
32.70000000435556
 30
0.0
 50
270.0
1001
AcDbBlockRepETag
1070
     1
1071
        2
1005
3BEF
  0
INSERT
  5
3BF0
330
36E3
100
AcDbEntity
  8
APL Joinery
100
AcDbBlockReference
  2
9010250l
 10
17.00000000000011
 20
2.300039945099027
 30
0.0
 41
-1.0
 50
270.0
1001
AcDbBlockRepETag
1070
     1
1071
        3
1005
3BF0
  0
ENDBLK
  5
36E9
330
36E3
100
AcDbEntity
  8
0
100
AcDbBlockEnd
  0
BLOCK
  5
3B63
330
3B58
100
AcDbEntity
  8
0
100
AcDbBlockBegin
  2
vantage a4 SM attributes (4)
 70
     2
 10
0.0
 20
0.0
 30
0.0
  3
vantage a4 SM attributes (4)
  1

  0
ATTDEF
  5
3B59
330
3B58
100
AcDbEntity
  8
APL Border
100
AcDbText
 10
41.78979785863009
 20
276.19
 30
0.0
 40
3.5
  1
DRAWING TITLE LINE 1
  7
Arial-Bold
100
AcDbAttributeDefinition
  3
Drawing Title Line 1
  2
DRAWINGTITLE_1
 70
     0
1001
AcDbBlockRepETag
1070
     1
1071
        0
1005
0
  0
ATTDEF
  5
3B5A
330
3B58
100
AcDbEntity
  8
APL Border
100
AcDbText
 10
41.78979785863009
 20
270.19
 30
0.0
 40
3.5
  1
DRAWING TITLE LINE 2
  7
Arial-Bold
100
AcDbAttributeDefinition
  3
Drawing Title Line 2
  2
DRAWINGTITLE_2
 70
     0
1001
AcDbBlockRepETag
1070
     1
1071
        1
1005
0
  0
ATTDEF
  5
3B5B
330
3B58
100
AcDbEntity
  8
APL Border
100
AcDbText
 10
41.78979785863009
 20
264.19
 30
0.0
 40
3.5
  1
DRAWING TITLE LINE 3
  7
Arial-Bold
100
AcDbAttributeDefinition
  3
Drawing Title Line 3
  2
DRAWINGTITLE_3
 70
     0
1001
AcDbBlockRepETag
1070
     1
1071
        2
1005
0
  0
ATTDEF
  5
3B5C
330
3B58
100
AcDbEntity
  8
APL Border
100
AcDbText
 10
41.78979785863009
 20
258.19
 30
0.0
 40
3.0
  1
CROSS SECTION
  7
Arial-Regular
100
AcDbAttributeDefinition
  3
Drawing Title Line 4
  2
DRAWINGTITLE_4
 70
     0
1001
AcDbBlockRepETag
1070
     1
1071
        3
1005
0
  0
ATTDEF
  5
3B5D
330
3B58
100
AcDbEntity
  8
APL Border
100
AcDbText
 10
165.845
 20
273.69
 30
0.0
 40
2.5
  1
AW123-456
  7
Arial-Regular
100
AcDbAttributeDefinition
  3
CAD Reference
  2
AW12-0
 70
     0
1001
AcDbBlockRepETag
1070
     1
1071
        4
1005
0
  0
ATTDEF
  5
3B5E
330
3B58
100
AcDbEntity
  8
APL Border
100
AcDbText
 10
147.5475920873124
 20
257.1899999999999
 30
0.0
 40
2.5
  1
25.07.08
  7
Arial-Regular
 72
     1
 11
154.345
 21
257.1899999999999
 31
0.0
100
AcDbAttributeDefinition
  3
Date
  2
25.07.08
 70
     0
1001
AcDbBlockRepETag
1070
     1
1071
        5
1005
0
  0
ATTDEF
  5
3B5F
330
3B58
100
AcDbEntity
  8
APL Border
100
AcDbText
 10
175.4174761255116
 20
257.1899999999999
 30
0.0
 40
2.5
  1
1:2
  7
Arial-Regular
 72
     1
 11
177.845
 21
257.1899999999999
 31
0.0
100
AcDbAttributeDefinition
  3
Scale
  2
1:2
 70
     0
1001
AcDbBlockRepETag
1070
     1
1071
        6
1005
0
  0
ATTDEF
  5
3B60
330
3B58
100
AcDbEntity
  8
APL Border
100
AcDbText
 10
189.595
 20
1.189999999999997
 30
0.0
 40
3.75
  1

  7
Arial-Bold
 72
     2
 11
189.595
 21
1.189999999999997
 31
0.0
100
AcDbAttributeDefinition
  3
Page Number (Right)
  2
1.2.34
 70
     0
1001
AcDbBlockRepETag
1070
     1
1071
        7
1005
0
  0
ATTDEF
  5
3B61
330
3B58
100
AcDbEntity
  8
APL Border
100
AcDbText
 10
11.59500000000003
 20
1.189999999999997
 30
0.0
 40
3.75
  1

  7
Arial-Bold
100
AcDbAttributeDefinition
  3
Page Number (Left)
  2
1.2.34
 70
     0
1001
AcDbBlockRepETag
1070
     1
1071
        8
1005
0
  0
ENDBLK
  5
3B64
330
3B58
100
AcDbEntity
  8
0
100
AcDbBlockEnd
  0
BLOCK
  5
3CF7
330
3CF4
100
AcDbEntity
  8
0
 62
     9
100
AcDbBlockBegin
  2
vantage black & white logo
 70
     0
 10
0.0
 20
0.0
 30
0.0
  3
vantage black & white logo
  1

  0
SPLINE
  5
3CF8
102
{ACAD_REACTORS
330
3D28
102
}
330
3CF4
100
AcDbEntity
  8
APL Border
 62
     8
100
AcDbSpline
210
0.0
220
0.0
230
1.0
 70
     8
 71
     3
 72
    16
 73
    12
 74
    10
 42
0.0000000001
 43
0.0000000001
 44
0.0000000001
 40
0.0
 40
0.0
 40
0.0
 40
0.0
 40
0.1978277931646383
 40
0.361463118001824
 40
0.5540499897785108
 40
0.7796220130725381
 40
0.979106605438038
 40
1.222151590302332
 40
1.40748727220097
 40
1.607226525619232
 40
1.815049166761618
 40
1.815049166761618
 40
1.815049166761618
 40
1.815049166761618
 10
-6.679452083611295
 20
24.89125032803118
 30
0.0
 10
-6.685371732996674
 20
24.82559351525051
 30
0.0
 10
-6.696187882184245
 20
24.70562798418881
 30
0.0
 10
-6.721757155054659
 20
24.52229576436942
 30
0.0
 10
-6.768469983285688
 20
24.33480615160983
 30
0.0
 10
-6.86071972339088
 20
24.14153771241002
 30
0.0
 10
-7.051789745146238
 20
24.01851519430105
 30
0.0
 10
-7.233921808197289
 20
23.91285203345822
 30
0.0
 10
-7.443451931375125
 20
23.87675735439051
 30
0.0
 10
-7.641222718647389
 20
23.88093312949101
 30
0.0
 10
-7.776581895343343
 20
23.89281010788354
 30
0.0
 10
-7.845603808282817
 20
23.89886637823479
 30
0.0
 11
-6.679452083611295
 21
24.89125032803118
 31
0.0
 11
-6.698967886443824
 21
24.69438750983487
 31
0.0
 11
-6.7229873764864
 21
24.53252465544059
 31
0.0
 11
-6.771947617386814
 21
24.34626516442952
 31
0.0
 11
-6.880972027936735
 21
24.14879006322128
 31
0.0
 11
-7.039699899396197
 21
24.02796140183178
 31
0.0
 11
-7.25666078222261
 21
23.91842218515177
 31
0.0
 11
-7.438645676318543
 21
23.88333923622035
 31
0.0
 11
-7.638384704687155
 21
23.88303939885124
 31
0.0
 11
-7.845603808282817
 21
23.89886637823479
 31
0.0
1001
AcDbBlockRepETag
1070
     1
1071
      590
1005
3CF8
  0
SPLINE
  5
3CF9
102
{ACAD_REACTORS
330
3D28
102
}
330
3CF4
100
AcDbEntity
  8
APL Border
 62
     8
100
AcDbSpline
210
0.0
220
0.0
230
1.0
 70
     8
 71
     3
 72
    11
 73
     7
 74
     5
 42
0.0000000001
 43
0.0000000001
 44
0.0000000001
 40
0.0
 40
0.0
 40
0.0
 40
0.0
 40
0.0680840587483313
 40
0.1752723045973904
 40
0.2784233367375334
 40
0.4826852714337078
 40
0.4826852714337078
 40
0.4826852714337078
 40
0.4826852714337078
 10
-7.465264214605014
 20
24.80065518845331
 30
0.0
 10
-7.468646137215252
 20
24.77808681972154
 30
0.0
 10
-7.47735239504952
 20
24.719987903891
 30
0.0
 10
-7.524447891091254
 20
24.63752792323728
 30
0.0
 10
-7.635129760920157
 20
24.54333837224584
 30
0.0
 10
-7.743266182308203
 20
24.55714977626708
 30
0.0
 10
-7.815117916056323
 20
24.56632682606847
 30
0.0
 11
-7.465264214605014
 21
24.80065518845331
 31
0.0
 11
-7.478569823577657
 21
24.73388393846117
 31
0.0
 11
-7.530473398252325
 21
24.64010046985295
 31
0.0
 11
-7.611072397370236
 21
24.57572705319073
 31
0.0
 11
-7.815117916056323
 21
24.56632682606847
 31
0.0
1001
AcDbBlockRepETag
1070
     1
1071
      593
1005
3CF9
  0
SPLINE
  5
3CFA
102
{ACAD_REACTORS
330
3D28
102
}
330
3CF4
100
AcDbEntity
  8
APL Border
 62
     8
100
AcDbSpline
210
0.0
220
0.0
230
1.0
 70
     8
 71
     3
 72
    20
 73
    16
 74
     0
 42
0.0000000001
 43
0.0000000001
 40
0.0
 40
0.0
 40
0.0
 40
0.0
 40
0.1774120264923274
 40
0.3258093286713144
 40
0.4834060703451958
 40
0.6311237014699663
 40
0.811161917566129
 40
0.9605198197290178
 40
1.289502400757101
 40
1.459697744220917
 40
1.604754171475458
 40
1.794797311213428
 40
2.030760379210173
 40
2.301729078160567
 40
2.393267743077617
 40
2.393267743077617
 40
2.393267743077617
 40
2.393267743077617
 10
5.780015564168593
 20
26.87985997284487
 30
0.0
 10
5.839056126904296
 20
26.87337384475878
 30
0.0
 10
5.947481505327601
 20
26.86146235781404
 30
0.0
 10
6.098807931884806
 20
26.80185114122353
 30
0.0
 10
6.227972759762906
 20
26.72168911843352
 30
0.0
 10
6.347510602881385
 20
26.61140356622764
 30
0.0
 10
6.442310149474394
 20
26.48207375794227
 30
0.0
 10
6.536759215535255
 20
26.28338234239492
 30
0.0
 10
6.578465181725675
 20
26.06469589684353
 30
0.0
 10
6.553150099427256
 20
25.85079503063701
 30
0.0
 10
6.524121382020268
 20
25.68499989147718
 30
0.0
 10
6.464236525716046
 20
25.50199988960434
 30
0.0
 10
6.327150620479812
 20
25.31187331731421
 30
0.0
 10
6.179477266233362
 20
25.17172660684537
 30
0.0
 10
6.072729148555964
 20
25.11631253421805
 30
0.0
 10
6.045077525535504
 20
25.10350570839811
 30
0.0
1001
AcDbBlockRepETag
1070
     1
1071
      594
1005
3CFA
  0
SPLINE
  5
3CFB
102
{ACAD_REACTORS
330
3D28
102
}
330
3CF4
100
AcDbEntity
  8
APL Border
 62
     8
100
AcDbSpline
210
0.0
220
0.0
230
1.0
 70
     8
 71
     3
 72
    17
 73
    13
 74
    11
 42
0.0000000001
 43
0.0000000001
 44
0.0000000001
 40
0.0
 40
0.0
 40
0.0
 40
0.0
 40
0.0975027714782739
 40
0.2117924486065133
 40
0.317678689712162
 40
0.4843960423119905
 40
0.5983164751676271
 40
0.7475672999664091
 40
0.8854036234346642
 40
1.040732215041493
 40
1.197661337444246
 40
1.243973057737614
 40
1.243973057737614
 40
1.243973057737614
 40
1.243973057737614
 10
5.580769717272147
 20
26.18861664944085
 30
0.0
 10
5.613502616848285
 20
26.1875961553427
 30
0.0
 10
5.684603990133519
 20
26.18537947021098
 30
0.0
 10
5.781919321100519
 20
26.1258482190374
 30
0.0
 10
5.832561030472812
 20
26.0011917111029
 30
0.0
 10
5.820388894698232
 20
25.86817511516085
 30
0.0
 10
5.765298612935113
 20
25.7349784962169
 30
0.0
 10
5.67725421213275
 20
25.62965962372396
 30
0.0
 10
5.546675458142082
 20
25.55725132865025
 30
0.0
 10
5.401760839408257
 20
25.51345804330555
 30
0.0
 10
5.281860155064943
 20
25.50729075876586
 30
0.0
 10
5.21427201805345
 20
25.50302975767877
 30
0.0
 10
5.198870965514487
 20
25.50205881951548
 30
0.0
 11
5.580769717272147
 21
26.18861664944085
 31
0.0
 11
5.67764963039707
 21
26.17761333726443
 31
0.0
 11
5.774085473546278
 21
26.11627608549865
 31
0.0
 11
5.81791994770495
 21
26.01988918322082
 31
0.0
 11
5.809153052873227
 21
25.85340249542595
 31
0.0
 11
5.765318578714499
 21
25.74825305939683
 31
0.0
 11
5.668882735565347
 21
25.63434108961652
 31
0.0
 11
5.55010046754208
 21
25.56441523695462
 31
0.0
 11
5.401316428353624
 21
25.51980267086244
 31
0.0
 11
5.245093480229996
 21
25.50493189624708
 31
0.0
 11
5.198870965514487
 21
25.50205881951548
 31
0.0
1001
AcDbBlockRepETag
1070
     1
1071
      595
1005
3CFB
  0
SPLINE
  5
3CFC
102
{ACAD_REACTORS
330
3D32
330
3D33
102
}
330
3CF4
100
AcDbEntity
  8
APL Border
 62
     8
100
AcDbSpline
210
0.0
220
0.0
230
1.0
 70
     8
 71
     3
 72
    25
 73
    21
 74
     0
 42
0.0000000001
 43
0.0000000001
 40
0.0289432764998855
 40
0.0289432764998855
 40
0.0289432764998855
 40
0.0289432764998855
 40
0.7134165119202287
 40
1.411731005087882
 40
2.041147618059464
 40
3.036171077105474
 40
3.957911241576911
 40
4.83592253147705
 40
5.676684481733094
 40
6.271141751551381
 40
6.974058201941041
 40
7.825808739104269
 40
8.5265481701528
 40
9.125733480364379
 40
9.891766509798275
 40
10.6767880070383
 40
11.66821110410527
 40
12.42950909475574
 40
13.09855121203093
 40
13.70132750762923
 40
13.70132750762923
 40
13.70132750762923
 40
13.70132750762923
 10
13.141643811855
 20
43.40554077871886
 30
0.0
 10
12.91988216430481
 20
43.459256627421
 30
0.0
 10
12.47168844867874
 20
43.5669624691983
 30
0.0
 10
11.80600758681791
 20
43.66484839798013
 30
0.0
 10
11.02988777388427
 20
43.6649333207477
 30
0.0
 10
10.1361516270939
 20
43.55263717791944
 30
0.0
 10
9.306733533720876
 20
43.19741938393827
 30
0.0
 10
8.599762003673276
 20
42.45478219212527
 30
0.0
 10
8.236440109363229
 20
41.77191325718488
 30
0.0
 10
8.073464067873601
 20
41.07996170309042
 30
0.0
 10
8.007035995439764
 20
40.3638923215899
 30
0.0
 10
7.98103501985804
 20
39.60493317412716
 30
0.0
 10
8.107710769833204
 20
38.92055182387923
 30
0.0
 10
8.442098079777224
 20
38.21445924826959
 30
0.0
 10
9.036296716232907
 20
37.66873436641545
 30
0.0
 10
9.909689132144507
 20
37.42421376773082
 30
0.0
 10
10.75775873959412
 20
37.35554609345542
 30
0.0
 10
11.56487972715851
 20
37.38454149767491
 30
0.0
 10
12.23983007222788
 20
37.44815687239099
 30
0.0
 10
12.66077873273661
 20
37.49837935861893
 30
0.0
 10
12.86026661033734
 20
37.52234731786496
 30
0.0
1001
AcDbBlockRepETag
1070
     1
1071
      596
1005
3CFC
  0
SPLINE
  5
3CFD
102
{ACAD_REACTORS
330
3D32
330
3D33
102
}
330
3CF4
100
AcDbEntity
  8
APL Border
 62
     8
100
AcDbSpline
210
0.0
220
0.0
230
1.0
 70
     8
 71
     3
 72
    19
 73
    15
 74
     0
 42
0.0000000001
 43
0.0000000001
 40
1.529304964685563
 40
1.529304964685563
 40
1.529304964685563
 40
1.529304965389289
 40
2.032016958536417
 40
2.556791262130423
 40
2.964493033520332
 40
3.465275586793771
 40
4.160836826595903
 40
4.71800698457321
 40
5.304510401169525
 40
5.733359288828643
 40
6.099728421126306
 40
6.422629926283571
 40
6.722447272622213
 40
6.957123473755099
 40
6.957123473755099
 40
6.957123473755099
 40
6.957123473755099
 10
11.64369617822672
 20
42.03297741382947
 30
0.0
 10
11.47589856643677
 20
42.04574754506741
 30
0.0
 10
11.13485165915975
 20
42.01473204050012
 30
0.0
 10
10.65553906793815
 20
41.91613810684326
 30
0.0
 10
10.23036575101369
 20
41.67654609785123
 30
0.0
 10
9.854221329784113
 20
41.27113304911427
 30
0.0
 10
9.717431528044755
 20
40.66388266631498
 30
0.0
 10
9.641062203095145
 20
40.05806431643046
 30
0.0
 10
9.716968816830743
 20
39.48770259248511
 30
0.0
 10
10.00680770225198
 20
39.09661486818469
 30
0.0
 10
10.3797311442331
 20
38.98358798973799
 30
0.0
 10
10.70216182646531
 20
38.92661434152812
 30
0.0
 10
10.99026249243499
 20
38.92783484269152
 30
0.0
 10
11.24302802126629
 20
38.95177692242413
 30
0.0
 10
11.33360452536307
 20
38.96406177273881
 30
0.0
1001
AcDbBlockRepETag
1070
     1
1071
      597
1005
3CFD
  0
LWPOLYLINE
  5
3CFE
102
{ACAD_REACTORS
330
3D2F
102
}
330
3CF4
100
AcDbEntity
  8
APL Border
 62
     8
100
AcDbPolyline
 90
       12
 70
     1
 43
0.0
 10
14.13627631352983
 20
43.61979184908029
 10
18.38986203356285
 20
43.61979184908029
 10
18.21321428445671
 20
41.9726305274507
 10
15.84058876400877
 20
41.9726305274507
 10
15.75340373709809
 20
41.15966911198297
 10
17.71732334684157
 20
41.15966911198297
 10
17.56969663746741
 20
39.57967635988449
 10
15.58395939694927
 20
39.57967635988449
 10
15.5052467299167
 20
38.84571591422678
 10
17.87787225036464
 20
38.84571591422678
 10
17.72077299807506
 20
37.38083558975206
 10
13.46718727804204
 20
37.38083558975206
1001
AcDbBlockRepETag
1070
     1
1071
      599
1005
3CFE
  0
LWPOLYLINE
  5
3CFF
102
{ACAD_REACTORS
330
3D32
330
3D33
102
}
330
3CF4
100
AcDbEntity
  8
APL Border
 62
     8
100
AcDbPolyline
 90
        2
 70
     0
 43
0.0
 10
13.141643811855
 20
43.40554077871887
 10
13.141643811855
 20
41.76981947766621
1001
AcDbBlockRepETag
1070
     1
1071
      600
1005
3CFF
  0
LWPOLYLINE
  5
3D00
102
{ACAD_REACTORS
330
3D32
330
3D33
102
}
330
3CF4
100
AcDbEntity
  8
APL Border
 62
     8
100
AcDbPolyline
 90
        6
 70
     0
 43
0.0
 10
11.33358781659778
 20
38.96390597096916
 10
11.39962533929804
 20
39.57967635988449
 10
10.96889270630695
 20
39.57967635988449
 10
11.12639005748273
 20
41.04826877857415
 10
13.23839963312048
 20
41.04826877857415
 10
12.86026661033734
 20
37.52234731786496
1001
AcDbBlockRepETag
1070
     1
1071
      601
1005
3D00
  0
LWPOLYLINE
  5
3D01
102
{ACAD_REACTORS
330
3D2C
102
}
330
3CF4
100
AcDbEntity
  8
APL Border
 62
     8
100
AcDbPolyline
 90
        8
 70
     1
 43
0.0
 10
3.105743226874893
 20
43.61998313276061
 10
2.929095477768755
 20
41.97282181113101
 10
1.466301152475638
 20
41.97282181113101
 10
0.9741138955425029
 20
37.38339558452146
 10
-0.867968570535281
 20
37.38102687343238
 10
-0.3755272841536326
 20
41.97282181113101
 10
-1.891167362926863
 20
41.97282181113101
 10
-1.725754035154749
 20
43.61998313276061
1001
AcDbBlockRepETag
1070
     1
1071
      604
1005
3D01
  0
LWPOLYLINE
  5
3D02
102
{ACAD_REACTORS
330
3D2B
102
}
330
3CF4
100
AcDbEntity
  8
APL Border
 62
     8
100
AcDbPolyline
 90
       10
 70
     1
 43
0.0
 10
-4.228474015381578
 20
40.14164596649268
 10
-3.855464624526035
 20
43.61979184908029
 10
-2.181839912298443
 20
43.61979184908029
 10
-2.850928947786229
 20
37.38083558975206
 10
-5.032306754624556
 20
37.38083558975206
 10
-6.131920885667284
 20
40.6246666384634
 10
-6.479801476178323
 20
37.38083558975206
 10
-8.135186891292875
 20
37.38083558975206
 10
-7.466097855805088
 20
43.61979184908029
 10
-5.40751765387219
 20
43.61979184908029
1001
AcDbBlockRepETag
1070
     1
1071
      605
1005
3D02
  0
LWPOLYLINE
  5
3D03
102
{ACAD_REACTORS
330
3D32
102
}
330
3CF4
100
AcDbEntity
  8
APL Border
  6
Continuous
 62
     8
100
AcDbPolyline
 90
        8
 70
     1
 43
0.0
 10
-8.449177928734428
 20
37.38083558975206
 10
-9.847253547555595
 20
43.61979184908029
 10
-12.02298966350147
 20
43.61979184908029
 10
-14.82679588919473
 20
37.38083558975206
 10
-12.95240022532295
 20
37.38083558975206
 10
-12.35252874042399
 20
38.71565392391761
 10
-10.64639685172309
 20
38.71565392391761
 10
-10.34727999772013
 20
37.38083558975206
1001
AcDbBlockRepETag
1070
     1
1071
      606
1005
3D03
  0
LWPOLYLINE
  5
3D04
330
3CF4
100
AcDbEntity
  8
APL Border
  6
Continuous
 62
     8
100
AcDbPolyline
 90
        7
 70
     1
 43
0.0
 10
-18.99614352503855
 20
43.61979184908029
 10
-17.7875751270476
 20
37.38083558975206
 10
-15.77022638070494
 20
37.38083558975206
 10
-12.96642015501169
 20
43.61979184908029
 10
-14.7664201550117
 20
43.61979184908029
 10
-16.54136876356097
 20
39.42215966960597
 10
-17.19614352503853
 20
43.61979184908029
1001
AcDbBlockRepETag
1070
     1
1071
      608
1005
3D04
  0
LWPOLYLINE
  5
3D05
102
{ACAD_REACTORS
330
3D35
102
}
330
3CF4
100
AcDbEntity
  8
APL Border
  6
Continuous
 62
     8
100
AcDbPolyline
 90
        4
 70
     1
 43
0.0
 10
16.33779773177886
 20
35.29789574745093
 10
-16.33747952551644
 20
35.29789574745093
 10
-12.98884796421711
 20
29.49789574745094
 10
12.98916617047902
 20
29.49789574745094
1001
AcDbBlockRepETag
1070
     1
1071
      609
1005
3D05
  0
LWPOLYLINE
  5
3D06
102
{ACAD_REACTORS
330
3D28
102
}
330
3CF4
100
AcDbEntity
  8
APL Border
 62
     8
100
AcDbPolyline
 90
        9
 70
     1
 43
0.0
 10
7.455500104221528
 20
25.00957443408062
 10
6.800478684667126
 20
26.87985997284487
 10
7.607536311785906
 20
26.87985997284487
 10
7.963471882016364
 20
25.86355557445326
 10
8.538893993587493
 20
26.87985997284487
 10
9.414203966725494
 20
26.87985997284487
 10
8.232331174709315
 20
25.00957443408062
 10
8.120338037129926
 20
23.87985997284487
 10
7.343506966642138
 20
23.87985997284487
1001
AcDbBlockRepETag
1070
     1
1071
      611
1005
3D06
  0
LWPOLYLINE
  5
3D07
102
{ACAD_REACTORS
330
3D28
102
}
330
3CF4
100
AcDbEntity
  8
APL Border
 62
     8
100
AcDbPolyline
 90
        4
 70
     1
 43
0.0
 10
12.20974330707307
 20
28.14789574745094
 10
8.850698786449385
 20
22.32985997284487
 10
-8.850380580188158
 20
22.32985997284487
 10
-12.20942510081127
 20
28.14789574745094
1001
AcDbBlockRepETag
1070
     1
1071
      613
1005
3D07
  0
LWPOLYLINE
  5
3D08
102
{ACAD_REACTORS
330
3D28
102
}
330
3CF4
100
AcDbEntity
  8
APL Border
 62
     8
100
AcDbPolyline
 90
        6
 70
     0
 43
0.0
 10
5.580769717272147
 20
26.18861664944085
 10
5.137953374950967
 20
26.18861664944085
 10
4.909077041159065
 20
23.87985997284487
 10
4.132245970671277
 20
23.87985997284487
 10
4.429648034880159
 20
26.87985997284487
 10
5.793677369303878
 20
26.87985997284487
1001
AcDbBlockRepETag
1070
     1
1071
      614
1005
3D08
  0
LWPOLYLINE
  5
3D09
102
{ACAD_REACTORS
330
3D35
102
}
330
3CF4
100
AcDbEntity
  8
APL Border
  6
Continuous
 62
     8
100
AcDbPolyline
 90
        4
 70
     1
 43
0.0
 10
1.119422795136273
 20
34.02289574745092
 10
0.3425917246484857
 20
34.02289574745092
 10
0.0451896604396041
 20
31.02289574745093
 10
0.8220207309273916
 20
31.02289574745093
1001
AcDbBlockRepETag
1070
     1
1071
      620
1005
3D09
  0
LWPOLYLINE
  5
3D0A
102
{ACAD_REACTORS
330
3D28
102
}
330
3CF4
100
AcDbEntity
  8
APL Border
 62
     8
100
AcDbPolyline
 90
        4
 70
     0
 43
0.0
 10
6.045077525535504
 20
25.1035057083981
 10
6.339444173005233
 20
23.87985997284487
 10
5.532386545886623
 20
23.87985997284487
 10
5.142141867913778
 20
25.50205881951548
1001
AcDbBlockRepETag
1070
     1
1071
      621
1005
3D0A
  0
LWPOLYLINE
  5
3D0B
102
{ACAD_REACTORS
330
3D29
102
}
330
3CF4
100
AcDbEntity
  8
APL Border
 62
     8
100
AcDbPolyline
 90
        4
 70
     1
 43
0.0
 10
0.0001591031300165
 20
7.000275566930961
 10
3.563095122801513
 20
13.17146177711931
 10
-0.9450856774407441
 20
20.97985997284487
 10
-8.070957716782203
 20
20.97985997284487
1001
AcDbBlockRepETag
1070
     1
1071
      622
1005
3D0B
  0
LWPOLYLINE
  5
3D0C
102
{ACAD_REACTORS
330
3D2D
102
}
330
3CF4
100
AcDbEntity
  8
APL Border
 62
     8
100
AcDbPolyline
 90
        3
 70
     1
 43
0.0
 10
0.8484489512626112
 20
20.97985997284487
 10
4.459862437153191
 20
14.72470832814346
 10
8.071275923043373
 20
20.97985997284487
1001
AcDbBlockRepETag
1070
     1
1071
      623
1005
3D0C
  0
LWPOLYLINE
  5
3D0D
102
{ACAD_REACTORS
330
3D28
102
}
330
3CF4
100
AcDbEntity
  8
APL Border
 62
     8
100
AcDbPolyline
 90
        4
 70
     0
 43
0.0
 10
-7.465264214605014
 20
24.80065518845331
 10
-7.259144283007998
 20
26.87985997284487
 10
-6.48231321252021
 20
26.87985997284487
 10
-6.679452083611295
 20
24.89125032803118
1001
AcDbBlockRepETag
1070
     1
1071
      626
1005
3D0D
  0
LWPOLYLINE
  5
3D0E
102
{ACAD_REACTORS
330
3D28
102
}
330
3CF4
100
AcDbEntity
  8
APL Border
 62
     8
100
AcDbPolyline
 90
        4
 70
     0
 43
0.0
 10
-7.845603808282817
 20
23.89886637823479
 10
-8.399876560405061
 20
23.98304774476413
 10
-8.399876560405061
 20
24.64579492155148
 10
-7.81511791605564
 20
24.56632682606838
1001
AcDbBlockRepETag
1070
     1
1071
      627
1005
3D0E
  0
LWPOLYLINE
  5
3D0F
102
{ACAD_REACTORS
330
3D35
102
}
330
3CF4
100
AcDbEntity
  8
APL Border
  6
Continuous
 62
     8
100
AcDbPolyline
 90
        6
 70
     1
 43
0.0
 10
-7.549934049473819
 20
34.02289574745092
 10
-8.326765119961606
 20
34.02289574745092
 10
-8.624167184170488
 20
31.02289574745093
 10
-6.770246795158442
 20
31.02289574745093
 10
-6.700109532938455
 20
31.73039516316516
 10
-7.777198851462713
 20
31.73039516316516
1001
AcDbBlockRepETag
1070
     1
1071
      628
1005
3D0F
  0
LWPOLYLINE
  5
3D10
102
{ACAD_REACTORS
330
3D35
102
}
330
3CF4
100
AcDbEntity
  8
APL Border
  6
Continuous
 62
     8
100
AcDbPolyline
 90
        3
 70
     1
 43
0.0
 10
-10.14693849009504
 20
33.12550842600547
 10
-10.00044093617224
 20
32.51653621849665
 10
-10.45444607654239
 20
32.51653621849665
1001
AcDbBlockRepETag
1070
     1
1071
      629
1005
3D10
  0
LWPOLYLINE
  5
3D11
102
{ACAD_REACTORS
330
3D35
102
}
330
3CF4
100
AcDbEntity
  8
APL Border
  6
Continuous
 62
     8
100
AcDbPolyline
 90
        8
 70
     1
 43
0.0
 10
-8.834065309397374
 20
31.02289574745093
 10
-9.555761072109191
 20
34.02289574745092
 10
-10.50084997043805
 20
34.02289574745092
 10
-12.01573480092304
 20
31.02289574745093
 10
-11.20867717380426
 20
31.02289574745093
 10
-10.74455961985978
 20
31.94201027933759
 10
-9.862229957552528
 20
31.94201027933759
 10
-9.641122936515984
 20
31.02289574745093
1001
AcDbBlockRepETag
1070
     1
1071
      630
1005
3D11
  0
LWPOLYLINE
  5
3D12
102
{ACAD_REACTORS
330
3D2E
102
}
330
3CF4
100
AcDbEntity
  8
APL Border
 62
     8
100
AcDbPolyline
 90
        3
 70
     1
 43
0.0
 10
0.0000000003145431
 20
4.000000000000009
 10
23.60256143704041
 20
44.88083558975217
 10
-23.60256142783933
 20
44.88083558975206
1001
AcDbBlockRepETag
1070
     1
1071
      631
1005
3D12
  0
LWPOLYLINE
  5
3D13
102
{ACAD_REACTORS
330
3D2E
102
}
330
3CF4
100
AcDbEntity
  8
APL Border
 62
     8
100
AcDbPolyline
 90
        3
 70
     1
 43
0.0
 10
27.06666305249243
 20
46.88083558975206
 10
-27.06666304266244
 20
46.88083558975206
 10
-0.0000000000000284
 20
0.0000000000000238
1001
AcDbBlockRepETag
1070
     1
1071
      703
1005
3D13
  0
LWPOLYLINE
  5
3D14
102
{ACAD_REACTORS
330
3D32
330
3D34
102
}
330
3CF4
100
AcDbEntity
  8
APL Border
  6
Continuous
 62
     8
100
AcDbPolyline
 90
        8
 70
     1
 43
0.0
 10
7.980630193374565
 20
37.38083558975206
 10
6.582554574553398
 20
43.61979184908029
 10
4.406818458607517
 20
43.61979184908029
 10
1.603012232914267
 20
37.38083558975206
 10
3.477407896786047
 20
37.38083558975206
 10
4.077279381685002
 20
38.71565392391761
 10
5.783411270385897
 20
38.71565392391761
 10
6.082528124388858
 20
37.38083558975206
1001
AcDbBlockRepETag
1070
     1
1071
      760
1005
3D14
  0
LWPOLYLINE
  5
3D15
102
{ACAD_REACTORS
330
3D32
330
3D34
102
}
330
3CF4
100
AcDbEntity
  8
APL Border
  6
Continuous
 62
     8
100
AcDbPolyline
 90
        3
 70
     1
 43
0.0
 10
5.206046831612667
 20
41.69367581194667
 10
5.552066120962537
 20
40.14955389030274
 10
4.512113667606024
 20
40.14955389030274
1001
AcDbBlockRepETag
1070
     1
1071
      761
1005
3D15
  0
LWPOLYLINE
  5
3D16
102
{ACAD_REACTORS
330
3D35
102
}
330
3CF4
100
AcDbEntity
  8
APL Border
  6
Continuous
 62
     8
100
AcDbPolyline
 90
        4
 70
     1
 43
0.0
 10
5.615530392135354
 20
34.02289574745092
 10
4.838699321647567
 20
34.02289574745092
 10
4.541297257438685
 20
31.02289574745093
 10
5.318128327926473
 20
31.02289574745093
1001
AcDbBlockRepETag
1070
     1
1071
      785
1005
3D16
  0
LWPOLYLINE
  5
3D17
102
{ACAD_REACTORS
330
3D35
102
}
330
3CF4
100
AcDbEntity
  8
APL Border
 62
     8
100
AcDbPolyline
 90
       13
 70
     0
 43
0.0
 10
-5.535628094882099
 20
32.1870929174454
 10
-5.353790768486447
 20
34.02289574745092
 10
-6.130425112774389
 20
34.0248801943346
 10
-6.333826921263238
 20
31.9730940808461
 42
0.1695250701542156
 10
-6.106840682758871
 20
31.39301551086222
 42
0.0826087127293405
 10
-5.813961912619959
 20
31.13108995311734
 42
0.1017056431856583
 10
-5.510404689928634
 20
31.02488019433462
 10
-4.760057203160528
 20
31.0248801943346
 42
0.1918846087154957
 10
-4.136172756560569
 20
31.41919793838074
 42
0.1021851328841131
 10
-3.889225876952792
 20
31.97309408084612
 10
-3.685824068463887
 20
34.0248801943346
 10
-4.462655138951674
 20
34.0248801943346
 10
-4.65073703420694
 20
32.12763147393075
1001
AcDbBlockRepETag
1070
     1
1071
      866
1005
3D17
  0
SPLINE
  5
3D18
102
{ACAD_REACTORS
330
3D35
102
}
330
3CF4
100
AcDbEntity
  8
APL Border
 62
     8
100
AcDbSpline
210
0.0
220
0.0
230
1.0
 70
     8
 71
     3
 72
    24
 73
    20
 74
    18
 42
0.0000000001
 43
0.0000000001
 44
0.0000000001
 40
0.0
 40
0.0
 40
0.0
 40
0.0
 40
0.1612668085855933
 40
0.2532303870616441
 40
0.3214574742553387
 40
0.4101806452459026
 40
0.5031588697521256
 40
0.5664511009171887
 40
0.624871878778038
 40
0.6731644290699905
 40
0.7797386132933425
 40
0.9206747739903356
 40
1.025058962643435
 40
1.116412352300609
 40
1.212929457806147
 40
1.276240530363035
 40
1.339961572016457
 40
1.386280507025952
 40
1.435584820291647
 40
1.435584820291647
 40
1.435584820291647
 40
1.435584820291647
 10
-5.535628094882099
 20
32.1870929174454
 30
0.0
 10
-5.53213414748617
 20
32.13312332644234
 30
0.0
 10
-5.526647751003197
 20
32.04837718097616
 30
0.0
 10
-5.488860432547518
 20
31.94683424540268
 30
0.0
 10
-5.447171648840961
 20
31.8753242559261
 30
0.0
 10
-5.395818187958767
 20
31.80737001333622
 30
0.0
 10
-5.320761662408248
 20
31.77062767698265
 30
0.0
 10
-5.254477128417399
 20
31.74466351916423
 30
0.0
 10
-5.200112096792143
 20
31.72723210184819
 30
0.0
 10
-5.128888988289486
 20
31.72198763189771
 30
0.0
 10
-5.030042811850907
 20
31.72786870372271
 30
0.0
 10
-4.915707066470194
 20
31.75812586881066
 30
0.0
 10
-4.815771266393483
 20
31.81405298527761
 30
0.0
 10
-4.754740567305573
 20
31.89193427605802
 30
0.0
 10
-4.714673995441981
 20
31.96546823314959
 30
0.0
 10
-4.683526695854578
 20
32.03313813212702
 30
0.0
 10
-4.662006183068958
 20
32.08703079743258
 30
0.0
 10
-4.651792807669443
 20
32.13930455656534
 30
0.0
 10
-4.647206914869654
 20
32.17083533130903
 30
0.0
 10
-4.644842382192905
 20
32.1870929174454
 30
0.0
 11
-5.535628094882099
 21
32.1870929174454
 31
0.0
 11
-5.515298846223288
 21
32.02711258990369
 31
0.0
 11
-5.483433995220536
 21
31.94084596230824
 31
0.0
 11
-5.44947766231354
 21
31.88166908437061
 31
0.0
 11
-5.392321718875223
 21
31.8138089399536
 31
0.0
 11
-5.311535231450477
 21
31.76778184269665
 31
0.0
 11
-5.252609732475718
 21
31.74468006578604
 31
0.0
 11
-5.196420818688864
 21
31.72868652792477
 31
0.0
 11
-5.148347479287053
 21
31.72409039341204
 31
0.0
 11
-5.041949649235618
 21
31.73021889267523
 31
0.0
 11
-4.906104524581394
 21
31.76775692005663
 31
0.0
 11
-4.816802280674096
 21
31.82180475140893
 31
0.0
 11
-4.758009512288197
 21
31.89172507883507
 31
0.0
 11
-4.710553499371997
 21
31.97576958188711
 31
0.0
 11
-4.684063009443377
 21
32.03327215445256
 31
0.0
 11
-4.662061522518769
 21
32.09307437617135
 31
0.0
 11
-4.652346246099511
 21
32.13836297456555
 31
0.0
 11
-4.644842382192905
 21
32.1870929174454
 31
0.0
1001
AcDbBlockRepETag
1070
     1
1071
      827
1005
3D18
  0
LWPOLYLINE
  5
3D19
102
{ACAD_REACTORS
330
3D35
102
}
330
3CF4
100
AcDbEntity
  8
APL Border
 62
     8
100
AcDbPolyline
 90
       13
 70
     0
 43
0.0
 10
6.787553510813182
 20
32.18510847056172
 10
6.969390837208834
 20
34.02091130056725
 10
6.192756492920892
 20
34.02289574745092
 10
5.989354684432043
 20
31.97110963396243
 42
0.1695250701542156
 10
6.21634092293641
 20
31.39103106397854
 42
0.0826087127293405
 10
6.509219693075323
 20
31.12910550623367
 42
0.1017056431856583
 10
6.812776915766647
 20
31.02289574745094
 10
7.563124402534754
 20
31.02289574745093
 42
0.1918846087154957
 10
8.187008849134713
 20
31.41721349149707
 42
0.1021851328841131
 10
8.433955728742489
 20
31.97110963396244
 10
8.637357537231395
 20
34.02289574745092
 10
7.860526466743607
 20
34.02289574745092
 10
7.672444571488341
 20
32.12564702704707
1001
AcDbBlockRepETag
1070
     1
1071
      837
1005
3D19
  0
LWPOLYLINE
  5
3D1A
102
{ACAD_REACTORS
330
3D35
102
}
330
3CF4
100
AcDbEntity
  8
APL Border
  6
Continuous
 62
     8
100
AcDbPolyline
 90
       13
 70
     1
 43
0.0
 10
-1.295012624591635
 20
34.02807364104484
 10
-0.1975458970834154
 20
34.0280551402308
 10
-0.4949479612922972
 20
31.0280551402308
 10
-1.115886909891884
 20
31.0280551402308
 10
-0.9222174129992311
 20
32.98166797820307
 10
-1.611942464131544
 20
31.0280551402308
 10
-2.344230471214956
 20
31.0280551402308
 10
-2.63016252924163
 20
32.98166797820306
 10
-2.823832026134283
 20
31.0280551402308
 10
-3.44477097473387
 20
31.0280551402308
 10
-3.147349004861581
 20
34.02825593571061
 10
-2.047349004861558
 20
34.02825593571061
 10
-1.8272453185659
 20
32.52441131541936
1001
AcDbBlockRepETag
1070
     1
1071
      867
1005
3D1A
  0
LWPOLYLINE
  5
3D1B
102
{ACAD_REACTORS
330
3D35
102
}
330
3CF4
100
AcDbEntity
  8
APL Border
  6
Continuous
 62
     8
100
AcDbPolyline
 90
       10
 70
     1
 43
0.0
 10
1.724974710806094
 20
34.02289574745092
 10
1.427552740933805
 20
31.02269495197112
 10
2.048491689533392
 20
31.02269495197112
 10
2.231899581960561
 20
32.87279534971117
 10
3.051434648859952
 20
31.02269495197112
 10
3.902826396438257
 20
31.02269495197112
 10
4.200228460647139
 20
34.02269495197112
 10
3.580266230192904
 20
34.02269495197112
 10
3.395920304875374
 20
32.17298478610545
 10
2.576558098165463
 20
34.02269495197112
1001
AcDbBlockRepETag
1070
     1
1071
      616
1005
3D1B
  0
LWPOLYLINE
  5
3D1C
102
{ACAD_REACTORS
330
3D35
102
}
330
3CF4
100
AcDbEntity
  8
APL Border
  6
Continuous
 62
     8
100
AcDbPolyline
 90
       13
 70
     1
 43
0.0
 10
11.01183437133605
 20
34.02271345278515
 10
12.10930109884427
 20
34.02269495197111
 10
11.81189903463539
 20
31.02269495197111
 10
11.1909600860358
 20
31.02269495197111
 10
11.38462958292845
 20
32.97630778994339
 10
10.69490453179614
 20
31.02269495197111
 10
9.962616524712728
 20
31.02269495197111
 10
9.676684466686054
 20
32.97630778994338
 10
9.483014969793401
 20
31.02269495197111
 10
8.862076021193814
 20
31.02269495197111
 10
9.159497991066103
 20
34.02289574745092
 10
10.25949799106612
 20
34.02289574745092
 10
10.47960167736178
 20
32.51905112715967
1001
AcDbBlockRepETag
1070
     1
1071
      847
1005
3D1C
  0
SPLINE
  5
3D1D
102
{ACAD_REACTORS
330
3D35
102
}
330
3CF4
100
AcDbEntity
  8
APL Border
 62
     8
100
AcDbSpline
210
0.0
220
0.0
230
1.0
 70
     8
 71
     3
 72
    24
 73
    20
 74
    18
 42
0.0000000001
 43
0.0000000001
 44
0.0000000001
 40
0.0
 40
0.0
 40
0.0
 40
0.0
 40
0.1612668085856004
 40
0.2532303870616512
 40
0.3214574742553458
 40
0.4101806452458731
 40
0.5031588697521455
 40
0.5664511009172086
 40
0.6248718787780579
 40
0.6731644290699537
 40
0.7797386132933625
 40
0.9206747739903555
 40
1.025058962643406
 40
1.116412352300617
 40
1.212929457806155
 40
1.276240530363043
 40
1.339961572016455
 40
1.386280507025956
 40
1.435584820291643
 40
1.435584820291643
 40
1.435584820291643
 40
1.435584820291643
 10
6.787553510813182
 20
32.18510847056172
 30
0.0
 10
6.791047458209138
 20
32.13113887955867
 30
0.0
 10
6.796533854692151
 20
32.04639273409249
 30
0.0
 10
6.834321173147815
 20
31.94484979851901
 30
0.0
 10
6.876009956854381
 20
31.87333980904243
 30
0.0
 10
6.927363417736518
 20
31.80538556645249
 30
0.0
 10
7.002419943287081
 20
31.76864323009899
 30
0.0
 10
7.068704477277941
 20
31.74267907228054
 30
0.0
 10
7.123069508903178
 20
31.72524765496453
 30
0.0
 10
7.194292617405833
 20
31.72000318501402
 30
0.0
 10
7.293138793844411
 20
31.72588425683905
 30
0.0
 10
7.407474539225143
 20
31.75614142192696
 30
0.0
 10
7.507410339301799
 20
31.81206853839397
 30
0.0
 10
7.568441038389779
 20
31.88994982917432
 30
0.0
 10
7.608507610253345
 20
31.96348378626594
 30
0.0
 10
7.639654909840773
 20
32.03115368524333
 30
0.0
 10
7.661175422626328
 20
32.08504635054892
 30
0.0
 10
7.671388798025919
 20
32.13732010968165
 30
0.0
 10
7.675974690825655
 20
32.16885088442535
 30
0.0
 10
7.678339223502376
 20
32.18510847056172
 30
0.0
 11
6.787553510813182
 21
32.18510847056172
 31
0.0
 11
6.80788275947205
 21
32.02512814302002
 31
0.0
 11
6.839747610474802
 21
31.93886151542456
 31
0.0
 11
6.873703943381798
 21
31.87968463748693
 31
0.0
 11
6.930859886820059
 21
31.81182449306993
 31
0.0
 11
7.011646374244861
 21
31.76579739581298
 31
0.0
 11
7.07057187321962
 21
31.74269561890237
 31
0.0
 11
7.126760787006475
 21
31.72670208104109
 31
0.0
 11
7.174834126408228
 21
31.72210594652836
 31
0.0
 11
7.28123195645972
 21
31.72823444579155
 31
0.0
 11
7.417077081113944
 21
31.76577247317295
 31
0.0
 11
7.506379325021185
 21
31.81982030452526
 31
0.0
 11
7.565172093407142
 21
31.88974063195139
 31
0.0
 11
7.612628106323342
 21
31.97378513500343
 31
0.0
 11
7.639118596251961
 21
32.03128770756889
 31
0.0
 11
7.661120083176541
 21
32.09108992928768
 31
0.0
 11
7.670835359595827
 21
32.13637852768188
 31
0.0
 11
7.678339223502376
 21
32.18510847056172
 31
0.0
1001
AcDbBlockRepETag
1070
     1
1071
      848
1005
3D1D
  0
LWPOLYLINE
  5
3D1E
102
{ACAD_REACTORS
330
3D28
102
}
330
3CF4
100
AcDbEntity
  8
APL Border
  6
Continuous
 62
     8
100
AcDbPolyline
 90
        4
 70
     1
 43
0.0
 10
-1.87552020613694
 20
26.87985997284487
 10
-2.652351276624727
 20
26.87985997284487
 10
-2.949753340833609
 20
23.87985997284487
 10
-2.172922270345821
 20
23.87985997284487
1001
AcDbBlockRepETag
1070
     1
1071
      851
1005
3D1E
  0
LWPOLYLINE
  5
3D1F
102
{ACAD_REACTORS
330
3D28
102
}
330
3CF4
100
AcDbEntity
  8
APL Border
  6
Continuous
 62
     8
100
AcDbPolyline
 90
       10
 70
     1
 43
0.0
 10
-1.269968290467119
 20
26.87985997284487
 10
-1.567390260339408
 20
23.87965917736506
 10
-0.9464513117398212
 20
23.87965917736506
 10
-0.7630434193126519
 20
25.72975957510511
 10
0.0564916475867392
 20
23.87965917736506
 10
0.9078833951650437
 20
23.87965917736506
 10
1.205285459373925
 20
26.87965917736506
 10
0.5853232289196911
 20
26.87965917736506
 10
0.4009773036021614
 20
25.0299490114994
 10
-0.41838490310775
 20
26.87965917736506
1001
AcDbBlockRepETag
1070
     1
1071
      852
1005
3D1F
  0
LWPOLYLINE
  5
3D20
102
{ACAD_REACTORS
330
3D28
102
}
330
3CF4
100
AcDbEntity
  8
APL Border
 62
     8
100
AcDbPolyline
 90
       13
 70
     0
 43
0.0
 10
1.882971499788112
 20
26.87985997284487
 10
3.847979515363789
 20
26.87985997284487
 10
3.788499102522024
 20
26.27985997284487
 10
2.600322157434135
 20
26.27985997284487
 10
2.540562294183217
 20
25.67704105755032
 10
3.542578834455781
 20
25.67704105755032
 10
3.476410183919
 20
25.07985997284487
 10
2.474393643646379
 20
25.07985997284487
 10
2.421932428393546
 20
24.48037956726917
 10
3.610109373481435
 20
24.48037956726917
 10
3.550577451154907
 20
23.87985997284487
 10
1.58556943557923
 20
23.87985997284487
 10
1.882971499788112
 20
26.87985997284487
1001
AcDbBlockRepETag
1070
     1
1071
      864
1005
3D20
  0
LINE
  5
3D21
102
{ACAD_REACTORS
330
3D28
102
}
330
3CF4
100
AcDbEntity
  8
APL Border
 62
     8
100
AcDbLine
 10
5.198870965514487
 20
25.50205881951548
 30
0.0
 11
5.142141867913778
 21
25.50205881951548
 31
0.0
1001
AcDbBlockRepETag
1070
     1
1071
      865
1005
3D21
  0
SPLINE
  5
3D22
102
{ACAD_REACTORS
330
3D28
102
}
330
3CF4
100
AcDbEntity
  8
APL Border
 62
     8
100
AcDbSpline
210
0.0
220
0.0
230
1.0
 70
     8
 71
     3
 72
    25
 73
    21
 74
     0
 42
0.0000000001
 43
0.0000000001
 40
0.0
 40
0.0
 40
0.0
 40
0.0
 40
0.3463130802699203
 40
0.6043703055549736
 40
0.8524756959462802
 40
1.099102870182333
 40
1.318598063912852
 40
1.521064627602771
 40
1.694788988362445
 40
1.912615757663666
 40
2.142780600046976
 40
2.483378398179008
 40
2.873129106540456
 40
3.09179617846886
 40
3.322387155839943
 40
3.509181810940893
 40
3.69147909649244
 40
3.927844502409028
 40
4.143063657146388
 40
4.406491840702669
 40
4.406491840702669
 40
4.406491840702669
 40
4.406491840702669
 10
-5.114032196843737
 20
23.8798599728377
 30
0.0
 10
-5.228982970363915
 20
23.89503832123493
 30
0.0
 10
-5.429589987754155
 20
23.92152690506636
 30
0.0
 10
-5.693675021857103
 20
24.03567408988205
 30
0.0
 10
-5.892941488864977
 20
24.19306688135278
 30
0.0
 10
-6.036314150572081
 20
24.38541826526996
 30
0.0
 10
-6.137502326421099
 20
24.58575647986304
 30
0.0
 10
-6.184089306330008
 20
24.77995730666768
 30
0.0
 10
-6.209030826709039
 20
24.97670983726675
 30
0.0
 10
-6.206060891535827
 20
25.18442176502657
 30
0.0
 10
-6.186178297010457
 20
25.44676950423098
 30
0.0
 10
-6.128537036390639
 20
25.76177491648128
 30
0.0
 10
-6.024273636684796
 20
26.06592307272473
 30
0.0
 10
-5.858617591962229
 20
26.29271170654482
 30
0.0
 10
-5.725334295882049
 20
26.45803039682342
 30
0.0
 10
-5.575727893531166
 20
26.59168695454355
 30
0.0
 10
-5.409633372236157
 20
26.70740493083671
 30
0.0
 10
-5.217340570729675
 20
26.79721770551459
 30
0.0
 10
-4.988026372094168
 20
26.86731869684436
 30
0.0
 10
-4.849424991220388
 20
26.87777876054341
 30
0.0
 10
-4.7645039250757
 20
26.87985997283595
 30
0.0
1001
AcDbBlockRepETag
1070
     1
1071
      875
1005
3D22
  0
ELLIPSE
  5
3D23
102
{ACAD_REACTORS
330
3D27
330
3D28
102
}
330
3CF4
100
AcDbEntity
  8
APL Border
 62
     8
100
AcDbEllipse
 10
-4.728528852722632
 20
25.3825150979867
 30
0.0
 11
-0.2732326585474372
 21
-0.8283682112856686
 31
0.0
210
0.0
220
0.0
230
-1.0
 40
0.767138872147242
 41
0.0
 42
6.283185307179586
1001
AcDbBlockRepETag
1070
     1
1071
      876
1005
3D23
  0
SPLINE
  5
3D24
102
{ACAD_REACTORS
330
3D28
102
}
330
3CF4
100
AcDbEntity
  8
APL Border
 62
     8
100
AcDbSpline
210
0.0
220
0.0
230
1.0
 70
     8
 71
     3
 72
    26
 73
    22
 74
     0
 42
0.0000000001
 43
0.0000000001
 40
4.60284491300692
 40
4.60284491300692
 40
4.60284491300692
 40
4.60284491300692
 40
4.695921259854779
 40
4.963507654731998
 40
5.182979392648435
 40
5.397234555269768
 40
5.619529682274728
 40
5.869260387557257
 40
6.093250787730498
 40
6.263427758207029
 40
6.582064557968705
 40
6.800458868269094
 40
7.179401531729983
 40
7.575889850719137
 40
7.787844664578662
 40
8.01909420716162
 40
8.205730502580088
 40
8.387453763945252
 40
8.621856230932909
 40
8.833419194479944
 40
8.988019761194074
 40
8.988019761194074
 40
8.988019761194074
 40
8.988019761194074
 10
-4.486699891621668
 20
26.8798599728377
 30
0.0
 10
-4.440001835107608
 20
26.87954742494388
 30
0.0
 10
-4.335540249228728
 20
26.87475925711838
 30
0.0
 10
-4.164200665084621
 20
26.85307202884131
 30
0.0
 10
-3.96932086400659
 20
26.77880589501945
 30
0.0
 10
-3.766465201232762
 20
26.6658847706859
 30
0.0
 10
-3.60114437794968
 20
26.50570040783856
 30
0.0
 10
-3.471205788265336
 20
26.31143584383913
 30
0.0
 10
-3.381388817883674
 20
26.11392472080339
 30
0.0
 10
-3.317144182132551
 20
25.88552622199355
 30
0.0
 10
-3.281793375658168
 20
25.65006475492956
 30
0.0
 10
-3.30137826591374
 20
25.34538614523087
 30
0.0
 10
-3.327064239225308
 20
25.0112478652753
 30
0.0
 10
-3.471288581215731
 20
24.71021445059323
 30
0.0
 10
-3.60460091530777
 20
24.4641890220082
 30
0.0
 10
-3.737092402415015
 20
24.29954990084814
 30
0.0
 10
-3.882945983371143
 20
24.16225529150343
 30
0.0
 10
-4.046861838463826
 20
24.04508050911121
 30
0.0
 10
-4.233796525969012
 20
23.94884265716423
 30
0.0
 10
-4.427631511903911
 20
23.89220734010023
 30
0.0
 10
-4.549580407823555
 20
23.882511578974
 30
0.0
 10
-4.601116794093542
 20
23.87985997285202
 30
0.0
1001
AcDbBlockRepETag
1070
     1
1071
      877
1005
3D24
  0
LWPOLYLINE
  5
3D25
102
{ACAD_REACTORS
330
3D28
102
}
330
3CF4
100
AcDbEntity
  8
APL Border
 62
     8
100
AcDbPolyline
 90
        2
 70
     0
 43
0.0
 10
-4.764503925211641
 20
26.8798599728377
 10
-4.486699891621924
 20
26.8798599728377
1001
AcDbBlockRepETag
1070
     1
1071
      878
1005
3D25
  0
LWPOLYLINE
  5
3D26
102
{ACAD_REACTORS
330
3D28
102
}
330
3CF4
100
AcDbEntity
  8
APL Border
 62
     8
100
AcDbPolyline
 90
        2
 70
     0
 43
0.0
 10
-5.114032196843737
 20
23.8798599728377
 10
-4.601116794093513
 20
23.87985997285202
1001
AcDbBlockRepETag
1070
     1
1071
      879
1005
3D26
  0
HATCH
  5
3D27
330
3CF4
100
AcDbEntity
  8
APL Border
 62
     8
100
AcDbHatch
 10
0.0
 20
0.0
 30
0.0
210
0.0
220
0.0
230
1.0
  2
SOLID
 70
     1
 71
     1
 91
        1
 92
        5
 93
        1
 72
     3
 10
-4.728528852722632
 20
25.3825150979867
 11
-0.2732326585474372
 21
-0.8283682112856686
 40
0.767138872147242
 50
0.0
 51
360.0
 73
     0
 97
        1
330
3D23
 75
     0
 76
     1
 47
0.0172809346375552
 98
        1
 10
-4.520972790815363
 20
25.15086651129009
1001
ACAD
1010
0.0
1020
0.0
1030
0.0
1001
AcDbBlockRepETag
1070
     1
1071
      880
1005
3D27
  0
HATCH
  5
3D28
330
3CF4
100
AcDbEntity
  8
APL Border
 62
     8
100
AcDbHatch
 10
0.0
 20
0.0
 30
0.0
210
0.0
220
0.0
230
1.0
  2
SOLID
 70
     1
 71
     1
 91
        9
 92
        7
 72
     0
 73
     1
 93
        4
 10
-12.20942510081127
 20
28.14789574745095
 10
-8.85038058018816
 20
22.32985997284487
 10
8.850698786449385
 20
22.32985997284487
 10
12.20974330707306
 20
28.14789574745094
 97
        1
330
3D07
 92
       20
 93
        4
 72
     4
 94
        3
 73
     0
 74
     0
 95
       25
 96
       21
 40
0.0
 40
0.0
 40
0.0
 40
0.0
 40
0.3463130802699203
 40
0.6043703055549736
 40
0.8524756959462802
 40
1.099102870182333
 40
1.318598063912852
 40
1.521064627602771
 40
1.694788988362445
 40
1.912615757663666
 40
2.142780600046976
 40
2.483378398179008
 40
2.873129106540456
 40
3.09179617846886
 40
3.322387155839943
 40
3.509181810940893
 40
3.69147909649244
 40
3.927844502409028
 40
4.143063657146388
 40
4.406491840702669
 40
4.406491840702669
 40
4.406491840702669
 40
4.406491840702669
 10
-5.114032196843737
 20
23.8798599728377
 10
-5.228982970363915
 20
23.89503832123493
 10
-5.429589987754155
 20
23.92152690506636
 10
-5.693675021857103
 20
24.03567408988205
 10
-5.892941488864977
 20
24.19306688135278
 10
-6.036314150572081
 20
24.38541826526996
 10
-6.137502326421099
 20
24.58575647986304
 10
-6.184089306330008
 20
24.77995730666768
 10
-6.209030826709039
 20
24.97670983726675
 10
-6.206060891535827
 20
25.18442176502657
 10
-6.186178297010457
 20
25.44676950423098
 10
-6.128537036390639
 20
25.76177491648128
 10
-6.024273636684796
 20
26.06592307272473
 10
-5.858617591962229
 20
26.29271170654482
 10
-5.725334295882049
 20
26.45803039682342
 10
-5.575727893531166
 20
26.59168695454355
 10
-5.409633372236157
 20
26.70740493083671
 10
-5.217340570729675
 20
26.79721770551459
 10
-4.988026372094168
 20
26.86731869684436
 10
-4.849424991220388
 20
26.87777876054341
 10
-4.7645039250757
 20
26.87985997283595
 72
     1
 10
-4.764503925020689
 20
26.87985997283771
 11
-4.486699891621347
 21
26.8798599728377
 72
     4
 94
        3
 73
     0
 74
     0
 95
       26
 96
       22
 40
4.60284491300692
 40
4.60284491300692
 40
4.60284491300692
 40
4.60284491300692
 40
4.695921259854779
 40
4.963507654731998
 40
5.182979392648435
 40
5.397234555269768
 40
5.619529682274728
 40
5.869260387557257
 40
6.093250787730498
 40
6.263427758207029
 40
6.582064557968705
 40
6.800458868269094
 40
7.179401531729983
 40
7.575889850719137
 40
7.787844664578662
 40
8.01909420716162
 40
8.205730502580088
 40
8.387453763945252
 40
8.621856230932909
 40
8.833419194479944
 40
8.988019761194074
 40
8.988019761194074
 40
8.988019761194074
 40
8.988019761194074
 10
-4.486699891621668
 20
26.8798599728377
 10
-4.440001835107608
 20
26.87954742494388
 10
-4.335540249228728
 20
26.87475925711838
 10
-4.164200665084621
 20
26.85307202884131
 10
-3.96932086400659
 20
26.77880589501945
 10
-3.766465201232762
 20
26.6658847706859
 10
-3.60114437794968
 20
26.50570040783856
 10
-3.471205788265336
 20
26.31143584383913
 10
-3.381388817883674
 20
26.11392472080339
 10
-3.317144182132551
 20
25.88552622199355
 10
-3.281793375658168
 20
25.65006475492956
 10
-3.30137826591374
 20
25.34538614523087
 10
-3.327064239225308
 20
25.0112478652753
 10
-3.471288581215731
 20
24.71021445059323
 10
-3.60460091530777
 20
24.4641890220082
 10
-3.737092402415015
 20
24.29954990084814
 10
-3.882945983371143
 20
24.16225529150343
 10
-4.046861838463826
 20
24.04508050911121
 10
-4.233796525969012
 20
23.94884265716423
 10
-4.427631511903911
 20
23.89220734010023
 10
-4.549580407823555
 20
23.882511578974
 10
-4.601116794093542
 20
23.87985997285202
 72
     1
 10
-4.601116794093525
 20
23.87985997285202
 11
-5.114032196843729
 21
23.8798599728377
 97
        4
330
3D22
330
3D25
330
3D24
330
3D26
 92
        4
 93
        1
 72
     3
 10
-4.728528852722632
 20
25.3825150979867
 11
-0.2732326585474372
 21
-0.8283682112856686
 40
0.767138872147242
 50
0.0
 51
360.0
 73
     0
 97
        1
330
3D23
 92
       20
 93
        8
 72
     1
 10
-6.482313212520211
 20
26.87985997284487
 11
-6.679452083611267
 21
24.89125032803125
 72
     4
 94
        3
 73
     0
 74
     0
 95
       16
 96
       12
 40
0.0
 40
0.0
 40
0.0
 40
0.0
 40
0.1978277931646383
 40
0.361463118001824
 40
0.5540499897785108
 40
0.7796220130725381
 40
0.979106605438038
 40
1.222151590302332
 40
1.40748727220097
 40
1.607226525619232
 40
1.815049166761618
 40
1.815049166761618
 40
1.815049166761618
 40
1.815049166761618
 10
-6.679452083611295
 20
24.89125032803118
 10
-6.685371732996685
 20
24.82559351525052
 10
-6.696187882184318
 20
24.70562798418881
 10
-6.721757155054632
 20
24.52229576436942
 10
-6.768469983285655
 20
24.33480615160982
 10
-6.860719723390843
 20
24.14153771241002
 10
-7.051789745146265
 20
24.01851519430106
 10
-7.233921808197266
 20
23.91285203345821
 10
-7.443451931375136
 20
23.87675735439051
 10
-7.641222718647384
 20
23.88093312949101
 10
-7.776581895343355
 20
23.89281010788354
 10
-7.845603808282817
 20
23.89886637823479
 72
     1
 10
-7.845603808282787
 20
23.89886637823479
 11
-8.399876560405061
 21
23.98304774476413
 72
     1
 10
-8.399876560405061
 20
23.98304774476413
 11
-8.399876560405061
 21
24.64579492155148
 72
     1
 10
-8.399876560405061
 20
24.64579492155148
 11
-7.815117916056302
 21
24.56632682606845
 72
     4
 94
        3
 73
     0
 74
     0
 95
       11
 96
        7
 40
0.0
 40
0.0
 40
0.0
 40
0.0
 40
0.2042619346961744
 40
0.3074129668363174
 40
0.4146012126853764
 40
0.4826852714337078
 40
0.4826852714337078
 40
0.4826852714337078
 40
0.4826852714337078
 10
-7.815117916056323
 20
24.56632682606847
 10
-7.743266182308218
 20
24.55714977626708
 10
-7.635129760920136
 20
24.54333837224583
 10
-7.524447891091284
 20
24.63752792323729
 10
-7.477352395049535
 20
24.71998790389099
 10
-7.468646137215245
 20
24.77808681972154
 10
-7.465264214605014
 20
24.80065518845331
 72
     1
 10
-7.465264214605014
 20
24.80065518845333
 11
-7.259144283007996
 21
26.87985997284487
 72
     1
 10
-7.259144283007996
 20
26.87985997284487
 11
-6.482313212520211
 21
26.87985997284487
 97
        4
330
3D0D
330
3CF8
330
3D0E
330
3CF9
 92
       22
 72
     0
 73
     1
 93
        4
 10
-2.652351276624725
 20
26.87985997284486
 10
-1.87552020613694
 20
26.87985997284486
 10
-2.172922270345821
 20
23.87985997284487
 10
-2.949753340833609
 20
23.87985997284487
 97
        1
330
3D1E
 92
       22
 72
     0
 73
     1
 93
       10
 10
-1.269968290467114
 20
26.87985997284487
 10
-0.4183849031077484
 20
26.87965917736506
 10
0.4009773036021615
 20
25.0299490114994
 10
0.5853232289196909
 20
26.87965917736506
 10
1.205285459373925
 20
26.87965917736506
 10
0.9078833951650439
 20
23.87965917736506
 10
0.056491647586738
 20
23.87965917736506
 10
-0.7630434193126518
 20
25.72975957510511
 10
-0.946451311739821
 20
23.87965917736506
 10
-1.567390260339408
 20
23.87965917736506
 97
        1
330
3D1F
 92
       22
 72
     0
 73
     1
 93
       12
 10
1.882971499788112
 20
26.87985997284486
 10
3.847979515363789
 20
26.87985997284486
 10
3.788499102522024
 20
26.27985997284486
 10
2.600322157434135
 20
26.27985997284487
 10
2.540562294183218
 20
25.67704105755032
 10
3.542578834455781
 20
25.67704105755032
 10
3.476410183919
 20
25.07985997284487
 10
2.47439364364638
 20
25.07985997284487
 10
2.421932428393546
 20
24.48037956726917
 10
3.610109373481436
 20
24.48037956726917
 10
3.550577451154907
 20
23.87985997284487
 10
1.585569435579231
 20
23.87985997284487
 97
        1
330
3D20
 92
       20
 93
       11
 72
     1
 10
4.429648034880159
 20
26.87985997284486
 11
5.780015564168562
 21
26.87985997284487
 72
     4
 94
        3
 73
     0
 74
     0
 95
       20
 96
       16
 40
0.0
 40
0.0
 40
0.0
 40
0.0
 40
0.1774120264923274
 40
0.3258093286713144
 40
0.4834060703451958
 40
0.6311237014699663
 40
0.811161917566129
 40
0.9605198197290178
 40
1.289502400757101
 40
1.459697744220917
 40
1.604754171475458
 40
1.794797311213428
 40
2.030760379210173
 40
2.301729078160567
 40
2.393267743077617
 40
2.393267743077617
 40
2.393267743077617
 40
2.393267743077617
 10
5.780015564168593
 20
26.87985997284487
 10
5.839056126904296
 20
26.87337384475878
 10
5.947481505327601
 20
26.86146235781404
 10
6.098807931884806
 20
26.80185114122353
 10
6.227972759762906
 20
26.72168911843352
 10
6.347510602881385
 20
26.61140356622764
 10
6.442310149474394
 20
26.48207375794227
 10
6.536759215535255
 20
26.28338234239492
 10
6.578465181725675
 20
26.06469589684353
 10
6.553150099427256
 20
25.85079503063701
 10
6.524121382020268
 20
25.68499989147718
 10
6.464236525716046
 20
25.50199988960434
 10
6.327150620479812
 20
25.31187331731421
 10
6.179477266233362
 20
25.17172660684537
 10
6.072729148555964
 20
25.11631253421805
 10
6.045077525535504
 20
25.10350570839811
 72
     1
 10
6.045077525535502
 20
25.1035057083981
 11
6.339444173005232
 21
23.87985997284487
 72
     1
 10
6.339444173005232
 20
23.87985997284487
 11
5.532386545886621
 21
23.87985997284487
 72
     1
 10
5.532386545886621
 20
23.87985997284487
 11
5.142141867913776
 21
25.50205881951548
 72
     1
 10
5.142141867913776
 20
25.50205881951548
 11
5.19887096551445
 21
25.50205881951548
 72
     4
 94
        3
 73
     0
 74
     0
 95
       17
 96
       13
 40
0.0
 40
0.0
 40
0.0
 40
0.0
 40
0.0463117202933683
 40
0.2032408426961212
 40
0.3585694343029505
 40
0.4964057577712057
 40
0.6456565825699876
 40
0.7595770154256244
 40
0.9262943680254526
 40
1.032180609131101
 40
1.14647028625934
 40
1.243973057737614
 40
1.243973057737614
 40
1.243973057737614
 40
1.243973057737614
 10
5.198870965514487
 20
25.50205881951548
 10
5.214272018053407
 20
25.50302975767877
 10
5.28186015506489
 20
25.50729075876586
 10
5.40176083940824
 20
25.51345804330556
 10
5.546675458142118
 20
25.55725132865025
 10
5.67725421213268
 20
25.62965962372397
 10
5.765298612935083
 20
25.7349784962169
 10
5.820388894698254
 20
25.86817511516085
 10
5.832561030472788
 20
26.0011917111029
 10
5.781919321100474
 20
26.1258482190374
 10
5.684603990133524
 20
26.18537947021099
 10
5.613502616848251
 20
26.1875961553427
 10
5.580769717272147
 20
26.18861664944085
 72
     1
 10
5.580769717272125
 20
26.18861664944085
 11
5.137953374950967
 21
26.18861664944085
 72
     1
 10
5.137953374950967
 20
26.18861664944085
 11
4.909077041159065
 21
23.87985997284487
 72
     1
 10
4.909077041159065
 20
23.87985997284487
 11
4.132245970671278
 21
23.87985997284487
 72
     1
 10
4.132245970671278
 20
23.87985997284487
 11
4.429648034880159
 21
26.87985997284486
 97
        5
330
3D08
330
3CFA
330
3D0A
330
3D21
330
3CFB
 92
       22
 72
     0
 73
     1
 93
        9
 10
6.800478684667179
 20
26.87985997284487
 10
7.607536311785904
 20
26.87985997284487
 10
7.963471882016363
 20
25.86355557445326
 10
8.538893993587493
 20
26.87985997284487
 10
9.414203966725493
 20
26.87985997284487
 10
8.232331174709315
 20
25.00957443408062
 10
8.120338037129924
 20
23.87985997284486
 10
7.343506966642139
 20
23.87985997284486
 10
7.455500104221528
 20
25.00957443408062
 97
        1
330
3D06
 75
     0
 76
     1
 47
0.0276408434878157
 98
        9
 10
-5.110068937762804
 20
27.30829258594788
 10
-5.110068937762804
 20
27.30829258594788
 10
-5.110068937762804
 20
27.30829258594788
 10
-5.110068937762804
 20
27.30829258594788
 10
-5.110068937762804
 20
27.30829258594788
 10
-5.110068937762804
 20
27.30829258594788
 10
-5.110068937762804
 20
27.30829258594788
 10
-5.110068937762804
 20
27.30829258594788
 10
-5.110068937762804
 20
27.30829258594788
1001
ACAD
1010
0.0
1020
0.0
1030
0.0
1001
AcDbBlockRepETag
1070
     1
1071
      881
1005
3D28
  0
HATCH
  5
3D29
330
3CF4
100
AcDbEntity
  8
APL Border
 62
     8
100
AcDbHatch
 10
0.0
 20
0.0
 30
0.0
210
0.0
220
0.0
230
1.0
  2
SOLID
 70
     1
 71
     1
 91
        1
 92
        7
 72
     0
 73
     1
 93
        4
 10
0.0001591031300169
 20
7.000275566930961
 10
3.563095122801513
 20
13.17146177711931
 10
-0.9450856774407473
 20
20.97985997284487
 10
-8.070957716782199
 20
20.97985997284487
 97
        1
330
3D0B
 75
     0
 76
     1
 47
0.0707162833847576
 98
        3
 10
-2.675438732228172
 20
16.47794635472378
 10
6.312751868664321
 20
42.28939048605213
 10
-9.894301834166896
 20
39.60217176706084
1001
ACAD
1010
0.0
1020
0.0
1030
0.0
1001
AcDbBlockRepETag
1070
     1
1071
      883
1005
3D29
  0
HATCH
  5
3D2A
330
3CF4
100
AcDbEntity
  8
APL Border
 62
     8
100
AcDbHatch
 10
0.0
 20
0.0
 30
0.0
210
0.0
220
0.0
230
1.0
  2
SOLID
 70
     1
 71
     0
 91
        1
 92
        7
 72
     0
 73
     1
 93
        7
 10
-12.96642015501169
 20
43.61979184908029
 10
-14.7664201550117
 20
43.61979184908029
 10
-16.54136876356097
 20
39.42215966960598
 10
-17.19614352503853
 20
43.61979184908029
 10
-18.99614352503854
 20
43.61979184908029
 10
-17.7875751270476
 20
37.38083558975206
 10
-15.77022638070493
 20
37.38083558975206
 97
        0
 75
     0
 76
     1
 47
0.0707162833847576
 98
        3
 10
6.249678794057444
 20
42.28939048605213
 10
-9.957374908773772
 20
39.60217176706084
 10
-16.39773218462096
 20
38.68285940442952
1001
ACAD
1010
0.0
1020
0.0
1030
0.0
1001
AcDbBlockRepETag
1070
     1
1071
      884
1005
3D2A
  0
HATCH
  5
3D2B
330
3CF4
100
AcDbEntity
  8
APL Border
 62
     8
100
AcDbHatch
 10
0.0
 20
0.0
 30
0.0
210
0.0
220
0.0
230
1.0
  2
SOLID
 70
     1
 71
     1
 91
        1
 92
        7
 72
     0
 73
     1
 93
       10
 10
-2.850928947786229
 20
37.38083558975206
 10
-2.181839912298442
 20
43.6197918490803
 10
-3.855464624526036
 20
43.61979184908029
 10
-4.228474015381578
 20
40.14164596649268
 10
-5.40751765387219
 20
43.61979184908029
 10
-7.466097855805088
 20
43.61979184908029
 10
-8.135186891292875
 20
37.38083558975206
 10
-6.479801476178323
 20
37.38083558975206
 10
-6.131920885667285
 20
40.6246666384634
 10
-5.032306754624555
 20
37.38083558975206
 97
        1
330
3D02
 75
     0
 76
     1
 47
0.0707162833847576
 98
        3
 10
6.312751868664321
 20
42.28939048605213
 10
-5.364819983741796
 20
40.80434854252457
 10
-9.894301834166896
 20
39.60217176706084
1001
ACAD
1010
0.0
1020
0.0
1030
0.0
1001
AcDbBlockRepETag
1070
     1
1071
      886
1005
3D2B
  0
HATCH
  5
3D2C
330
3CF4
100
AcDbEntity
  8
APL Border
 62
     8
100
AcDbHatch
 10
0.0
 20
0.0
 30
0.0
210
0.0
220
0.0
230
1.0
  2
SOLID
 70
     1
 71
     1
 91
        1
 92
        7
 72
     0
 73
     1
 93
        8
 10
2.929095477768755
 20
41.97282181113101
 10
3.105743226874893
 20
43.6199831327606
 10
-1.725754035154748
 20
43.61998313276061
 10
-1.891167362926863
 20
41.97282181113101
 10
-0.3755272841536335
 20
41.97282181113101
 10
-0.8679685705352806
 20
37.38102687343239
 10
0.9741138955425025
 20
37.38339558452146
 10
1.466301152475638
 20
41.97282181113101
 97
        1
330
3D01
 75
     0
 76
     1
 47
0.0707162833847576
 98
        3
 10
6.461508006627583
 20
42.28958176973246
 10
0.3042431306128051
 20
42.36029787294049
 10
-9.745545696203633
 20
39.60236305074117
1001
ACAD
1010
0.0
1020
0.0
1030
0.0
1001
AcDbBlockRepETag
1070
     1
1071
      887
1005
3D2C
  0
HATCH
  5
3D2D
330
3CF4
100
AcDbEntity
  8
APL Border
 62
     8
100
AcDbHatch
 10
0.0
 20
0.0
 30
0.0
210
0.0
220
0.0
230
1.0
  2
SOLID
 70
     1
 71
     1
 91
        1
 92
        7
 72
     0
 73
     1
 93
        3
 10
8.071275923043375
 20
20.97985997284487
 10
0.8484489512626126
 20
20.97985997284487
 10
4.459862437153192
 20
14.72470832814346
 97
        1
330
3D0C
 75
     0
 76
     1
 47
0.0707162833847576
 98
        3
 10
4.897289869501349
 20
18.17513736310713
 10
6.312751868664321
 20
42.28939048605213
 10
-9.894301834166896
 20
39.60217176706084
1001
ACAD
1010
0.0
1020
0.0
1030
0.0
1001
AcDbBlockRepETag
1070
     1
1071
      891
1005
3D2D
  0
HATCH
  5
3D2E
330
3CF4
100
AcDbEntity
  8
APL Border
 62
     8
100
AcDbHatch
 10
0.0
 20
0.0
 30
0.0
210
0.0
220
0.0
230
1.0
  2
SOLID
 70
     1
 71
     1
 91
        2
 92
       16
 93
        3
 72
     1
 10
0.0000000003145431
 20
4.000000000000009
 11
23.60256143704041
 21
44.88083558975217
 72
     1
 10
23.60256143704041
 20
44.88083558975217
 11
-23.60256142783933
 21
44.88083558975206
 72
     1
 10
-23.60256142783933
 20
44.88083558975206
 11
0.0000000003145431
 21
4.000000000000007
 97
        1
330
3D12
 92
        1
 93
        3
 72
     1
 10
27.06666305249243
 20
46.88083558975206
 11
-27.06666304266244
 21
46.88083558975206
 72
     1
 10
-27.06666304266244
 20
46.88083558975206
 11
-0.0000000000000284
 21
0.0000000000000213
 72
     1
 10
-0.0000000000000284
 20
0.0000000000000238
 11
27.06666305249243
 21
46.88083558975206
 97
        1
330
3D13
 75
     0
 76
     1
 98
        1
 10
-236.5641112216887
 20
1.231020082252661
1001
ACAD
1010
0.0
1020
0.0
1030
0.0
1001
AcDbBlockRepETag
1070
     1
1071
      892
1005
3D2E
  0
HATCH
  5
3D2F
330
3CF4
100
AcDbEntity
  8
APL Border
 62
     8
100
AcDbHatch
 10
0.0
 20
0.0
 30
0.0
210
0.0
220
0.0
230
1.0
  2
SOLID
 70
     1
 71
     1
 91
        1
 92
        7
 72
     0
 73
     1
 93
       12
 10
15.84058876400877
 20
41.9726305274507
 10
18.21321428445671
 20
41.9726305274507
 10
18.38986203356285
 20
43.61979184908029
 10
14.13627631352983
 20
43.61979184908029
 10
13.46718727804204
 20
37.38083558975206
 10
17.72077299807506
 20
37.38083558975207
 10
17.87787225036464
 20
38.84571591422678
 10
15.50524672991671
 20
38.84571591422678
 10
15.58395939694927
 20
39.5796763598845
 10
17.56969663746741
 20
39.57967635988449
 10
17.71732334684157
 20
41.15966911198297
 10
15.75340373709809
 20
41.15966911198297
 97
        1
330
3CFE
 75
     0
 76
     1
 47
0.0265225354961204
 98
        1
 10
15.74642260871314
 20
42.54140343148856
1001
ACAD
1010
0.0
1020
0.0
1030
0.0
1001
AcDbBlockRepETag
1070
     1
1071
      895
1005
3D2F
  0
SPLINE
  5
3D30
102
{ACAD_REACTORS
330
3D32
330
3D33
102
}
330
3CF4
100
AcDbEntity
  8
APL Border
 62
     8
100
AcDbSpline
210
0.0
220
0.0
230
1.0
 70
     8
 71
     3
 72
    12
 73
     8
 74
     0
 42
0.0000000001
 43
0.0000000001
 40
0.0
 40
0.0
 40
0.0
 40
0.0
 40
0.6153828260925694
 40
0.6153828260925694
 40
1.184895113366773
 40
1.184895113366773
 40
1.406874102447421
 40
1.406874102447421
 40
1.406874102447421
 40
1.406874102447421
 10
13.141643811855
 20
41.76981947766621
 30
0.0
 10
12.65093549588437
 20
41.90084145687704
 30
0.0
 10
12.40139116615246
 20
41.94113120867605
 30
0.0
 10
12.08548087756223
 20
41.99544455363318
 30
0.0
 10
11.92864742837253
 20
42.01465504085827
 30
0.0
 10
11.75444086026641
 20
42.02973960983341
 30
0.0
 10
11.75444086026641
 20
42.02973960983341
 30
0.0
 10
11.64369617822672
 20
42.03297741382947
 30
0.0
1001
AcDbBlockRepETag
1070
     1
1071
      898
1005
3D30
  0
LWPOLYLINE
  5
3D31
102
{ACAD_REACTORS
330
3D32
102
}
330
3CF4
100
AcDbEntity
  8
APL Border
  6
Continuous
 62
     8
100
AcDbPolyline
 90
        3
 70
     1
 43
0.0
 10
-11.22376129049633
 20
41.69367581194667
 10
-10.87774200114645
 20
40.14955389030274
 10
-11.91769445450297
 20
40.14955389030274
1001
AcDbBlockRepETag
1070
     1
1071
      902
1005
3D31
  0
HATCH
  5
3D32
330
3CF4
100
AcDbEntity
  8
APL Border
 62
     8
100
AcDbHatch
 10
0.0
 20
0.0
 30
0.0
210
0.0
220
0.0
230
1.0
  2
SOLID
 70
     1
 71
     1
 91
        2
 92
        7
 72
     0
 73
     1
 93
        8
 10
-9.847253547555595
 20
43.61979184908029
 10
-12.02298966350147
 20
43.61979184908029
 10
-14.82679588919472
 20
37.38083558975206
 10
-12.95240022532295
 20
37.38083558975206
 10
-12.352528740424
 20
38.71565392391761
 10
-10.64639685172309
 20
38.71565392391761
 10
-10.34727999772013
 20
37.38083558975206
 10
-8.449177928734428
 20
37.38083558975207
 97
        1
330
3D03
 92
       22
 72
     0
 73
     1
 93
        3
 10
-11.22376129049633
 20
41.69367581194668
 10
-10.87774200114645
 20
40.14955389030274
 10
-11.91769445450297
 20
40.14955389030274
 97
        1
330
3D31
 75
     0
 76
     1
 47
0.0464409783890934
 98
        3
 10
-10.7866676671747
 20
42.18285929720354
 10
-10.7866676671747
 20
42.18285929720354
 10
4.318789658947025
 20
41.34692151769582
1001
ACAD
1010
0.0
1020
0.0
1030
0.0
1001
AcDbBlockRepETag
1070
     1
1071
      903
1005
3D32
  0
HATCH
  5
3D33
330
3CF4
100
AcDbEntity
  8
APL Border
 62
     8
100
AcDbHatch
 10
0.0
 20
0.0
 30
0.0
210
0.0
220
0.0
230
1.0
  2
SOLID
 70
     1
 71
     1
 91
        1
 92
        5
 93
        9
 72
     4
 94
        3
 73
     0
 74
     0
 95
       25
 96
       21
 40
0.0289432764998855
 40
0.0289432764998855
 40
0.0289432764998855
 40
0.0289432764998855
 40
0.7134165119202287
 40
1.411731005087882
 40
2.041147618059464
 40
3.036171077105474
 40
3.957911241576911
 40
4.83592253147705
 40
5.676684481733094
 40
6.271141751551381
 40
6.974058201941041
 40
7.825808739104269
 40
8.5265481701528
 40
9.125733480364379
 40
9.891766509798275
 40
10.6767880070383
 40
11.66821110410527
 40
12.42950909475574
 40
13.09855121203093
 40
13.70132750762923
 40
13.70132750762923
 40
13.70132750762923
 40
13.70132750762923
 10
13.141643811855
 20
43.40554077871886
 10
12.91988216430481
 20
43.459256627421
 10
12.47168844867874
 20
43.5669624691983
 10
11.80600758681791
 20
43.66484839798013
 10
11.02988777388427
 20
43.6649333207477
 10
10.1361516270939
 20
43.55263717791944
 10
9.306733533720876
 20
43.19741938393827
 10
8.599762003673276
 20
42.45478219212527
 10
8.236440109363229
 20
41.77191325718488
 10
8.073464067873601
 20
41.07996170309042
 10
8.007035995439764
 20
40.3638923215899
 10
7.98103501985804
 20
39.60493317412716
 10
8.107710769833204
 20
38.92055182387923
 10
8.442098079777224
 20
38.21445924826959
 10
9.036296716232907
 20
37.66873436641545
 10
9.909689132144507
 20
37.42421376773082
 10
10.75775873959412
 20
37.35554609345542
 10
11.56487972715851
 20
37.38454149767491
 10
12.23983007222788
 20
37.44815687239099
 10
12.66077873273661
 20
37.49837935861893
 10
12.86026661033734
 20
37.52234731786496
 72
     1
 10
12.86026661033734
 20
37.52234731786496
 11
13.23839963312048
 21
41.04826877857415
 72
     1
 10
13.23839963312048
 20
41.04826877857415
 11
11.12639005748273
 21
41.04826877857415
 72
     1
 10
11.12639005748273
 20
41.04826877857415
 11
10.96889270630695
 21
39.57967635988449
 72
     1
 10
10.96889270630695
 20
39.57967635988449
 11
11.39962533929804
 21
39.57967635988449
 72
     1
 10
11.39962533929804
 20
39.57967635988449
 11
11.33360452536307
 21
38.96406177273883
 72
     4
 94
        3
 73
     0
 74
     0
 95
       19
 96
       15
 40
1.529304964685562
 40
1.529304964685562
 40
1.529304964685562
 40
1.529304964685562
 40
1.763981165818448
 40
2.06379851215709
 40
2.386700017314354
 40
2.753069149612017
 40
3.181918037271135
 40
3.768421453867451
 40
4.325591611844758
 40
5.021152851646889
 40
5.521935404920329
 40
5.929637176310238
 40
6.454411479904243
 40
6.957123473051371
 40
6.957123473755098
 40
6.957123473755098
 40
6.957123473755098
 10
11.33360452536307
 20
38.96406177273881
 10
11.24302802126629
 20
38.95177692242413
 10
10.99026249243499
 20
38.92783484269152
 10
10.70216182646531
 20
38.92661434152812
 10
10.3797311442331
 20
38.98358798973799
 10
10.00680770225198
 20
39.09661486818469
 10
9.716968816830743
 20
39.48770259248511
 10
9.641062203095145
 20
40.05806431643046
 10
9.717431528044755
 20
40.66388266631498
 10
9.854221329784113
 20
41.27113304911427
 10
10.23036575101369
 20
41.67654609785123
 10
10.65553906793815
 20
41.91613810684326
 10
11.13485165915975
 20
42.01473204050012
 10
11.47589856643677
 20
42.04574754506741
 10
11.64369617822672
 20
42.03297741382947
 72
     4
 94
        3
 73
     0
 74
     0
 95
       12
 96
        8
 40
0.0
 40
0.0
 40
0.0
 40
0.0
 40
0.2219789890806476
 40
0.2219789890806476
 40
0.7914912763548521
 40
0.7914912763548521
 40
1.406874102447421
 40
1.406874102447421
 40
1.406874102447421
 40
1.406874102447421
 10
11.64369617822672
 20
42.03297741382947
 10
11.75444086026641
 20
42.02973960983341
 10
11.75444086026641
 20
42.02973960983341
 10
11.92864742837253
 20
42.01465504085827
 10
12.08548087756223
 20
41.99544455363318
 10
12.40139116615246
 20
41.94113120867605
 10
12.65093549588437
 20
41.90084145687704
 10
13.141643811855
 20
41.76981947766621
 72
     1
 10
13.14164381185501
 20
41.76981947766621
 11
13.141643811855
 21
43.40554077871886
 97
        5
330
3CFC
330
3D00
330
3CFD
330
3D30
330
3CFF
 75
     0
 76
     1
 47
0.0464409783890934
 98
        3
 10
-10.7866676671747
 20
42.18285929720354
 10
4.318789658947025
 20
41.34692151769582
 10
10.26801654887663
 20
42.50794595375691
1001
ACAD
1010
0.0
1020
0.0
1030
0.0
1001
AcDbBlockRepETag
1070
     1
1071
      904
1005
3D33
  0
HATCH
  5
3D34
330
3CF4
100
AcDbEntity
  8
APL Border
 62
     8
100
AcDbHatch
 10
0.0
 20
0.0
 30
0.0
210
0.0
220
0.0
230
1.0
  2
SOLID
 70
     1
 71
     1
 91
        2
 92
        7
 72
     0
 73
     1
 93
        8
 10
6.582554574553399
 20
43.61979184908029
 10
4.406818458607519
 20
43.6197918490803
 10
1.603012232914266
 20
37.38083558975206
 10
3.477407896786048
 20
37.38083558975206
 10
4.077279381684999
 20
38.71565392391761
 10
5.783411270385895
 20
38.71565392391761
 10
6.082528124388858
 20
37.38083558975206
 10
7.980630193374566
 20
37.38083558975207
 97
        1
330
3D14
 92
       22
 72
     0
 73
     1
 93
        3
 10
5.206046831612668
 20
41.69367581194667
 10
5.552066120962536
 20
40.14955389030274
 10
4.512113667606024
 20
40.14955389030274
 97
        1
330
3D15
 75
     0
 76
     1
 47
0.0464409783890934
 98
        3
 10
-10.7866676671747
 20
42.18285929720354
 10
4.318789658947025
 20
41.34692151769582
 10
4.318789658947025
 20
41.34692151769582
1001
ACAD
1010
0.0
1020
0.0
1030
0.0
1001
AcDbBlockRepETag
1070
     1
1071
      905
1005
3D34
  0
HATCH
  5
3D35
330
3CF4
100
AcDbEntity
  8
APL Border
 62
     8
100
AcDbHatch
 10
0.0
 20
0.0
 30
0.0
210
0.0
220
0.0
230
1.0
  2
SOLID
 70
     1
 71
     1
 91
       11
 92
        7
 72
     0
 73
     1
 93
        4
 10
-16.33747952551644
 20
35.29789574745092
 10
-12.98884796421712
 20
29.49789574745095
 10
12.98916617047902
 20
29.49789574745094
 10
16.33779773177886
 20
35.29789574745093
 97
        1
330
3D05
 92
       22
 72
     0
 73
     1
 93
        8
 10
-10.50084997043805
 20
34.02289574745092
 10
-9.555761072109191
 20
34.02289574745092
 10
-8.834065309397374
 20
31.02289574745093
 10
-9.641122936515984
 20
31.02289574745093
 10
-9.86222995755253
 20
31.94201027933759
 10
-10.74455961985978
 20
31.94201027933758
 10
-11.20867717380426
 20
31.02289574745093
 10
-12.01573480092304
 20
31.02289574745093
 97
        1
330
3D11
 92
        6
 72
     0
 73
     1
 93
        3
 10
-10.14693849009504
 20
33.12550842600547
 10
-10.00044093617224
 20
32.51653621849666
 10
-10.45444607654239
 20
32.51653621849665
 97
        1
330
3D10
 92
       22
 72
     0
 73
     1
 93
        6
 10
-8.326765119961606
 20
34.02289574745092
 10
-7.549934049473819
 20
34.02289574745092
 10
-7.777198851462713
 20
31.73039516316516
 10
-6.700109532938454
 20
31.73039516316516
 10
-6.770246795158442
 20
31.02289574745093
 10
-8.624167184170486
 20
31.02289574745092
 97
        1
330
3D0F
 92
       20
 93
       13
 72
     1
 10
-6.13042511277439
 20
34.02488019433461
 11
-5.353790768486449
 21
34.02289574745093
 72
     1
 10
-5.353790768486449
 20
34.02289574745093
 11
-5.5356280948821
 21
32.18709291744541
 72
     4
 94
        3
 73
     0
 74
     0
 95
       24
 96
       20
 40
0.0
 40
0.0
 40
0.0
 40
0.0
 40
0.1612668085855933
 40
0.2532303870616441
 40
0.3214574742553387
 40
0.4101806452459026
 40
0.5031588697521256
 40
0.5664511009171887
 40
0.624871878778038
 40
0.6731644290699905
 40
0.7797386132933425
 40
0.9206747739903356
 40
1.025058962643435
 40
1.116412352300609
 40
1.212929457806147
 40
1.276240530363035
 40
1.339961572016457
 40
1.386280507025952
 40
1.435584820291647
 40
1.435584820291647
 40
1.435584820291647
 40
1.435584820291647
 10
-5.535628094882099
 20
32.1870929174454
 10
-5.53213414748617
 20
32.13312332644234
 10
-5.526647751003197
 20
32.04837718097616
 10
-5.488860432547518
 20
31.94683424540268
 10
-5.447171648840961
 20
31.8753242559261
 10
-5.395818187958767
 20
31.80737001333622
 10
-5.320761662408248
 20
31.77062767698265
 10
-5.254477128417399
 20
31.74466351916423
 10
-5.200112096792143
 20
31.72723210184819
 10
-5.128888988289486
 20
31.72198763189771
 10
-5.030042811850907
 20
31.72786870372271
 10
-4.915707066470194
 20
31.75812586881066
 10
-4.815771266393483
 20
31.81405298527762
 10
-4.754740567305573
 20
31.89193427605802
 10
-4.71467399544198
 20
31.96546823314959
 10
-4.683526695854578
 20
32.03313813212702
 10
-4.662006183068958
 20
32.08703079743258
 10
-4.651792807669443
 20
32.13930455656534
 10
-4.647206914869654
 20
32.17083533130903
 10
-4.644842382192905
 20
32.1870929174454
 72
     1
 10
-4.644842382192908
 20
32.18709291744538
 11
-4.462655138951674
 21
34.0248801943346
 72
     1
 10
-4.462655138951674
 20
34.0248801943346
 11
-3.685824068463886
 21
34.0248801943346
 72
     1
 10
-3.685824068463886
 20
34.0248801943346
 11
-3.889225876952792
 21
31.97309408084612
 72
     2
 10
-5.35367831607159
 20
32.29400281725688
 40
1.499200908332752
 50
12.35998596222624
 51
34.57361697223234
 73
     0
 72
     2
 10
-4.942942423735221
 20
32.00494866311196
 40
0.9969860617863467
 50
34.29038331790704
 51
79.42991665428312
 73
     0
 72
     1
 10
-4.760057203160528
 20
31.0248801943346
 11
-5.510404689928634
 21
31.02488019433462
 72
     2
 10
-5.403812384664131
 20
31.8164328281441
 40
0.7986973717449786
 50
97.66944495435136
 51
120.898786067779
 73
     0
 72
     2
 10
-5.173141343771899
 20
32.14234761068797
 40
1.197202176515717
 50
122.3618931068037
 51
141.2515245137382
 73
     0
 72
     2
 10
-5.389471681131198
 20
32.00817328375058
 40
0.9450065449727091
 50
139.3862736078239
 51
177.8726579657922
 73
     0
 72
     1
 10
-6.333826921263238
 20
31.9730940808461
 11
-6.13042511277439
 21
34.02488019433461
 97
        2
330
3D17
330
3D18
 92
       22
 72
     0
 73
     1
 93
       13
 10
-3.14734900486158
 20
34.02825593571061
 10
-2.047349004861559
 20
34.02825593571061
 10
-1.827245318565901
 20
32.52441131541936
 10
-1.295012624591634
 20
34.02807364104484
 10
-0.1975458970834157
 20
34.0280551402308
 10
-0.4949479612922965
 20
31.0280551402308
 10
-1.115886909891883
 20
31.02805514023081
 10
-0.9222174129992312
 20
32.98166797820307
 10
-1.611942464131546
 20
31.02805514023081
 10
-2.344230471214956
 20
31.0280551402308
 10
-2.630162529241629
 20
32.98166797820306
 10
-2.823832026134283
 20
31.02805514023081
 10
-3.444770974733871
 20
31.0280551402308
 97
        1
330
3D1A
 92
       22
 72
     0
 73
     1
 93
        4
 10
0.342591724648486
 20
34.02289574745092
 10
1.119422795136273
 20
34.02289574745092
 10
0.822020730927392
 20
31.02289574745093
 10
0.045189660439604
 20
31.02289574745093
 97
        1
330
3D09
 92
       22
 72
     0
 73
     1
 93
       10
 10
1.724974710806094
 20
34.02289574745093
 10
2.57655809816546
 20
34.02269495197112
 10
3.395920304875375
 20
32.17298478610545
 10
3.580266230192904
 20
34.02269495197112
 10
4.200228460647139
 20
34.02269495197112
 10
3.902826396438257
 20
31.02269495197112
 10
3.051434648859951
 20
31.02269495197112
 10
2.231899581960561
 20
32.87279534971117
 10
2.048491689533392
 20
31.02269495197111
 10
1.427552740933804
 20
31.02269495197111
 97
        1
330
3D1B
 92
       22
 72
     0
 73
     1
 93
        4
 10
4.838699321647566
 20
34.02289574745092
 10
5.615530392135354
 20
34.02289574745092
 10
5.318128327926473
 20
31.02289574745093
 10
4.541297257438685
 20
31.02289574745093
 97
        1
330
3D16
 92
       20
 93
       13
 72
     1
 10
6.192756492920892
 20
34.02289574745092
 11
6.969390837208833
 21
34.02091130056725
 72
     1
 10
6.969390837208833
 20
34.02091130056725
 11
6.787553510813181
 21
32.18510847056173
 72
     4
 94
        3
 73
     0
 74
     0
 95
       24
 96
       20
 40
0.0
 40
0.0
 40
0.0
 40
0.0
 40
0.1612668085856004
 40
0.2532303870616512
 40
0.3214574742553458
 40
0.4101806452458731
 40
0.5031588697521455
 40
0.5664511009172086
 40
0.6248718787780579
 40
0.6731644290699537
 40
0.7797386132933625
 40
0.9206747739903555
 40
1.025058962643406
 40
1.116412352300617
 40
1.212929457806155
 40
1.276240530363043
 40
1.339961572016455
 40
1.386280507025956
 40
1.435584820291643
 40
1.435584820291643
 40
1.435584820291643
 40
1.435584820291643
 10
6.787553510813182
 20
32.18510847056172
 10
6.791047458209138
 20
32.13113887955868
 10
6.796533854692151
 20
32.04639273409249
 10
6.834321173147815
 20
31.944849798519
 10
6.876009956854381
 20
31.87333980904244
 10
6.927363417736517
 20
31.80538556645249
 10
7.002419943287081
 20
31.76864323009899
 10
7.068704477277941
 20
31.74267907228055
 10
7.123069508903178
 20
31.72524765496452
 10
7.194292617405833
 20
31.72000318501404
 10
7.293138793844411
 20
31.72588425683904
 10
7.407474539225143
 20
31.75614142192696
 10
7.507410339301799
 20
31.81206853839398
 10
7.568441038389779
 20
31.88994982917431
 10
7.608507610253345
 20
31.96348378626593
 10
7.639654909840775
 20
32.03115368524333
 10
7.661175422626328
 20
32.08504635054892
 10
7.671388798025919
 20
32.13732010968165
 10
7.675974690825655
 20
32.16885088442535
 10
7.678339223502376
 20
32.18510847056172
 72
     1
 10
7.678339223502373
 20
32.1851084705617
 11
7.860526466743608
 21
34.02289574745092
 72
     1
 10
7.860526466743608
 20
34.02289574745092
 11
8.637357537231395
 21
34.02289574745092
 72
     1
 10
8.637357537231395
 20
34.02289574745092
 11
8.433955728742489
 21
31.97110963396244
 72
     2
 10
6.969503289623695
 20
32.29201837037321
 40
1.499200908332751
 50
12.35998596222655
 51
34.57361697220028
 73
     0
 72
     2
 10
7.38023918196006
 20
32.00296421622829
 40
0.9969860617863467
 50
34.2903833178587
 51
79.42991665428322
 73
     0
 72
     1
 10
7.563124402534754
 20
31.02289574745093
 11
6.812776915766647
 21
31.02289574745094
 72
     2
 10
6.919369221031151
 20
31.81444838126043
 40
0.7986973717449786
 50
97.66944495435136
 51
120.898786067779
 73
     0
 72
     2
 10
7.150040261923383
 20
32.14036316380429
 40
1.197202176515717
 50
122.3618931068037
 51
141.2515245137382
 73
     0
 72
     2
 10
6.933709924564084
 20
32.0061888368669
 40
0.9450065449727091
 50
139.3862736078239
 51
177.8726579657922
 73
     0
 72
     1
 10
5.989354684432043
 20
31.97110963396243
 11
6.192756492920892
 21
34.02289574745092
 97
        2
330
3D19
330
3D1D
 92
       22
 72
     0
 73
     1
 93
       13
 10
9.159497991066102
 20
34.02289574745092
 10
10.25949799106612
 20
34.02289574745092
 10
10.47960167736178
 20
32.51905112715967
 10
11.01183437133604
 20
34.02271345278515
 10
12.10930109884427
 20
34.02269495197111
 10
11.81189903463539
 20
31.02269495197112
 10
11.1909600860358
 20
31.02269495197111
 10
11.38462958292845
 20
32.97630778994339
 10
10.69490453179614
 20
31.02269495197111
 10
9.962616524712728
 20
31.02269495197112
 10
9.676684466686056
 20
32.97630778994339
 10
9.4830149697934
 20
31.02269495197111
 10
8.862076021193814
 20
31.02269495197111
 97
        1
330
3D1C
 75
     0
 76
     1
 47
0.0356978143457059
 98
       11
 10
-12.74387987022192
 20
34.13164800304253
 10
-12.74387987022192
 20
34.13164800304253
 10
-12.74387987022192
 20
34.13164800304253
 10
-12.74387987022192
 20
34.13164800304253
 10
-12.74387987022192
 20
34.13164800304253
 10
-12.74387987022192
 20
34.13164800304253
 10
-12.74387987022192
 20
34.13164800304253
 10
-12.74387987022192
 20
34.13164800304253
 10
-12.74387987022192
 20
34.13164800304253
 10
-12.74387987022192
 20
34.13164800304253
 10
-12.74387987022192
 20
34.13164800304253
1001
ACAD
1010
0.0
1020
0.0
1030
0.0
1001
AcDbBlockRepETag
1070
     1
1071
      906
1005
3D35
  0
ENDBLK
  5
3D36
330
3CF4
100
AcDbEntity
  8
0
 62
     9
100
AcDbBlockEnd
  0
ENDSEC
  0
SECTION
  2
ENTITIES
  0
INSERT
  5
26FE
330
1F
100
AcDbEntity
  8
APL Joinery
100
AcDbBlockReference
  2
08001
 10
49.62942763752403
 20
433.3870922086985
 30
0.0
 41
-1.0
 50
180.0
  0
INSERT
  5
2700
330
1F
100
AcDbEntity
  8
APL Joinery
100
AcDbBlockReference
  2
9010317
 10
106.3294276375241
 20
390.3870922086986
 30
0.0
 50
270.0
  0
INSERT
  5
2711
330
1F
100
AcDbEntity
  8
APL Joinery
100
AcDbBlockReference
  2
08025
 10
95.3294276375241
 20
401.3870922086988
 30
0.0
 41
-1.0
 50
180.0
  0
INSERT
  5
281C
330
1F
100
AcDbEntity
  8
APL Joinery
100
AcDbBlockReference
  2
19mmliner
 10
99.62942763752403
 20
407.3870922087004
 30
0.0
 41
-1.0
 50
180.0
  0
TEXT
  5
2860
330
1F
100
AcDbEntity
  8
APL Notes
100
AcDbText
 10
25.69999913192837
 20
356.1674496560585
 30
0.0
 40
5.0
  1
08025
  7
Arial-Bold
100
AcDbText
  0
TEXT
  5
2861
330
1F
100
AcDbEntity
  8
APL Notes
100
AcDbText
 10
24.99999913192823
 20
426.1674496560584
 30
0.0
 40
5.0
  1
08001
  7
Arial-Bold
100
AcDbText
  0
INSERT
  5
2912
330
1F
100
AcDbEntity
  8
APL Joinery
100
AcDbBlockReference
  2
9010317
 10
250.9999991319279
 20
121.9479491257688
 30
0.0
 41
-1.0
  0
INSERT
  5
2913
330
1F
100
AcDbEntity
  8
APL Joinery
100
AcDbBlockReference
  2
08001
 10
293.9999991319279
 20
65.24794912576908
 30
0.0
 50
90.0
  0
INSERT
  5
2914
330
1F
100
AcDbEntity
  8
APL Joinery
100
AcDbBlockReference
  2
19mmliner
 10
267.9999991319282
 20
115.2479491257691
 30
0.0
 50
90.0
  0
TEXT
  5
2918
330
1F
100
AcDbEntity
  8
APL Notes
100
AcDbText
 10
287.8659864174789
 20
53.72953309447985
 30
0.0
 40
5.0
  1
08001
  7
Arial-Bold
100
AcDbText
  0
TEXT
  5
2922
330
1F
100
AcDbEntity
  8
APL Notes
100
AcDbText
 10
226.4739423179444
 20
53.72953309447985
 30
0.0
 40
5.0
  1
08004
  7
Arial-Bold
100
AcDbText
  0
LINE
  5
2FC2
330
1F
100
AcDbEntity
  8
APL Notes
  6
DASHED
 62
     7
 48
20.0
100
AcDbLine
 10
261.8769440202338
 20
353.2370922087005
 30
0.0
 11
316.7569440202338
 21
283.9370922087005
 31
0.0
  0
LINE
  5
2FC9
330
1F
100
AcDbEntity
  8
APL Notes
  6
Continuous
 62
     8
100
AcDbLine
 10
261.8769440202338
 20
283.6570922087006
 30
0.0
 11
258.3069440202338
 21
280.0870922087005
 31
0.0
  0
LINE
  5
2FCB
330
1F
100
AcDbEntity
  8
APL Notes
  6
Continuous
 62
     8
100
AcDbLine
 10
265.9789440202338
 20
289.8870922087005
 30
0.0
 11
312.9349440202338
 21
289.8870922087005
 31
0.0
  0
LINE
  5
2FCC
330
1F
100
AcDbEntity
  8
APL Notes
  6
Continuous
 62
     8
100
AcDbLine
 10
265.9789440202338
 20
296.6071045354206
 30
0.0
 11
312.9349440202338
 21
296.6071045354206
 31
0.0
  0
LINE
  5
2FCD
330
1F
100
AcDbEntity
  8
APL Notes
  6
Continuous
 62
     8
100
AcDbLine
 10
273.7875182671228
 20
370.1974236401542
 30
0.0
 11
273.7875182671228
 21
331.6514591403639
 31
0.0
  0
LEADER
  5
2FCE
330
1F
100
AcDbEntity
  8
APL Notes
 62
     8
100
AcDbLeader
  3
ISO-25
 76
     2
 10
250.0198674830816
 20
331.6514591403639
 30
0.0
 10
273.7875182671228
 20
331.6514591403639
 30
0.0
1001
ACAD
1000
DSTYLE
1002
{
1070
   147
1040
0.625
1070
    77
1070
     0
1002
}
  0
LINE
  5
2FCF
330
1F
100
AcDbEntity
  8
APL Notes
  6
Continuous
 62
     8
100
AcDbLine
 10
265.9789440202338
 20
283.9370922087005
 30
0.0
 11
265.9789440202338
 21
297.9370964481805
 31
0.0
  0
LINE
  5
2FD4
330
1F
100
AcDbEntity
  8
APL Notes
  6
Continuous
 62
     8
100
AcDbLine
 10
312.9349440202338
 20
283.9370922087005
 30
0.0
 11
312.9349440202338
 21
297.9370964481805
 31
0.0
  0
TEXT
  5
2FD5
330
1F
100
AcDbEntity
  8
APL Notes
100
AcDbText
 10
244.7983621152828
 20
428.7717732048242
 30
0.0
 40
5.0
  1
A
  7
Arial-Bold
100
AcDbText
  0
LINE
  5
2FDB
330
1F
100
AcDbEntity
  8
APL Notes
  6
DASHED
 62
     7
 48
20.0
100
AcDbLine
 10
316.7569440202338
 20
422.5370922087004
 30
0.0
 11
261.8769440202338
 21
353.2370922087005
 31
0.0
  0
LINE
  5
2FDE
330
1F
100
AcDbEntity
  8
APL Notes
  6
Continuous
 62
     8
100
AcDbLine
 10
312.9349440202338
 20
415.8170798817005
 30
0.0
 11
265.9789440202338
 21
415.8170798817005
 31
0.0
  0
LEADER
  5
2FE2
330
1F
100
AcDbEntity
  8
APL Notes
 62
     8
100
AcDbLeader
  3
ISO-25
 76
     2
 10
250.4210342775418
 20
431.4106640728971
 30
0.0
 10
274.1886850615829
 20
431.4106640728971
 30
0.0
1001
ACAD
1000
DSTYLE
1002
{
1070
   147
1040
0.625
1070
    77
1070
     0
1002
}
  0
LINE
  5
2FE3
330
1F
100
AcDbEntity
  8
APL Notes
  6
Continuous
 62
     8
100
AcDbLine
 10
265.9789440202338
 20
414.4870879692206
 30
0.0
 11
265.9789440202338
 21
422.5370922087004
 31
0.0
  0
LINE
  5
2FE4
330
1F
100
AcDbEntity
  8
APL Notes
  6
Continuous
 62
     8
100
AcDbLine
 10
274.188685061583
 20
392.8646995731068
 30
0.0
 11
274.188685061583
 21
431.4106640728971
 31
0.0
  0
LINE
  5
2FE6
330
1F
100
AcDbEntity
  8
APL Notes
  6
Continuous
 62
     8
100
AcDbLine
 10
312.9349440202338
 20
414.4870879692206
 30
0.0
 11
312.9349440202338
 21
422.5370922087004
 31
0.0
  0
LEADER
  5
2FE7
330
1F
100
AcDbEntity
  8
APL Notes
 62
     8
100
AcDbLeader
  3
ISO-25
 76
     2
 10
304.4992556807168
 20
338.6528701010295
 30
0.0
 10
304.4992556807168
 20
356.3465402689006
 30
0.0
211
0.0000000000000001
221
1.0
231
0.0
1001
ACAD
1000
DSTYLE
1002
{
1070
   147
1040
0.625
1070
    77
1070
     0
1002
}
  0
LINE
  5
2FE8
330
1F
100
AcDbEntity
  8
APL Notes
  6
Continuous
 62
     8
100
AcDbLine
 10
311.4992556807169
 20
356.3465402689006
 30
0.0
 11
304.4992556807169
 21
356.3465402689006
 31
0.0
  0
TEXT
  5
2FEC
330
1F
100
AcDbEntity
  8
APL Notes
100
AcDbText
 10
302.3537433889645
 20
331.9848047208294
 30
0.0
 40
5.0
  1
B
  7
Arial-Bold
100
AcDbText
  0
LINE
  5
2FEE
330
1F
100
AcDbEntity
  8
APL Notes
  6
Continuous
 62
     8
100
AcDbLine
 10
321.9999991319282
 20
356.3465402689006
 30
0.0
 11
328.9999991319283
 21
356.3465402689006
 31
0.0
  0
LEADER
  5
2FEF
330
1F
100
AcDbEntity
  8
APL Notes
 62
     8
100
AcDbLeader
  3
ISO-25
 76
     2
 10
328.9999991319283
 20
338.6528701010295
 30
0.0
 10
328.9999991319283
 20
356.3465402689006
 30
0.0
211
-0.0000000000000001
221
1.0
231
0.0
210
0.0
220
0.0
230
-1.0
1001
ACAD
1000
DSTYLE
1002
{
1070
   147
1040
0.625
1070
    77
1070
     0
1002
}
  0
INSERT
  5
3084
330
1F
100
AcDbEntity
  8
APL Joinery
100
AcDbBlockReference
  2
08033
 10
95.3294276375241
 20
256.3870922086989
 30
0.0
  0
INSERT
  5
308B
330
1F
100
AcDbEntity
  8
APL Joinery
100
AcDbBlockReference
  2
08033
 10
95.3294276375241
 20
176.9925015682989
 30
0.0
 41
-1.0
 50
180.0
  0
LINE
  5
30D3
330
1F
100
AcDbEntity
  8
APL Notes
100
AcDbLine
 10
265.9789440202338
 20
361.8120922087006
 30
0.0
 11
312.9349440202338
 21
361.8120922087006
 31
0.0
  0
LINE
  5
30D4
330
1F
100
AcDbEntity
  8
APL Notes
100
AcDbLine
 10
265.9789440202338
 20
350.6120922087006
 30
0.0
 11
312.9349440202338
 21
350.6120922087006
 31
0.0
  0
TEXT
  5
31F2
330
1F
100
AcDbEntity
  8
APL Notes
100
AcDbText
 10
244.3971953208226
 20
329.0125682722909
 30
0.0
 40
5.0
  1
A
  7
Arial-Bold
100
AcDbText
  0
TEXT
  5
31F3
330
1F
100
AcDbEntity
  8
APL Notes
100
AcDbText
 10
326.8544868401759
 20
331.9848047208294
 30
0.0
 40
5.0
  1
B
  7
Arial-Bold
100
AcDbText
  0
LINE
  5
3206
330
1F
100
AcDbEntity
  8
APL Joinery
 62
     3
100
AcDbLine
 10
207.3999991319316
 20
108.1479491257809
 30
0.0
 11
207.3999991319315
 21
63.34794912578101
 31
0.0
  0
LINE
  5
3207
330
1F
100
AcDbEntity
  8
APL Joinery
 62
     3
100
AcDbLine
 10
207.3999991319315
 20
63.34794912578101
 30
0.0
 11
137.3999991319315
 21
63.34794912578104
 31
0.0
  0
LINE
  5
3209
330
1F
100
AcDbEntity
  8
APL Joinery
 62
     3
100
AcDbLine
 10
137.3999991319315
 20
108.1479491257809
 30
0.0
 11
207.3999991319316
 21
108.1479491257809
 31
0.0
  0
LWPOLYLINE
  5
32A6
330
1F
100
AcDbEntity
  8
APL Joinery
 62
     8
100
AcDbPolyline
 90
        6
 70
     0
 43
0.0
 10
137.3999991319315
 20
113.1479491257809
 10
137.3999991319315
 20
90.747949125781
 10
132.3999991319315
 20
90.747949125781
 10
142.3999991319315
 20
80.747949125781
 10
137.3999991319315
 20
80.747949125781
 10
137.3999991319315
 20
58.34794912578104
  0
INSERT
  5
32AC
330
1F
100
AcDbEntity
  8
APL Joinery
100
AcDbBlockReference
  2
08004
 10
260.9999991319315
 20
60.74794912576914
 30
0.0
 41
-1.0
  0
INSERT
  5
32B2
330
1F
100
AcDbEntity
  8
APL Joinery
100
AcDbBlockReference
  2
08012
 10
257.5999991319304
 20
85.7479491257691
 30
0.0
 50
180.0
  0
LWPOLYLINE
  5
32C7
330
1F
100
AcDbEntity
  8
APL Notes
100
AcDbPolyline
 90
        4
 70
     1
 43
0.3
 10
166.6294276375241
 20
304.3870922086989
 10
166.6294276375241
 20
315.387092208699
 10
115.6294276375241
 20
315.387092208699
 10
115.6294276375241
 20
304.3870922086989
  0
TEXT
  5
32C8
330
1F
100
AcDbEntity
  8
APL Notes
100
AcDbText
 10
118.6294276375241
 20
307.387092208699
 30
0.0
 40
5.0
  1
SECTION A-A
  7
Arial-Bold
100
AcDbText
  0
TEXT
  5
32C9
330
1F
100
AcDbEntity
  8
APL Notes
  6
Continuous
 62
     7
100
AcDbText
 10
179.9999991319282
 20
146.2479491257691
 30
0.0
 40
5.0
  1
SECTION B-B
  7
Arial-Bold
100
AcDbText
  0
LWPOLYLINE
  5
32CA
330
1F
100
AcDbEntity
  8
APL Notes
100
AcDbPolyline
 90
        4
 70
     1
 43
0.3
 10
227.9999991319282
 20
143.2479491257691
 10
227.9999991319282
 20
154.2479491257691
 10
176.9999991319282
 20
154.2479491257691
 10
176.9999991319282
 20
143.2479491257691
  0
INSERT
  5
330D
330
1F
100
AcDbEntity
  8
APL Joinery
100
AcDbBlockReference
  2
UA1505
 10
208.9999991319315
 20
61.74794912578102
 30
0.0
 50
90.0
  0
LINE
  5
3337
330
1F
100
AcDbEntity
  8
APL Joinery
 62
     3
100
AcDbLine
 10
48.92942763752412
 20
266.6897968884989
 30
0.0
 11
93.72942763752408
 21
266.6897968884989
 31
0.0
  0
LINE
  5
3338
330
1F
100
AcDbEntity
  8
APL Joinery
 62
     3
100
AcDbLine
 10
93.72942763752408
 20
266.6897968884989
 30
0.0
 11
93.72942763752408
 21
166.6897968884989
 31
0.0
  0
LINE
  5
3339
330
1F
100
AcDbEntity
  8
APL Joinery
 62
     3
100
AcDbLine
 10
93.72942763752408
 20
166.6897968884989
 30
0.0
 11
48.92942763752412
 21
166.6897968884989
 31
0.0
  0
LINE
  5
333A
330
1F
100
AcDbEntity
  8
APL Joinery
 62
     3
100
AcDbLine
 10
48.92942763752412
 20
166.6897968884989
 30
0.0
 11
48.92942763752412
 21
266.6897968884989
 31
0.0
  0
LINE
  5
333B
330
1F
100
AcDbEntity
  8
APL Joinery
 62
     3
100
AcDbLine
 10
50.42942763752413
 20
166.6897968884989
 30
0.0
 11
50.42942763752413
 21
266.6897968884989
 31
0.0
  0
LINE
  5
333C
330
1F
100
AcDbEntity
  8
APL Joinery
 62
     3
100
AcDbLine
 10
92.22942763752408
 20
266.6897968884989
 30
0.0
 11
92.22942763752408
 21
166.6897968884989
 31
0.0
  0
LINE
  5
333D
330
1F
100
AcDbEntity
  8
APL Joinery
 62
     3
100
AcDbLine
 10
137.3999991319315
 20
106.6479491257809
 30
0.0
 11
207.3999991319316
 21
106.6479491257809
 31
0.0
  0
LINE
  5
333E
330
1F
100
AcDbEntity
  8
APL Joinery
 62
     3
100
AcDbLine
 10
207.3999991319315
 20
64.84794912578101
 30
0.0
 11
137.3999991319315
 21
64.84794912578104
 31
0.0
  0
INSERT
  5
33C7
330
1F
100
AcDbEntity
  8
APL Joinery
100
AcDbBlockReference
  2
polystyrene
 10
71.3294276375241
 20
249.1897968884989
 30
0.0
  0
INSERT
  5
33CB
330
1F
100
AcDbEntity
  8
APL Joinery
100
AcDbBlockReference
  2
polystyrene
 10
71.3294276375241
 20
184.1897968884989
 30
0.0
 41
-1.0
 50
180.0
  0
INSERT
  5
33CE
330
1F
100
AcDbEntity
  8
APL Joinery
100
AcDbBlockReference
  2
polystyrene
 10
189.8999991319315
 20
85.74794912578099
 30
0.0
 50
270.0
  0
INSERT
  5
33CF
330
1F
100
AcDbEntity
  8
APL Joinery
100
AcDbBlockReference
  2
polystyrene
 10
154.8999991319315
 20
85.74794912578099
 30
0.0
 41
-1.0
 50
90.0
  0
LWPOLYLINE
  5
365D
330
1F
100
AcDbEntity
  8
0
100
AcDbPolyline
 90
        4
 70
     1
 43
0.0
 10
353.9999991319283
 20
0.0000002788497113
 10
353.9999991319283
 20
482.0000002788496
 10
-0.0000008680717656
 20
482.0000002788496
 10
-0.0000008680717656
 20
0.0000002788497113
  0
TEXT
  5
36F9
330
1F
100
AcDbEntity
  8
APL Notes
100
AcDbText
 10
25.90598892242856
 20
259.730270160142
 30
0.0
 40
5.0
  1
08033
  7
Arial-Bold
 72
     2
 11
45.32959055953633
 21
259.730270160142
 31
0.0
100
AcDbText
  0
TEXT
  5
36FA
330
1F
100
AcDbEntity
  8
APL Notes
100
AcDbText
 10
25.90598892242854
 20
160.1965517139715
 30
0.0
 40
5.0
  1
08033
  7
Arial-Bold
 72
     2
 11
45.32959055953631
 21
160.1965517139715
 31
0.0
100
AcDbText
  0
TEXT
  5
36FB
330
1F
100
AcDbEntity
  8
APL Notes
100
AcDbText
 10
25.69999913192838
 20
139.3746287699406
 30
0.0
 40
5.0
  1
08024
  7
Arial-Bold
100
AcDbText
  0
INSERT
  5
36FC
330
1F
100
AcDbEntity
  8
APL Joinery
100
AcDbBlockReference
  2
08024glaze
 10
47.32942763316856
 20
151.9925015682987
 30
0.0
 50
270.0
  0
TEXT
  5
37DC
330
1F
100
AcDbEntity
  8
APL Notes
100
AcDbText
 10
25.69999913192837
 20
326.4604865510491
 30
0.0
 40
5.0
  1
08022
  7
Arial-Bold
100
AcDbText
  0
INSERT
  5
37DD
330
1F
100
AcDbEntity
  8
APL Joinery
100
AcDbBlockReference
  2
08022glaze
 10
47.32959055953634
 20
338.3870922086998
 30
0.0
  0
TEXT
  5
37DE
330
1F
100
AcDbEntity
  8
APL Notes
100
AcDbText
 10
25.90598892242857
 20
295.8813401272758
 30
0.0
 40
5.0
  1
08022
  7
Arial-Bold
 72
     2
 11
45.32959055953634
 21
295.8813401272758
 31
0.0
100
AcDbText
  0
INSERT
  5
37DF
330
1F
100
AcDbEntity
  8
APL Joinery
100
AcDbBlockReference
  2
08022glaze
 10
47.32959055953634
 20
281.3870922086981
 30
0.0
 41
-1.0
 50
180.0
  0
TEXT
  5
37E0
330
1F
100
AcDbEntity
  8
APL Notes
100
AcDbText
 10
22.80571607113252
 20
288.8813401272758
 30
0.0
 40
5.0
  1
Square
  7
Arial-Regular
 72
     2
 11
45.32959055953634
 21
288.8813401272758
 31
0.0
100
AcDbText
  0
TEXT
  5
37E1
330
1F
100
AcDbEntity
  8
APL Notes
100
AcDbText
 10
28.88113389288717
 20
281.2501333250478
 30
0.0
 40
5.0
  1
Bead
  7
Arial-Regular
 72
     2
 11
45.19423075509727
 21
281.2501333250478
 31
0.0
100
AcDbText
  0
LWPOLYLINE
  5
3955
330
1F
100
AcDbEntity
  8
APL Notes
  6
Continuous
 62
     2
100
AcDbPolyline
 90
        4
 70
     1
 43
0.0
 10
320.6069440202338
 20
280.0870922087005
 10
320.6069440202338
 20
426.3870922087004
 10
258.3069440202338
 20
426.3870922087004
 10
258.3069440202338
 20
280.0870922087005
  0
LWPOLYLINE
  5
3957
330
1F
100
AcDbEntity
  8
APL Notes
  6
Continuous
 62
     8
100
AcDbPolyline
 90
        4
 70
     1
 43
0.0
 10
319.8369440202339
 20
280.8570922087006
 10
259.0769440202337
 20
280.8570922087006
 10
259.0769440202337
 20
425.6170922087005
 10
319.8369440202339
 20
425.6170922087005
  0
LWPOLYLINE
  5
3959
330
1F
100
AcDbEntity
  8
APL Notes
  6
Continuous
 62
     8
100
AcDbPolyline
 90
        2
 70
     0
 43
0.0
 10
258.3069440202338
 20
426.3870922087004
 10
261.8769440202338
 20
422.8170922087005
  0
LWPOLYLINE
  5
395A
330
1F
100
AcDbEntity
  8
APL Notes
  6
Continuous
 62
     8
100
AcDbPolyline
 90
        4
 70
     1
 43
0.0
 10
318.3901875767937
 20
282.3038486521406
 10
260.5237004636739
 20
282.3038486521406
 10
260.5237004636739
 20
424.1703357652605
 10
318.3901875767937
 20
424.1703357652605
  0
LWPOLYLINE
  5
395C
330
1F
100
AcDbEntity
  8
APL Notes
  6
Continuous
 62
     2
100
AcDbPolyline
 90
        4
 70
     1
 43
0.0
 10
317.0369440202339
 20
283.6570922087006
 10
261.8769440202338
 20
283.6570922087006
 10
261.8769440202338
 20
422.8170922087005
 10
317.0369440202339
 20
422.8170922087005
  0
LWPOLYLINE
  5
395E
330
1F
100
AcDbEntity
  8
APL Notes
  6
Continuous
 62
     2
100
AcDbPolyline
 90
        4
 70
     1
 43
0.0
 10
316.7569440202338
 20
283.9370922087005
 10
262.1569440202338
 20
283.9370922087005
 10
262.1569440202338
 20
422.5370922087004
 10
316.7569440202338
 20
422.5370922087004
  0
LWPOLYLINE
  5
3964
330
1F
100
AcDbEntity
  8
APL Notes
  6
Continuous
 62
     8
100
AcDbPolyline
 90
        2
 70
     0
 43
0.0
 10
317.0369440202339
 20
422.8170922087005
 10
320.6069440202338
 20
426.3870922087004
  0
LWPOLYLINE
  5
3969
330
1F
100
AcDbEntity
  8
APL Notes
  6
Continuous
 62
     8
100
AcDbPolyline
 90
        2
 70
     0
 43
0.0
 10
317.0369440202339
 20
283.6570922087006
 10
320.6069440202338
 20
280.0870922087005
  0
LWPOLYLINE
  5
396E
330
1F
100
AcDbEntity
  8
APL Notes
  6
Continuous
 62
     2
100
AcDbPolyline
 90
        4
 70
     1
 43
0.0
 10
312.9349440202338
 20
414.4870879692206
 10
312.9349440202338
 20
297.9370964481805
 10
265.9789440202338
 20
297.9370964481805
 10
265.9789440202338
 20
414.4870879692206
  0
VIEWPORT
  5
3194
102
{ACAD_XDICTIONARY
360
3C74
102
}
330
318C
100
AcDbEntity
 67
     1
  8
0
100
AcDbViewport
 10
99.91724491119384
 20
143.1184201240539
 30
0.0
 40
430.1964563810208
 41
299.4231128286808
 68
     1
 69
     1
 12
99.91724491119384
 22
143.1184201240539
 13
0.0
 23
0.0
 14
10.0
 24
10.0
 15
10.0
 25
10.0
 16
0.0
 26
0.0
 36
1.0
 17
0.0
 27
0.0
 37
0.0
 42
50.0
 43
0.0
 44
0.0
 45
299.4231128286808
 50
0.0
 51
0.0
 72
 20000
 90
    32800
  1

281
     0
 71
     1
 74
     0
110
0.0
120
0.0
130
0.0
111
1.0
121
0.0
131
0.0
112
0.0
122
1.0
132
0.0
 79
     0
146
0.0
  0
VIEWPORT
  5
3196
102
{ACAD_XDICTIONARY
360
3C76
102
}
330
318C
100
AcDbEntity
 67
     1
  8
0
100
AcDbViewport
 10
100.595
 20
131.1899999999999
 30
0.0
 40
178.0
 41
241.9999999999999
 68
     2
 69
     2
 12
176.9999999561487
 22
241.0000014010934
 13
0.0
 23
0.0
 14
10.0
 24
10.0
 15
10.0
 25
10.0
 16
0.0
 26
0.0
 36
1.0
 17
0.0
 27
0.0
 37
0.0
 42
50.0
 43
0.0
 44
0.0
 45
483.9999999999998
 50
0.0
 51
0.0
 72
 20000
 90
    32864
  1

281
     0
 71
     1
 74
     0
110
0.0
120
0.0
130
0.0
111
1.0
121
0.0
131
0.0
112
0.0
122
1.0
132
0.0
 79
     0
146
0.0
  0
INSERT
  5
319C
330
318C
100
AcDbEntity
 67
     1
  8
APL Border
100
AcDbBlockReference
  2
vantage a4 SM border
 10
0.0
 20
0.0
 30
0.0
  0
INSERT
  5
3B65
330
318C
100
AcDbEntity
 67
     1
  8
APL Border
100
AcDbBlockReference
 66
     1
  2
vantage a4 SM attributes (4)
 10
0.0
 20
0.0
 30
0.0
  0
ATTRIB
  5
3B67
330
3B65
100
AcDbEntity
 67
     1
  8
APL Border
100
AcDbText
 10
41.78979785863009
 20
276.19
 30
0.0
 40
3.5
  1
MAGNUM 50
  7
Arial-Bold
100
AcDbAttribute
  2
DRAWINGTITLE_1
 70
     0
1001
AcDbBlockRepETag
1070
     1
1071
        0
1005
0
  0
ATTRIB
  5
3B68
330
3B65
100
AcDbEntity
 67
     1
  8
APL Border
100
AcDbText
 10
41.78979785863009
 20
270.19
 30
0.0
 40
3.5
  1
HINGED DOOR
  7
Arial-Bold
100
AcDbAttribute
  2
DRAWINGTITLE_2
 70
     0
1001
AcDbBlockRepETag
1070
     1
1071
        1
1005
0
  0
ATTRIB
  5
3B69
330
3B65
100
AcDbEntity
 67
     1
  8
APL Border
100
AcDbText
 10
41.78979785863009
 20
264.19
 30
0.0
 40
3.5
  1
WITH COMPOSITE VISION RAIL
  7
Arial-Bold
100
AcDbAttribute
  2
DRAWINGTITLE_3
 70
     0
1001
AcDbBlockRepETag
1070
     1
1071
        2
1005
0
  0
ATTRIB
  5
3B6A
330
3B65
100
AcDbEntity
 67
     1
  8
APL Border
100
AcDbText
 10
41.78979785863009
 20
258.19
 30
0.0
 40
3.0
  1
CROSS SECTION
  7
Arial-Regular
100
AcDbAttribute
  2
DRAWINGTITLE_4
 70
     0
1001
AcDbBlockRepETag
1070
     1
1071
        3
1005
0
  0
ATTRIB
  5
3B6B
330
3B65
100
AcDbEntity
 67
     1
  8
APL Border
100
AcDbText
 10
165.845
 20
273.69
 30
0.0
 40
2.5
  1
VCMD14-0
  7
Arial-Regular
100
AcDbAttribute
  2
AW12-0
 70
     0
1001
AcDbBlockRepETag
1070
     1
1071
        4
1005
0
  0
ATTRIB
  5
3B6C
330
3B65
100
AcDbEntity
 67
     1
  8
APL Border
100
AcDbText
 10
147.5475920873124
 20
257.1899999999999
 30
0.0
 40
2.5
  1
01.06.11
  7
Arial-Regular
 72
     1
 11
154.345
 21
257.1899999999999
 31
0.0
100
AcDbAttribute
  2
25.07.08
 70
     0
1001
AcDbBlockRepETag
1070
     1
1071
        5
1005
0
  0
ATTRIB
  5
3B6D
330
3B65
100
AcDbEntity
 67
     1
  8
APL Border
100
AcDbText
 10
175.4174761255116
 20
257.1899999999999
 30
0.0
 40
2.5
  1
1:2
  7
Arial-Regular
 72
     1
 11
177.845
 21
257.1899999999999
 31
0.0
100
AcDbAttribute
  2
1:2
 70
     0
1001
AcDbBlockRepETag
1070
     1
1071
        6
1005
0
  0
ATTRIB
  5
3B6E
330
3B65
100
AcDbEntity
 67
     1
  8
APL Border
100
AcDbText
 10
189.595
 20
1.189999999999997
 30
0.0
 40
3.75
  1

  7
Arial-Bold
 72
     2
 11
189.595
 21
1.189999999999997
 31
0.0
100
AcDbAttribute
  2
1.2.34
 70
     0
1001
AcDbBlockRepETag
1070
     1
1071
        7
1005
0
  0
ATTRIB
  5
3B6F
330
3B65
100
AcDbEntity
 67
     1
  8
APL Border
100
AcDbText
 10
11.59500000000003
 20
1.189999999999997
 30
0.0
 40
3.75
  1

  7
Arial-Bold
100
AcDbAttribute
  2
1.2.34
 70
     0
1001
AcDbBlockRepETag
1070
     1
1071
        8
1005
0
  0
SEQEND
  5
3B66
330
3B65
100
AcDbEntity
 67
     1
  8
APL Border
  0
ENDSEC
  0
SECTION
  2
OBJECTS
  0
DICTIONARY
  5
C
330
0
100
AcDbDictionary
281
     1
  3
ACAD_COLOR
350
3526
  3
ACAD_GROUP
350
D
  3
ACAD_LAYOUT
350
1A
  3
ACAD_MATERIAL
350
34FC
  3
ACAD_MLEADERSTYLE
350
354B
  3
ACAD_MLINESTYLE
350
17
  3
ACAD_PLOTSETTINGS
350
19
  3
ACAD_PLOTSTYLENAME
350
E
  3
ACAD_SCALELIST
350
3529
  3
ACAD_TABLESTYLE
350
3527
  3
ACAD_VISUALSTYLE
350
3515
  3
AcadDim
350
86
  3
ACDB_RECOMPOSE_DATA
350
35CE
  3
ACDBHEADERROUNDTRIPXREC
350
40FF
  3
AcDbVariableDictionary
350
3B
  3
DWGPROPS
350
40FE
  0
DICTIONARY
  5
35D0
330
8
100
AcDbDictionary
280
     1
281
     1
  3
ACAD_XREC_ROUNDTRIP
360
3C6A
  0
DICTIONARY
  5
3570
330
2
100
AcDbDictionary
280
     1
281
     1
  3
ACAD_LAYERFILTERS
360
3781
  3
ACAD_LAYERSTATES
360
3571
  3
ACLYDICTIONARY
360
3780
  0
DICTIONARY
  5
359C
330
10
100
AcDbDictionary
280
     1
281
     1
  3
ACAD_XREC_ROUNDTRIP
360
3C6B
  3
ADSK_XREC_LAYER_RECONCILED
360
359D
  0
DICTIONARY
  5
359E
330
2B
100
AcDbDictionary
280
     1
281
     1
  3
ACAD_XREC_ROUNDTRIP
360
3C6E
  3
ADSK_XREC_LAYER_RECONCILED
360
359F
  0
DICTIONARY
  5
35A0
330
75
100
AcDbDictionary
280
     1
281
     1
  3
ACAD_XREC_ROUNDTRIP
360
3C6F
  3
ADSK_XREC_LAYER_RECONCILED
360
35A1
  0
DICTIONARY
  5
35A2
330
2C09
100
AcDbDictionary
280
     1
281
     1
  3
ACAD_XREC_ROUNDTRIP
360
3C70
  3
ADSK_XREC_LAYER_RECONCILED
360
35A3
  0
DICTIONARY
  5
35AA
330
3557
100
AcDbDictionary
280
     1
281
     1
  3
ACAD_XREC_ROUNDTRIP
360
3C87
  3
ADSK_XREC_LAYER_RECONCILED
360
35AB
  0
DICTIONARY
  5
365E
330
1F
100
AcDbDictionary
280
     1
281
     1
  3
ACAD_SORTENTS
360
365F
  0
DICTIONARY
  5
3CD5
330
26A8
100
AcDbDictionary
280
     1
281
     1
  3
ACAD_SORTENTS
360
3CD6
  0
DICTIONARY
  5
40D0
330
32A7
100
AcDbDictionary
280
     1
281
     1
  0
DICTIONARY
  5
40DA
330
36D6
100
AcDbDictionary
280
     1
281
     1
  0
DICTIONARY
  5
3BF1
330
36E3
100
AcDbDictionary
280
     1
281
     1
  0
DICTIONARY
  5
3B62
330
3B58
100
AcDbDictionary
280
     1
281
     1
  0
DICTIONARY
  5
3CF5
330
3CF4
100
AcDbDictionary
280
     1
281
     1
  3
ACAD_SORTENTS
360
3CF6
  0
DICTIONARY
  5
3CF3
330
3CF2
100
AcDbDictionary
280
     1
281
     1
  0
DICTIONARY
  5
3C74
330
3194
100
AcDbDictionary
280
     1
281
     1
  3
ACAD_XREC_ROUNDTRIP
360
3C75
  0
DICTIONARY
  5
3C76
330
3196
100
AcDbDictionary
280
     1
281
     1
  3
ACAD_XREC_ROUNDTRIP
360
3C77
  0
DICTIONARY
  5
3526
102
{ACAD_REACTORS
330
C
102
}
330
C
100
AcDbDictionary
281
     1
  0
DICTIONARY
  5
D
102
{ACAD_REACTORS
330
C
102
}
330
C
100
AcDbDictionary
281
     1
  0
DICTIONARY
  5
1A
102
{ACAD_REACTORS
330
C
102
}
330
C
100
AcDbDictionary
281
     1
  3
Model
350
22
  3
Vantage A4
350
318D
  0
DICTIONARY
  5
34FC
102
{ACAD_REACTORS
330
C
102
}
330
C
100
AcDbDictionary
281
     1
  3
ByBlock
350
3505
  3
ByLayer
350
34FD
  3
Global
350
350D
  0
DICTIONARY
  5
354B
102
{ACAD_REACTORS
330
C
102
}
330
C
100
AcDbDictionary
281
     1
  3
Standard
350
3ACF
  0
DICTIONARY
  5
17
102
{ACAD_REACTORS
330
C
102
}
330
C
100
AcDbDictionary
281
     1
  3
Standard
350
18
  0
DICTIONARY
  5
19
102
{ACAD_REACTORS
330
C
102
}
330
C
100
AcDbDictionary
281
     1
  0
ACDBDICTIONARYWDFLT
  5
E
102
{ACAD_REACTORS
330
C
102
}
330
C
100
AcDbDictionary
281
     1
  3
Normal
350
F
100
AcDbDictionaryWithDefault
340
F
  0
DICTIONARY
  5
3529
102
{ACAD_REACTORS
330
C
102
}
330
C
100
AcDbDictionary
281
     1
  3
A0
350
352A
  3
A1
350
352B
  3
A2
350
352C
  3
A3
350
352D
  3
A4
350
352E
  3
A5
350
352F
  3
A6
350
3530
  3
A7
350
3531
  3
A8
350
3532
  3
A9
350
3533
  3
B0
350
3534
  3
B1
350
3535
  3
B2
350
3536
  3
B3
350
3537
  3
B4
350
3538
  3
B5
350
3539
  3
B6
350
353A
  3
B7
350
353B
  3
B8
350
353C
  3
B9
350
353D
  3
C0
350
353E
  3
C1
350
353F
  3
C2
350
3540
  3
C3
350
3541
  3
C4
350
3542
  3
C5
350
3543
  3
C6
350
3544
  3
C7
350
3545
  3
C8
350
3546
  3
C9
350
3547
  3
D0
350
3548
  3
D1
350
3549
  3
D2
350
354A
  0
DICTIONARY
  5
3527
102
{ACAD_REACTORS
330
C
102
}
330
C
100
AcDbDictionary
281
     1
  3
Standard
350
3528
  0
DICTIONARY
  5
3515
102
{ACAD_REACTORS
330
C
102
}
330
C
100
AcDbDictionary
281
     1
  3
2dWireframe
350
351B
  3
3D Hidden
350
351D
  3
3dWireframe
350
351C
  3
Basic
350
351A
  3
Brighten
350
3521
  3
ColorChange
350
3525
  3
Conceptual
350
351E
  3
Dim
350
3520
  3
Facepattern
350
3524
  3
Flat
350
3516
  3
FlatWithEdges
350
3517
  3
Gouraud
350
3518
  3
GouraudWithEdges
350
3519
  3
Linepattern
350
3523
  3
Realistic
350
351F
  3
Thicken
350
3522
  0
XRECORD
  5
86
102
{ACAD_REACTORS
330
C
102
}
330
C
100
AcDbXrecord
280
     1
 90
   990106
  3

 60
     0
 61
     0
 62
     1
 63
     3
 64
     0
 65
     0
 66
     0
 67
     3
 68
     1
 69
     0
 70
     0
 71
     0
 72
     0
 40
8.188652110585962
170
     0
  0
XRECORD
  5
35CE
102
{ACAD_REACTORS
330
C
102
}
330
C
100
AcDbXrecord
280
     1
 90
        1
330
3528
  0
DICTIONARY
  5
40FF
102
{ACAD_REACTORS
330
C
102
}
330
C
100
AcDbDictionary
281
     1
  0
DICTIONARY
  5
3B
102
{ACAD_REACTORS
330
C
102
}
330
C
100
AcDbDictionary
281
     1
  3
CANNOSCALE
350
3601
  3
CMLEADERSTYLE
350
3600
  3
CTABLESTYLE
350
35FF
  3
DIMASSOC
350
3D
  3
HIDETEXT
350
3C
  3
INDEXCTL
350
3603
  3
PROJECTNAME
350
39EE
  3
SORTENTS
350
3602
  0
XRECORD
  5
40FE
102
{ACAD_REACTORS
330
C
102
}
330
C
100
AcDbXrecord
280
     1
  1
DWGPROPS COOKIE
  2

  3

  4

  6

  7

  8
homer
  9

300
=
301
=
302
=
303
=
304
=
305
=
306
=
307
=
308
=
309
=
 40
0.9220951273148148
 41
2452417.391545024
 42
2455660.582096458
  1

 90
        0
  0
XRECORD
  5
3C6A
102
{ACAD_REACTORS
330
35D0
102
}
330
35D0
100
AcDbXrecord
280
     1
102
VTR_0.000_0.000_1.000_1.000_VISUALSTYLE
340
351B
102
VTR_0.000_0.000_1.000_1.000_GRIDDISPLAY
 70
     3
102
VTR_0.000_0.000_1.000_1.000_GRIDMAJOR
 70
     5
102
VTR_0.000_0.000_1.000_1.000_DEFAULTLIGHTING
280
     1
102
VTR_0.000_0.000_1.000_1.000_DEFAULTLIGHTINGTYPE
 70
     1
102
VTR_0.000_0.000_1.000_1.000_BRIGHTNESS
141
0.0
102
VTR_0.000_0.000_1.000_1.000_CONTRAST
142
0.0
  0
DICTIONARY
  5
3781
102
{ACAD_REACTORS
330
3570
102
}
330
3570
100
AcDbDictionary
281
     1
  0
DICTIONARY
  5
3571
102
{ACAD_REACTORS
330
3570
102
}
330
3570
100
AcDbDictionary
281
     1
  0
DICTIONARY
  5
3780
102
{ACAD_REACTORS
330
3570
102
}
330
3570
100
AcDbDictionary
281
     1
1001
ACAD
1000
<All
  0
XRECORD
  5
3C6B
102
{ACAD_REACTORS
330
359C
102
}
330
359C
100
AcDbXrecord
280
     1
102
MATERIAL
340
350D
  0
XRECORD
  5
359D
102
{ACAD_REACTORS
330
359C
102
}
330
359C
100
AcDbXrecord
280
     1
290
     1
  0
XRECORD
  5
3C6E
102
{ACAD_REACTORS
330
359E
102
}
330
359E
100
AcDbXrecord
280
     1
102
MATERIAL
340
350D
  0
XRECORD
  5
359F
102
{ACAD_REACTORS
330
359E
102
}
330
359E
100
AcDbXrecord
280
     1
290
     1
  0
XRECORD
  5
3C6F
102
{ACAD_REACTORS
330
35A0
102
}
330
35A0
100
AcDbXrecord
280
     1
102
MATERIAL
340
350D
  0
XRECORD
  5
35A1
102
{ACAD_REACTORS
330
35A0
102
}
330
35A0
100
AcDbXrecord
280
     1
290
     1
  0
XRECORD
  5
3C70
102
{ACAD_REACTORS
330
35A2
102
}
330
35A2
100
AcDbXrecord
280
     1
102
MATERIAL
340
350D
  0
XRECORD
  5
35A3
102
{ACAD_REACTORS
330
35A2
102
}
330
35A2
100
AcDbXrecord
280
     1
290
     1
  0
XRECORD
  5
3C87
102
{ACAD_REACTORS
330
35AA
102
}
330
35AA
100
AcDbXrecord
280
     1
102
MATERIAL
340
350D
  0
XRECORD
  5
35AB
102
{ACAD_REACTORS
330
35AA
102
}
330
35AA
100
AcDbXrecord
280
     1
290
     1
  0
SORTENTSTABLE
  5
365F
102
{ACAD_REACTORS
330
365E
102
}
330
365E
100
AcDbSortentsTable
330
1F
331
395A
  5
330D
331
37DC
  5
396C
331
2913
  5
2913
331
37E1
  5
3971
331
2918
  5
2918
331
36FB
  5
396A
331
3964
  5
333E
331
2FDE
  5
333A
331
3969
  5
32A6
331
2922
  5
2922
331
396E
  5
2FD4
331
2FE8
  5
33CE
331
2861
  5
2861
331
3955
  5
32C8
331
308B
  5
365D
331
31F2
  5
36FA
331
2FCD
  5
30D3
331
2FE3
  5
333C
331
333A
  5
395C
331
32C9
  5
3956
331
33CE
  5
3965
331
3209
  5
37DD
331
2FD4
  5
32B2
331
32B2
  5
37E0
331
395C
  5
32CA
331
37DE
  5
396E
331
2FDB
  5
3206
331
281C
  5
281C
331
26FE
  5
26FE
331
3337
  5
3959
331
3957
  5
2FE2
331
2FEF
  5
33E8
331
2FCF
  5
3209
331
333C
  5
395E
331
33CB
  5
3964
331
3206
  5
36FC
331
330D
  5
3958
331
365D
  5
2FB9
331
30D4
  5
36F9
331
2912
  5
2912
331
37E0
  5
3970
331
2700
  5
2700
331
32C8
  5
3955
331
2FCC
  5
3087
331
2FEC
  5
33CF
331
32AC
  5
37DF
331
2860
  5
2860
331
2FE7
  5
33CB
331
333E
  5
3962
331
2FE2
  5
333B
331
3339
  5
395B
331
2FC2
  5
2FEF
331
36FA
  5
3969
331
395E
  5
32C9
331
3959
  5
3337
331
2914
  5
2914
331
2711
  5
2711
331
2FD5
  5
32C7
331
33CF
  5
3966
331
32CA
  5
3957
331
333B
  5
395D
331
2FE4
  5
333D
331
31F3
  5
36FB
331
2FEE
  5
33E6
331
2FCE
  5
3207
331
2FC9
  5
3084
331
36FC
  5
396B
331
37DD
  5
396D
331
37DF
  5
396F
331
36F9
  5
3968
331
33C7
  5
3963
331
32C7
  5
37E1
331
3338
  5
395A
331
2FCB
  5
308C
331
333D
  5
395F
331
32A6
  5
37DE
331
2FE6
  5
33C7
331
3084
  5
33E9
331
3207
  5
37DC
331
30D3
  5
3660
  0
SORTENTSTABLE
  5
3CD6
102
{ACAD_REACTORS
330
3CD5
102
}
330
3CD5
100
AcDbSortentsTable
330
26A8
  0
SORTENTSTABLE
  5
3CF6
102
{ACAD_REACTORS
330
3CF5
102
}
330
3CF5
100
AcDbSortentsTable
330
3CF4
  0
XRECORD
  5
3C75
102
{ACAD_REACTORS
330
3C74
102
}
330
3C74
100
AcDbXrecord
280
     1
102
VISUALSTYLE
340
351B
102
GRIDDISPLAY
 70
     0
102
GRIDMAJOR
 70
     5
102
DEFAULTLIGHTING
280
     1
102
DEFAULTLIGHTINGTYPE
 70
     1
102
BRIGHTNESS
141
0.0
102
CONTRAST
142
0.0
102
SHADEPLOT
 70
     0
  0
XRECORD
  5
3C77
102
{ACAD_REACTORS
330
3C76
102
}
330
3C76
100
AcDbXrecord
280
     1
102
VISUALSTYLE
340
351B
102
GRIDDISPLAY
 70
     0
102
GRIDMAJOR
 70
     5
102
DEFAULTLIGHTING
280
     1
102
DEFAULTLIGHTINGTYPE
 70
     1
102
BRIGHTNESS
141
0.0
102
CONTRAST
142
0.0
102
SHADEPLOT
 70
     0
  0
LAYOUT
  5
22
102
{ACAD_XDICTIONARY
360
4100
102
}
102
{ACAD_REACTORS
330
1A
102
}
330
1A
100
AcDbPlotSettings
  1

  2
\\APL01\HP LaserJet 4MV
  4
A4
  6

 40
6.043083190917968
 41
6.720414161682128
 42
7.821090698242187
 43
5.027069091796875
 44
210.0579986572266
 45
296.9259948730469
 46
0.0
 47
0.0
 48
55.19893561856474
 49
77.41415496436935
140
329.6878846931311
141
251.7976535946928
142
1.0
143
1.0
 70
 11936
 72
     1
 73
     1
 74
     4
  7

 75
     0
147
1.0
148
-55.19893561856474
149
-77.41415496436935
100
AcDbLayout
  1
Model
 70
     1
 71
     0
 10
0.0
 20
0.0
 11
12.0
 21
9.0
 12
0.0
 22
0.0
 32
0.0
 14
0.0
 24
0.0
 34
0.0
 15
0.0
 25
0.0
 35
0.0
146
0.0
 13
0.0
 23
0.0
 33
0.0
 16
1.0
 26
0.0
 36
0.0
 17
0.0
 27
1.0
 37
0.0
 76
     0
330
1F
  0
LAYOUT
  5
318D
102
{ACAD_XDICTIONARY
360
3583
102
}
102
{ACAD_REACTORS
330
1A
102
}
330
1A
100
AcDbPlotSettings
  1

  2
\\Aplfp01\APL Technical HP5100 PSLaser
  4
A4
  6

 40
5.027083396911621
 41
5.408084392547607
 42
5.70440673828125
 43
5.365753173828125
 44
209.8886566162109
 45
297.0530090332031
 46
0.0
 47
0.0
 48
0.0
 49
0.0
140
0.0
141
0.0
142
1.0
143
1.0
 70
   176
 72
     1
 73
     0
 74
     5
  7
A4 Specifier Manual.ctb
 75
    16
147
1.0
148
0.0
149
0.0
100
AcDbLayout
  1
Vantage A4
 70
     1
 71
     1
 10
-5.027083396911621
 20
-5.408084392547607
 11
204.8615732192993
 21
291.6449246406555
 12
0.0
 22
0.0
 32
0.0
 14
11.46014251777035
 24
3.285575844812797
 34
-0.0015258207003583
 15
189.6073672775216
 25
282.2033753668244
 35
0.0000000349246037
146
0.0
 13
0.0
 23
0.0
 33
0.0
 16
1.0
 26
0.0
 36
0.0
 17
0.0
 27
1.0
 37
0.0
 76
     0
330
318C
331
3194
1001
ACAD_PSEXT
1000
\\Aplfp01\APL Technical HP5100 PSLaser
1000
HP LaserJet 5100 PS
1000
APL Technical Office
1000

1070
     0
  0
MATERIAL
  5
3505
102
{ACAD_XDICTIONARY
360
3506
102
}
102
{ACAD_REACTORS
330
34FC
102
}
330
34FC
100
AcDbMaterial
  1
ByBlock
 72
     0
 73
     2
 43
0.0008202099737533
 43
0.0
 43
0.0
 43
0.0
 43
0.0
 43
0.0008202099737533
 43
0.0
 43
0.0
 43
0.0
 43
0.0
 43
1.0
 43
0.0
 43
0.0
 43
0.0
 43
0.0
 43
1.0
 77
     0
 78
     2
 47
0.0008202099737533
 47
0.0
 47
0.0
 47
0.0
 47
0.0
 47
0.0008202099737533
 47
0.0
 47
0.0
 47
0.0
 47
0.0
 47
1.0
 47
0.0
 47
0.0
 47
0.0
 47
0.0
 47
1.0
171
     0
172
     2
 49
0.0008202099737533
 49
0.0
 49
0.0
 49
0.0
 49
0.0
 49
0.0008202099737533
 49
0.0
 49
0.0
 49
0.0
 49
0.0
 49
1.0
 49
0.0
 49
0.0
 49
0.0
 49
0.0
 49
1.0
175
     0
176
     2
142
0.0008202099737533
142
0.0
142
0.0
142
0.0
142
0.0
142
0.0008202099737533
142
0.0
142
0.0
142
0.0
142
0.0
142
1.0
142
0.0
142
0.0
142
0.0
142
0.0
142
1.0
179
     0
270
     2
144
0.0008202099737533
144
0.0
144
0.0
144
0.0
144
0.0
144
0.0008202099737533
144
0.0
144
0.0
144
0.0
144
0.0
144
1.0
144
0.0
144
0.0
144
0.0
144
0.0
144
1.0
274
     2
147
0.0008202099737533
147
0.0
147
0.0
147
0.0
147
0.0
147
0.0008202099737533
147
0.0
147
0.0
147
0.0
147
0.0
147
1.0
147
0.0
147
0.0
147
0.0
147
0.0
147
1.0
  0
MATERIAL
  5
34FD
102
{ACAD_XDICTIONARY
360
34FE
102
}
102
{ACAD_REACTORS
330
34FC
102
}
330
34FC
100
AcDbMaterial
  1
ByLayer
 72
     0
 73
     2
 43
0.0008202099737533
 43
0.0
 43
0.0
 43
0.0
 43
0.0
 43
0.0008202099737533
 43
0.0
 43
0.0
 43
0.0
 43
0.0
 43
1.0
 43
0.0
 43
0.0
 43
0.0
 43
0.0
 43
1.0
 77
     0
 78
     2
 47
0.0008202099737533
 47
0.0
 47
0.0
 47
0.0
 47
0.0
 47
0.0008202099737533
 47
0.0
 47
0.0
 47
0.0
 47
0.0
 47
1.0
 47
0.0
 47
0.0
 47
0.0
 47
0.0
 47
1.0
171
     0
172
     2
 49
0.0008202099737533
 49
0.0
 49
0.0
 49
0.0
 49
0.0
 49
0.0008202099737533
 49
0.0
 49
0.0
 49
0.0
 49
0.0
 49
1.0
 49
0.0
 49
0.0
 49
0.0
 49
0.0
 49
1.0
175
     0
176
     2
142
0.0008202099737533
142
0.0
142
0.0
142
0.0
142
0.0
142
0.0008202099737533
142
0.0
142
0.0
142
0.0
142
0.0
142
1.0
142
0.0
142
0.0
142
0.0
142
0.0
142
1.0
179
     0
270
     2
144
0.0008202099737533
144
0.0
144
0.0
144
0.0
144
0.0
144
0.0008202099737533
144
0.0
144
0.0
144
0.0
144
0.0
144
1.0
144
0.0
144
0.0
144
0.0
144
0.0
144
1.0
274
     2
147
0.0008202099737533
147
0.0
147
0.0
147
0.0
147
0.0
147
0.0008202099737533
147
0.0
147
0.0
147
0.0
147
0.0
147
1.0
147
0.0
147
0.0
147
0.0
147
0.0
147
1.0
  0
MATERIAL
  5
350D
102
{ACAD_XDICTIONARY
360
350E
102
}
102
{ACAD_REACTORS
330
34FC
102
}
330
34FC
100
AcDbMaterial
  1
Global
 72
     0
 73
     2
 43
0.0008202099737533
 43
0.0
 43
0.0
 43
0.0
 43
0.0
 43
0.0008202099737533
 43
0.0
 43
0.0
 43
0.0
 43
0.0
 43
1.0
 43
0.0
 43
0.0
 43
0.0
 43
0.0
 43
1.0
 77
     0
 78
     2
 47
0.0008202099737533
 47
0.0
 47
0.0
 47
0.0
 47
0.0
 47
0.0008202099737533
 47
0.0
 47
0.0
 47
0.0
 47
0.0
 47
1.0
 47
0.0
 47
0.0
 47
0.0
 47
0.0
 47
1.0
171
     0
172
     2
 49
0.0008202099737533
 49
0.0
 49
0.0
 49
0.0
 49
0.0
 49
0.0008202099737533
 49
0.0
 49
0.0
 49
0.0
 49
0.0
 49
1.0
 49
0.0
 49
0.0
 49
0.0
 49
0.0
 49
1.0
175
     0
176
     2
142
0.0008202099737533
142
0.0
142
0.0
142
0.0
142
0.0
142
0.0008202099737533
142
0.0
142
0.0
142
0.0
142
0.0
142
1.0
142
0.0
142
0.0
142
0.0
142
0.0
142
1.0
179
     0
270
     2
144
0.0008202099737533
144
0.0
144
0.0
144
0.0
144
0.0
144
0.0008202099737533
144
0.0
144
0.0
144
0.0
144
0.0
144
1.0
144
0.0
144
0.0
144
0.0
144
0.0
144
1.0
274
     2
147
0.0008202099737533
147
0.0
147
0.0
147
0.0
147
0.0
147
0.0008202099737533
147
0.0
147
0.0
147
0.0
147
0.0
147
1.0
147
0.0
147
0.0
147
0.0
147
0.0
147
1.0
  0
ACAD_PROXY_OBJECT
  5
3ACF
102
{ACAD_REACTORS
330
354B
102
}
330
354B
100
AcDbProxyObject
 90
      499
 91
      509
 95
   983063
 70
     0
 93
      618
310
40901902A4063FBFFFFFE000000000000002040AD7A3703D0AD73F4254DD185B99185C99000000000000000104090141901A00000000000004100000000000000041025764000000000000300FC0
340
14
340
0
340
11
340
0
 94
        0
1001
ACAD_MLEADERVER
1070
     2
1001
ACAD
1000
AcRTDxfName
1000
MLEADERSTYLE
1000
AcRTDxfName
1000
MLEADERSTYLE
1000
AcRTDxfName
1000
MLEADERSTYLE
  0
MLINESTYLE
  5
18
102
{ACAD_REACTORS
330
17
102
}
330
17
100
AcDbMlineStyle
  2
STANDARD
 70
     0
  3

 62
   256
 51
90.0
 52
90.0
 71
     2
 49
0.5
 62
   256
  6
BYLAYER
 49
-0.5
 62
   256
  6
BYLAYER
  0
ACDBPLACEHOLDER
  5
F
102
{ACAD_REACTORS
330
E
102
}
330
E
  0
ACAD_PROXY_OBJECT
  5
352A
102
{ACAD_REACTORS
330
3529
102
}
330
3529
100
AcDbProxyObject
 90
      499
 91
      508
 95
   983063
 70
     0
 93
       49
310
904313A3100580
 94
        0
1001
ACAD
1000
AcRTDxfName
1000
SCALE
1000
AcRTDxfName
1000
SCALE
1000
AcRTDxfName
1000
SCALE
1000
AcRTDxfName
1000
SCALE
  0
ACAD_PROXY_OBJECT
  5
352B
102
{ACAD_REACTORS
330
3529
102
}
330
3529
100
AcDbProxyObject
 90
      499
 91
      508
 95
   983063
 70
     0
 93
      113
310
904313A32004000000000000004040
 94
        0
1001
ACAD
1000
AcRTDxfName
1000
SCALE
1000
AcRTDxfName
1000
SCALE
1000
AcRTDxfName
1000
SCALE
1000
AcRTDxfName
1000
SCALE
  0
ACAD_PROXY_OBJECT
  5
352C
102
{ACAD_REACTORS
330
3529
102
}
330
3529
100
AcDbProxyObject
 90
      499
 91
      508
 95
   983063
 70
     0
 93
      113
310
904313A34004000000000000104040
 94
        0
1001
ACAD
1000
AcRTDxfName
1000
SCALE
1000
AcRTDxfName
1000
SCALE
1000
AcRTDxfName
1000
SCALE
1000
AcRTDxfName
1000
SCALE
  0
ACAD_PROXY_OBJECT
  5
352D
102
{ACAD_REACTORS
330
3529
102
}
330
3529
100
AcDbProxyObject
 90
      499
 91
      508
 95
   983063
 70
     0
 93
      113
310
904313A35004000000000000144040
 94
        0
1001
ACAD
1000
AcRTDxfName
1000
SCALE
1000
AcRTDxfName
1000
SCALE
1000
AcRTDxfName
1000
SCALE
1000
AcRTDxfName
1000
SCALE
  0
ACAD_PROXY_OBJECT
  5
352E
102
{ACAD_REACTORS
330
3529
102
}
330
3529
100
AcDbProxyObject
 90
      499
 91
      508
 95
   983063
 70
     0
 93
      113
310
904313A38004000000000000204040
 94
        0
1001
ACAD
1000
AcRTDxfName
1000
SCALE
1000
AcRTDxfName
1000
SCALE
1000
AcRTDxfName
1000
SCALE
1000
AcRTDxfName
1000
SCALE
  0
ACAD_PROXY_OBJECT
  5
352F
102
{ACAD_REACTORS
330
3529
102
}
330
3529
100
AcDbProxyObject
 90
      499
 91
      508
 95
   983063
 70
     0
 93
      121
310
905313A3130004000000000000244040
 94
        0
1001
ACAD
1000
AcRTDxfName
1000
SCALE
1000
AcRTDxfName
1000
SCALE
1000
AcRTDxfName
1000
SCALE
1000
AcRTDxfName
1000
SCALE
  0
ACAD_PROXY_OBJECT
  5
3530
102
{ACAD_REACTORS
330
3529
102
}
330
3529
100
AcDbProxyObject
 90
      499
 91
      508
 95
   983063
 70
     0
 93
      121
310
905313A3136004000000000000304040
 94
        0
1001
ACAD
1000
AcRTDxfName
1000
SCALE
1000
AcRTDxfName
1000
SCALE
1000
AcRTDxfName
1000
SCALE
1000
AcRTDxfName
1000
SCALE
  0
ACAD_PROXY_OBJECT
  5
3531
102
{ACAD_REACTORS
330
3529
102
}
330
3529
100
AcDbProxyObject
 90
      499
 91
      508
 95
   983063
 70
     0
 93
      121
310
905313A3230004000000000000344040
 94
        0
1001
ACAD
1000
AcRTDxfName
1000
SCALE
1000
AcRTDxfName
1000
SCALE
1000
AcRTDxfName
1000
SCALE
1000
AcRTDxfName
1000
SCALE
  0
ACAD_PROXY_OBJECT
  5
3532
102
{ACAD_REACTORS
330
3529
102
}
330
3529
100
AcDbProxyObject
 90
      499
 91
      508
 95
   983063
 70
     0
 93
      121
310
905313A33300040000000000003E4040
 94
        0
1001
ACAD
1000
AcRTDxfName
1000
SCALE
1000
AcRTDxfName
1000
SCALE
1000
AcRTDxfName
1000
SCALE
1000
AcRTDxfName
1000
SCALE
  0
ACAD_PROXY_OBJECT
  5
3533
102
{ACAD_REACTORS
330
3529
102
}
330
3529
100
AcDbProxyObject
 90
      499
 91
      508
 95
   983063
 70
     0
 93
      121
310
905313A3430004000000000000444040
 94
        0
1001
ACAD
1000
AcRTDxfName
1000
SCALE
1000
AcRTDxfName
1000
SCALE
1000
AcRTDxfName
1000
SCALE
1000
AcRTDxfName
1000
SCALE
  0
ACAD_PROXY_OBJECT
  5
3534
102
{ACAD_REACTORS
330
3529
102
}
330
3529
100
AcDbProxyObject
 90
      499
 91
      508
 95
   983063
 70
     0
 93
      121
310
905313A3530004000000000000494040
 94
        0
1001
ACAD
1000
AcRTDxfName
1000
SCALE
1000
AcRTDxfName
1000
SCALE
1000
AcRTDxfName
1000
SCALE
1000
AcRTDxfName
1000
SCALE
  0
ACAD_PROXY_OBJECT
  5
3535
102
{ACAD_REACTORS
330
3529
102
}
330
3529
100
AcDbProxyObject
 90
      499
 91
      508
 95
   983063
 70
     0
 93
      129
310
906313A313030004000000000000594000
 94
        0
1001
ACAD
1000
AcRTDxfName
1000
SCALE
1000
AcRTDxfName
1000
SCALE
1000
AcRTDxfName
1000
SCALE
1000
AcRTDxfName
1000
SCALE
  0
ACAD_PROXY_OBJECT
  5
3536
102
{ACAD_REACTORS
330
3529
102
}
330
3529
100
AcDbProxyObject
 90
      499
 91
      508
 95
   983063
 70
     0
 93
      113
310
904323A31000000000000000010101
 94
        0
1001
ACAD
1000
AcRTDxfName
1000
SCALE
1000
AcRTDxfName
1000
SCALE
1000
AcRTDxfName
1000
SCALE
1000
AcRTDxfName
1000
SCALE
  0
ACAD_PROXY_OBJECT
  5
3537
102
{ACAD_REACTORS
330
3529
102
}
330
3529
100
AcDbProxyObject
 90
      499
 91
      508
 95
   983063
 70
     0
 93
      113
310
904343A31000000000000000410101
 94
        0
1001
ACAD
1000
AcRTDxfName
1000
SCALE
1000
AcRTDxfName
1000
SCALE
1000
AcRTDxfName
1000
SCALE
1000
AcRTDxfName
1000
SCALE
  0
ACAD_PROXY_OBJECT
  5
3538
102
{ACAD_REACTORS
330
3529
102
}
330
3529
100
AcDbProxyObject
 90
      499
 91
      508
 95
   983063
 70
     0
 93
      113
310
904383A31000000000000000810101
 94
        0
1001
ACAD
1000
AcRTDxfName
1000
SCALE
1000
AcRTDxfName
1000
SCALE
1000
AcRTDxfName
1000
SCALE
1000
AcRTDxfName
1000
SCALE
  0
ACAD_PROXY_OBJECT
  5
3539
102
{ACAD_REACTORS
330
3529
102
}
330
3529
100
AcDbProxyObject
 90
      499
 91
      508
 95
   983063
 70
     0
 93
      121
310
90531303A31000000000000000910101
 94
        0
1001
ACAD
1000
AcRTDxfName
1000
SCALE
1000
AcRTDxfName
1000
SCALE
1000
AcRTDxfName
1000
SCALE
1000
AcRTDxfName
1000
SCALE
  0
ACAD_PROXY_OBJECT
  5
353A
102
{ACAD_REACTORS
330
3529
102
}
330
3529
100
AcDbProxyObject
 90
      499
 91
      508
 95
   983063
 70
     0
 93
      129
310
9063130303A31000000000000001650100
 94
        0
1001
ACAD
1000
AcRTDxfName
1000
SCALE
1000
AcRTDxfName
1000
SCALE
1000
AcRTDxfName
1000
SCALE
1000
AcRTDxfName
1000
SCALE
  0
ACAD_PROXY_OBJECT
  5
353B
102
{ACAD_REACTORS
330
3529
102
}
330
3529
100
AcDbProxyObject
 90
      499
 91
      508
 95
   983063
 70
     0
 93
      265
310
90F312F31323822203D2031272D302200000000000000200FC00000000000028404E
 94
        0
1001
ACAD
1000
AcRTDxfName
1000
SCALE
1000
AcRTDxfName
1000
SCALE
1000
AcRTDxfName
1000
SCALE
1000
AcRTDxfName
1000
SCALE
  0
ACAD_PROXY_OBJECT
  5
353C
102
{ACAD_REACTORS
330
3529
102
}
330
3529
100
AcDbProxyObject
 90
      499
 91
      508
 95
   983063
 70
     0
 93
      257
310
90E312F363422203D2031272D302200000000000000240FC000000000000284066
 94
        0
1001
ACAD
1000
AcRTDxfName
1000
SCALE
1000
AcRTDxfName
1000
SCALE
1000
AcRTDxfName
1000
SCALE
1000
AcRTDxfName
1000
SCALE
  0
ACAD_PROXY_OBJECT
  5
353D
102
{ACAD_REACTORS
330
3529
102
}
330
3529
100
AcDbProxyObject
 90
      499
 91
      508
 95
   983063
 70
     0
 93
      257
310
90E312F333222203D2031272D302200000000000000280FC000000000000284066
 94
        0
1001
ACAD
1000
AcRTDxfName
1000
SCALE
1000
AcRTDxfName
1000
SCALE
1000
AcRTDxfName
1000
SCALE
1000
AcRTDxfName
1000
SCALE
  0
ACAD_PROXY_OBJECT
  5
353E
102
{ACAD_REACTORS
330
3529
102
}
330
3529
100
AcDbProxyObject
 90
      499
 91
      508
 95
   983063
 70
     0
 93
      257
310
90E312F313622203D2031272D3022000000000000002C0FC000000000000284066
 94
        0
1001
ACAD
1000
AcRTDxfName
1000
SCALE
1000
AcRTDxfName
1000
SCALE
1000
AcRTDxfName
1000
SCALE
1000
AcRTDxfName
1000
SCALE
  0
ACAD_PROXY_OBJECT
  5
353F
102
{ACAD_REACTORS
330
3529
102
}
330
3529
100
AcDbProxyObject
 90
      499
 91
      508
 95
   983063
 70
     0
 93
      257
310
90E332F333222203D2031272D3022000000000000002E0FC000000000000284066
 94
        0
1001
ACAD
1000
AcRTDxfName
1000
SCALE
1000
AcRTDxfName
1000
SCALE
1000
AcRTDxfName
1000
SCALE
1000
AcRTDxfName
1000
SCALE
  0
ACAD_PROXY_OBJECT
  5
3540
102
{ACAD_REACTORS
330
3529
102
}
330
3529
100
AcDbProxyObject
 90
      499
 91
      508
 95
   983063
 70
     0
 93
      249
310
90D312F3822203D2031272D302200000000000000300FC000000000000284040
 94
        0
1001
ACAD
1000
AcRTDxfName
1000
SCALE
1000
AcRTDxfName
1000
SCALE
1000
AcRTDxfName
1000
SCALE
1000
AcRTDxfName
1000
SCALE
  0
ACAD_PROXY_OBJECT
  5
3541
102
{ACAD_REACTORS
330
3529
102
}
330
3529
100
AcDbProxyObject
 90
      499
 91
      508
 95
   983063
 70
     0
 93
      257
310
90E332F313622203D2031272D302200000000000000320FC000000000000284066
 94
        0
1001
ACAD
1000
AcRTDxfName
1000
SCALE
1000
AcRTDxfName
1000
SCALE
1000
AcRTDxfName
1000
SCALE
1000
AcRTDxfName
1000
SCALE
  0
ACAD_PROXY_OBJECT
  5
3542
102
{ACAD_REACTORS
330
3529
102
}
330
3529
100
AcDbProxyObject
 90
      499
 91
      508
 95
   983063
 70
     0
 93
      249
310
90D312F3422203D2031272D302200000000000000340FC000000000000284078
 94
        0
1001
ACAD
1000
AcRTDxfName
1000
SCALE
1000
AcRTDxfName
1000
SCALE
1000
AcRTDxfName
1000
SCALE
1000
AcRTDxfName
1000
SCALE
  0
ACAD_PROXY_OBJECT
  5
3543
102
{ACAD_REACTORS
330
3529
102
}
330
3529
100
AcDbProxyObject
 90
      499
 91
      508
 95
   983063
 70
     0
 93
      249
310
90D332F3822203D2031272D302200000000000000360FC000000000000284028
 94
        0
1001
ACAD
1000
AcRTDxfName
1000
SCALE
1000
AcRTDxfName
1000
SCALE
1000
AcRTDxfName
1000
SCALE
1000
AcRTDxfName
1000
SCALE
  0
ACAD_PROXY_OBJECT
  5
3544
102
{ACAD_REACTORS
330
3529
102
}
330
3529
100
AcDbProxyObject
 90
      499
 91
      508
 95
   983063
 70
     0
 93
      249
310
90D312F3222203D2031272D302200000000000000380FC000000000000284040
 94
        0
1001
ACAD
1000
AcRTDxfName
1000
SCALE
1000
AcRTDxfName
1000
SCALE
1000
AcRTDxfName
1000
SCALE
1000
AcRTDxfName
1000
SCALE
  0
ACAD_PROXY_OBJECT
  5
3545
102
{ACAD_REACTORS
330
3529
102
}
330
3529
100
AcDbProxyObject
 90
      499
 91
      508
 95
   983063
 70
     0
 93
      249
310
90D332F3422203D2031272D3022000000000000003A0FC000000000000284028
 94
        0
1001
ACAD
1000
AcRTDxfName
1000
SCALE
1000
AcRTDxfName
1000
SCALE
1000
AcRTDxfName
1000
SCALE
1000
AcRTDxfName
1000
SCALE
  0
ACAD_PROXY_OBJECT
  5
3546
102
{ACAD_REACTORS
330
3529
102
}
330
3529
100
AcDbProxyObject
 90
      499
 91
      508
 95
   983063
 70
     0
 93
      169
310
90B3122203D2031272D3022004000000000000284000
 94
        0
1001
ACAD
1000
AcRTDxfName
1000
SCALE
1000
AcRTDxfName
1000
SCALE
1000
AcRTDxfName
1000
SCALE
1000
AcRTDxfName
1000
SCALE
  0
ACAD_PROXY_OBJECT
  5
3547
102
{ACAD_REACTORS
330
3529
102
}
330
3529
100
AcDbProxyObject
 90
      499
 91
      508
 95
   983063
 70
     0
 93
      265
310
90F312D312F3222203D2031272D3022000000000000003E0FC000000000000284018
 94
        0
1001
ACAD
1000
AcRTDxfName
1000
SCALE
1000
AcRTDxfName
1000
SCALE
1000
AcRTDxfName
1000
SCALE
1000
AcRTDxfName
1000
SCALE
  0
ACAD_PROXY_OBJECT
  5
3548
102
{ACAD_REACTORS
330
3529
102
}
330
3529
100
AcDbProxyObject
 90
      499
 91
      508
 95
   983063
 70
     0
 93
      233
310
90B3322203D2031272D30220000000000000002100000000000000284000
 94
        0
1001
ACAD
1000
AcRTDxfName
1000
SCALE
1000
AcRTDxfName
1000
SCALE
1000
AcRTDxfName
1000
SCALE
1000
AcRTDxfName
1000
SCALE
  0
ACAD_PROXY_OBJECT
  5
3549
102
{ACAD_REACTORS
330
3529
102
}
330
3529
100
AcDbProxyObject
 90
      499
 91
      508
 95
   983063
 70
     0
 93
      233
310
90B3622203D2031272D3022000000000000000610000000000000028405D
 94
        0
1001
ACAD
1000
AcRTDxfName
1000
SCALE
1000
AcRTDxfName
1000
SCALE
1000
AcRTDxfName
1000
SCALE
1000
AcRTDxfName
1000
SCALE
  0
ACAD_PROXY_OBJECT
  5
354A
102
{ACAD_REACTORS
330
3529
102
}
330
3529
100
AcDbProxyObject
 90
      499
 91
      508
 95
   983063
 70
     0
 93
      257
310
90E31272D3022203D2031272D3022000000000000000A100000000000000284000
 94
        0
1001
ACAD
1000
AcRTDxfName
1000
SCALE
1000
AcRTDxfName
1000
SCALE
1000
AcRTDxfName
1000
SCALE
1000
AcRTDxfName
1000
SCALE
  0
TABLESTYLE
  5
3528
102
{ACAD_XDICTIONARY
360
35CC
102
}
102
{ACAD_REACTORS
330
3527
102
}
330
3527
100
AcDbTableStyle
  3
Standard
 70
     0
 71
     0
 40
1.5
 41
1.5
280
     0
281
     0
  7
Standard
140
4.5
170
     2
 62
     0
 63
     7
283
     0
274
    -2
284
     1
 64
     0
275
    -2
285
     1
 65
     0
276
    -2
286
     1
 66
     0
277
    -2
287
     1
 67
     0
278
    -2
288
     1
 68
     0
279
    -2
289
     1
 69
     0
  7
Standard
140
6.0
170
     5
 62
     0
 63
     7
283
     0
274
    -2
284
     1
 64
     0
275
    -2
285
     1
 65
     0
276
    -2
286
     1
 66
     0
277
    -2
287
     1
 67
     0
278
    -2
288
     1
 68
     0
279
    -2
289
     1
 69
     0
  7
Standard
140
4.5
170
     5
 62
     0
 63
     7
283
     0
274
    -2
284
     1
 64
     0
275
    -2
285
     1
 65
     0
276
    -2
286
     1
 66
     0
277
    -2
287
     1
 67
     0
278
    -2
288
     1
 68
     0
279
    -2
289
     1
 69
     0
  0
ACAD_PROXY_OBJECT
  5
351B
102
{ACAD_REACTORS
330
3515
102
}
330
3515
100
AcDbProxyObject
 90
      499
 91
      506
 95
   983063
 70
     0
 93
      444
310
430C9915DA5C99599C985B59401049028333333333333E3BF0000000000000FB0107901411070040501600405405064090741402480A0340
 94
        0
1001
ACAD
1000
AcRTDxfName
1000
VISUALSTYLE
1000
AcDbSavedByObjectVersion
1070
     0
1000
AcRTDxfName
1000
VISUALSTYLE
1000
AcRTDxfName
1000
VISUALSTYLE
1000
AcRTDxfName
1000
VISUALSTYLE
  0
ACAD_PROXY_OBJECT
  5
351D
102
{ACAD_REACTORS
330
3515
102
}
330
3515
100
AcDbProxyObject
 90
      499
 91
      506
 95
   983063
 70
     0
 93
      508
310
428CD108121A5919195B8010640502408333333333333E3BF0000000000000FB01079024090700405020000000000001110200405405064090740C02480A0340
 94
        0
1001
ACAD
1000
AcRTDxfName
1000
VISUALSTYLE
1000
AcDbSavedByObjectVersion
1070
     0
1000
AcRTDxfName
1000
VISUALSTYLE
1000
AcRTDxfName
1000
VISUALSTYLE
1000
AcRTDxfName
1000
VISUALSTYLE
  0
ACAD_PROXY_OBJECT
  5
351C
102
{ACAD_REACTORS
330
3515
102
}
330
3515
100
AcDbProxyObject
 90
      499
 91
      506
 95
   983063
 70
     0
 93
      444
310
430CD915DA5C99599C985B59401059028333333333333E3BF0000000000000FB0107901411070040501600405405064090741402480A0340
 94
        0
1001
ACAD
1000
AcRTDxfName
1000
VISUALSTYLE
1000
AcDbSavedByObjectVersion
1070
     0
1000
AcRTDxfName
1000
VISUALSTYLE
1000
AcRTDxfName
1000
VISUALSTYLE
1000
AcRTDxfName
1000
VISUALSTYLE
  0
ACAD_PROXY_OBJECT
  5
351A
102
{ACAD_REACTORS
330
3515
102
}
330
3515
100
AcDbProxyObject
 90
      499
 91
      506
 95
   983063
 70
     0
 93
      396
310
4190985CDA58C0107406404333333333333E3BF0000000000000FB0107A41107004050150841D405064090741402480A0354
 94
        0
1001
ACAD
1000
AcRTDxfName
1000
VISUALSTYLE
1000
AcDbSavedByObjectVersion
1070
     0
1000
AcRTDxfName
1000
VISUALSTYLE
1000
AcRTDxfName
1000
VISUALSTYLE
1000
AcRTDxfName
1000
VISUALSTYLE
  0
ACAD_PROXY_OBJECT
  5
3521
102
{ACAD_REACTORS
330
3515
102
}
330
3515
100
AcDbProxyObject
 90
      499
 91
      506
 95
   983063
 70
     0
 93
      436
310
42509C9A59DA1D195B8010C409028333333333333E3BF0000000000000FB010790141107004050150841D405064090741402480A02995A
 94
        0
1001
ACAD
1000
AcRTDxfName
1000
VISUALSTYLE
1000
AcDbSavedByObjectVersion
1070
     0
1000
AcRTDxfName
1000
VISUALSTYLE
1000
AcRTDxfName
1000
VISUALSTYLE
1000
AcRTDxfName
1000
VISUALSTYLE
  0
ACAD_PROXY_OBJECT
  5
3525
102
{ACAD_REACTORS
330
3515
102
}
330
3515
100
AcDbProxyObject
 90
      499
 91
      506
 95
   983063
 70
     0
 93
      460
310
4310DBDB1BDC90DA185B99D9401104090240C333333333333E3BF0000000000000FB0108901411070040501508421405064090741402480A035E
 94
        0
1001
ACAD
1000
AcRTDxfName
1000
VISUALSTYLE
1000
AcDbSavedByObjectVersion
1070
     0
1000
AcRTDxfName
1000
VISUALSTYLE
1000
AcRTDxfName
1000
VISUALSTYLE
1000
AcRTDxfName
1000
VISUALSTYLE
  0
ACAD_PROXY_OBJECT
  5
351E
102
{ACAD_REACTORS
330
3515
102
}
330
3515
100
AcDbProxyObject
 90
      499
 91
      506
 95
   983063
 70
     0
 93
      508
310
42D0DBDB98D95C1D1D585B0010940D028333333333333E3BF0000000000000FB0107902409070040501000000000000111010841D405064090740C02480A0340
 94
        0
1001
ACAD
1000
AcRTDxfName
1000
VISUALSTYLE
1000
AcDbSavedByObjectVersion
1070
     0
1000
AcRTDxfName
1000
VISUALSTYLE
1000
AcRTDxfName
1000
VISUALSTYLE
1000
AcRTDxfName
1000
VISUALSTYLE
  0
ACAD_PROXY_OBJECT
  5
3520
102
{ACAD_REACTORS
330
3515
102
}
330
3515
100
AcDbProxyObject
 90
      499
 91
      506
 95
   983063
 70
     0
 93
      420
310
41111A5B4010B409028333333333333E3BF0000000000000FB010790141107004050150841D405064090741402480A02677FFFFFD2
 94
        0
1001
ACAD
1000
AcRTDxfName
1000
VISUALSTYLE
1000
AcDbSavedByObjectVersion
1070
     0
1000
AcRTDxfName
1000
VISUALSTYLE
1000
AcRTDxfName
1000
VISUALSTYLE
1000
AcRTDxfName
1000
VISUALSTYLE
  0
ACAD_PROXY_OBJECT
  5
3524
102
{ACAD_REACTORS
330
3515
102
}
330
3515
100
AcDbProxyObject
 90
      499
 91
      506
 95
   983063
 70
     0
 93
      452
310
43119858D95C185D1D195C9B8010F409028333333333333E3BF0000000000000FB010790141107004050150841D405064090741402480A0350
 94
        0
1001
ACAD
1000
AcRTDxfName
1000
VISUALSTYLE
1000
AcDbSavedByObjectVersion
1070
     0
1000
AcRTDxfName
1000
VISUALSTYLE
1000
AcRTDxfName
1000
VISUALSTYLE
1000
AcRTDxfName
1000
VISUALSTYLE
  0
ACAD_PROXY_OBJECT
  5
3516
102
{ACAD_REACTORS
330
3515
102
}
330
3515
100
AcDbProxyObject
 90
      499
 91
      506
 95
   983063
 70
     0
 93
      396
310
41519B185D00240901404333333333333E3BF0000000000000F9010740A41107004050150841D405064090741402480A1B58
 94
        0
1001
ACAD
1000
AcRTDxfName
1000
VISUALSTYLE
1000
AcDbSavedByObjectVersion
1070
     0
1000
AcRTDxfName
1000
VISUALSTYLE
1000
AcRTDxfName
1000
VISUALSTYLE
1000
AcRTDxfName
1000
VISUALSTYLE
  0
ACAD_PROXY_OBJECT
  5
3517
102
{ACAD_REACTORS
330
3515
102
}
330
3515
100
AcDbProxyObject
 90
      499
 91
      506
 95
   983063
 70
     0
 93
      484
310
43919B185D15DA5D1A115919D95CC010140901404333333333333E3BF0000000000000F9010740901411070040501600405405064090741402480A1B58
 94
        0
1001
ACAD
1000
AcRTDxfName
1000
VISUALSTYLE
1000
AcDbSavedByObjectVersion
1070
     0
1000
AcRTDxfName
1000
VISUALSTYLE
1000
AcRTDxfName
1000
VISUALSTYLE
1000
AcRTDxfName
1000
VISUALSTYLE
  0
ACAD_PROXY_OBJECT
  5
3518
102
{ACAD_REACTORS
330
3515
102
}
330
3515
100
AcDbProxyObject
 90
      499
 91
      506
 95
   983063
 70
     0
 93
      420
310
4211DBDD5C985D590010240902404333333333333E3BF0000000000000F9010740A411070040501641D405064090741402480A1B58
 94
        0
1001
ACAD
1000
AcRTDxfName
1000
VISUALSTYLE
1000
AcDbSavedByObjectVersion
1070
     0
1000
AcRTDxfName
1000
VISUALSTYLE
1000
AcRTDxfName
1000
VISUALSTYLE
1000
AcRTDxfName
1000
VISUALSTYLE
  0
ACAD_PROXY_OBJECT
  5
3519
102
{ACAD_REACTORS
330
3515
102
}
330
3515
100
AcDbProxyObject
 90
      499
 91
      506
 95
   983063
 70
     0
 93
      508
310
4451DBDD5C985D5915DA5D1A115919D95CC010340902404333333333333E3BF0000000000000F9010740901411070040501600405405064090741402480A1B50
 94
        0
1001
ACAD
1000
AcRTDxfName
1000
VISUALSTYLE
1000
AcDbSavedByObjectVersion
1070
     0
1000
AcRTDxfName
1000
VISUALSTYLE
1000
AcRTDxfName
1000
VISUALSTYLE
1000
AcRTDxfName
1000
VISUALSTYLE
  0
ACAD_PROXY_OBJECT
  5
3523
102
{ACAD_REACTORS
330
3515
102
}
330
3515
100
AcDbProxyObject
 90
      499
 91
      506
 95
   983063
 70
     0
 93
      452
310
43131A5B995C185D1D195C9B8010E409028333333333333E3BF0000000000000FB010790141107004050750841D405064090741402483A0354
 94
        0
1001
ACAD
1000
AcRTDxfName
1000
VISUALSTYLE
1000
AcDbSavedByObjectVersion
1070
     0
1000
AcRTDxfName
1000
VISUALSTYLE
1000
AcRTDxfName
1000
VISUALSTYLE
1000
AcRTDxfName
1000
VISUALSTYLE
  0
ACAD_PROXY_OBJECT
  5
351F
102
{ACAD_REACTORS
330
3515
102
}
330
3515
100
AcDbProxyObject
 90
      499
 91
      506
 95
   983063
 70
     0
 93
      428
310
429499585B1A5CDD1A58C0108409028333333333333E3BF0000000000000FB01079019070040501508421405064090741402480A1B49
 94
        0
1001
ACAD
1000
AcRTDxfName
1000
VISUALSTYLE
1000
AcDbSavedByObjectVersion
1070
     0
1000
AcRTDxfName
1000
VISUALSTYLE
1000
AcRTDxfName
1000
VISUALSTYLE
1000
AcRTDxfName
1000
VISUALSTYLE
  0
ACAD_PROXY_OBJECT
  5
3522
102
{ACAD_REACTORS
330
3515
102
}
330
3515
100
AcDbProxyObject
 90
      499
 91
      506
 95
   983063
 70
     0
 93
      420
310
42151A1A58DAD95B8010D409028333333333333E3BF0000000000000FB010790141107004050150C41D405064090741402480A0352
 94
        0
1001
ACAD
1000
AcRTDxfName
1000
VISUALSTYLE
1000
AcDbSavedByObjectVersion
1070
     0
1000
AcRTDxfName
1000
VISUALSTYLE
1000
AcRTDxfName
1000
VISUALSTYLE
1000
AcRTDxfName
1000
VISUALSTYLE
  0
DICTIONARYVAR
  5
3601
102
{ACAD_REACTORS
330
3B
102
}
330
3B
100
DictionaryVariables
280
     0
  1
1:1
  0
DICTIONARYVAR
  5
3600
102
{ACAD_REACTORS
330
3B
102
}
330
3B
100
DictionaryVariables
280
     0
  1
STANDARD
  0
DICTIONARYVAR
  5
35FF
102
{ACAD_REACTORS
330
3B
102
}
330
3B
100
DictionaryVariables
280
     0
  1
STANDARD
  0
DICTIONARYVAR
  5
3D
102
{ACAD_REACTORS
330
3B
102
}
330
3B
100
DictionaryVariables
280
     0
  1
2
  0
DICTIONARYVAR
  5
3C
102
{ACAD_REACTORS
330
3B
102
}
330
3B
100
DictionaryVariables
280
     0
  1
1
  0
DICTIONARYVAR
  5
3603
102
{ACAD_REACTORS
330
3B
102
}
330
3B
100
DictionaryVariables
280
     0
  1
0
  0
DICTIONARYVAR
  5
39EE
102
{ACAD_REACTORS
330
3B
102
}
330
3B
100
DictionaryVariables
280
     0
  1

  0
DICTIONARYVAR
  5
3602
102
{ACAD_REACTORS
330
3B
102
}
330
3B
100
DictionaryVariables
280
     0
  1
127
  0
DICTIONARY
  5
4100
330
22
100
AcDbDictionary
280
     1
281
     1
  3
ACAD_XREC_ROUNDTRIP
360
4101
  0
DICTIONARY
  5
3583
330
318D
100
AcDbDictionary
280
     1
281
     1
  3
ACAD_XREC_ROUNDTRIP
360
4102
  3
ADSK_XREC_LAYOUTTHUMBNAIL
360
3584
  0
DICTIONARY
  5
3506
330
3505
100
AcDbDictionary
280
     1
281
     1
  3
ACAD_XREC_ROUNDTRIP
360
3C81
  3
BUMPTILE
360
3508
  3
DIFFUSETILE
360
3507
  3
OPACITYTILE
360
350B
  3
REFLECTIONTILE
360
350A
  3
REFRACTIONTILE
360
350C
  3
SPECULARTILE
360
3509
  0
DICTIONARY
  5
34FE
330
34FD
100
AcDbDictionary
280
     1
281
     1
  3
ACAD_XREC_ROUNDTRIP
360
3C80
  3
BUMPTILE
360
3500
  3
DIFFUSETILE
360
34FF
  3
OPACITYTILE
360
3503
  3
REFLECTIONTILE
360
3502
  3
REFRACTIONTILE
360
3504
  3
SPECULARTILE
360
3501
  0
DICTIONARY
  5
350E
330
350D
100
AcDbDictionary
280
     1
281
     1
  3
ACAD_XREC_ROUNDTRIP
360
3C82
  3
BUMPTILE
360
3510
  3
DIFFUSETILE
360
350F
  3
OPACITYTILE
360
3513
  3
REFLECTIONTILE
360
3512
  3
REFRACTIONTILE
360
3514
  3
SPECULARTILE
360
3511
  0
DICTIONARY
  5
35CC
330
3528
100
AcDbDictionary
280
     1
281
     1
  3
ACAD_ROUNDTRIP_2008_TABLESTYLE_CELLSTYLEMAP
360
3C68
  3
ACAD_XREC_ROUNDTRIP
360
3C83
  0
XRECORD
  5
4101
102
{ACAD_REACTORS
330
4100
102
}
330
4100
100
AcDbXrecord
280
     1
102
SHADEPLOT
 70
     0
102
SHADEPLOTRESLEVEL
 70
     2
102
SHADEPLOTCUSTOMDPI
 70
   300
  0
XRECORD
  5
4102
102
{ACAD_REACTORS
330
3583
102
}
330
3583
100
AcDbXrecord
280
     1
102
SHADEPLOT
 70
     1
102
SHADEPLOTRESLEVEL
 70
     2
102
SHADEPLOTCUSTOMDPI
 70
   300
  0
XRECORD
  5
3584
102
{ACAD_REACTORS
330
3583
102
}
330
3583
100
AcDbXrecord
280
     1
310
28000000630000008C0000000100080000000000B0360000000000000000000000010000000000000000000000000000FFFFFF000000000000000000000000000000000000000000000000000000000000000000330000006600000099000000CC000000FF00000000330000333300006633000099330000CC330000FF3300
310
0000660000336600006666000099660000CC660000FF66000000990000339900006699000099990000CC990000FF99000000CC000033CC000066CC000099CC0000CCCC0000FFCC000000FF000033FF000066FF000099FF0000CCFF0000FFFF000000003300330033006600330099003300CC003300FF003300003333003333
310
33006633330099333300CC333300FF33330000663300336633006666330099663300CC663300FF66330000993300339933006699330099993300CC993300FF99330000CC330033CC330066CC330099CC3300CCCC3300FFCC330000FF330033FF330066FF330099FF3300CCFF3300FFFF330000006600330066006600660099
310
006600CC006600FF00660000336600333366006633660099336600CC336600FF33660000666600336666006666660099666600CC666600FF66660000996600339966006699660099996600CC996600FF99660000CC660033CC660066CC660099CC6600CCCC6600FFCC660000FF660033FF660066FF660099FF6600CCFF6600
310
FFFF660000009900330099006600990099009900CC009900FF00990000339900333399006633990099339900CC339900FF33990000669900336699006666990099669900CC669900FF66990000999900339999006699990099999900CC999900FF99990000CC990033CC990066CC990099CC9900CCCC9900FFCC990000FF99
310
0033FF990066FF990099FF9900CCFF9900FFFF99000000CC003300CC006600CC009900CC00CC00CC00FF00CC000033CC003333CC006633CC009933CC00CC33CC00FF33CC000066CC003366CC006666CC009966CC00CC66CC00FF66CC000099CC003399CC006699CC009999CC00CC99CC00FF99CC0000CCCC0033CCCC0066CC
310
CC0099CCCC00CCCCCC00FFCCCC0000FFCC0033FFCC0066FFCC0099FFCC00CCFFCC00FFFFCC000000FF003300FF006600FF009900FF00CC00FF00FF00FF000033FF003333FF006633FF009933FF00CC33FF00FF33FF000066FF003366FF006666FF009966FF00CC66FF00FF66FF000099FF003399FF006699FF009999FF00CC
310
99FF00FF99FF0000CCFF0033CCFF0066CCFF0099CCFF00CCCCFF00FFCCFF0000FFFF0033FFFF0066FFFF0099FFFF00CCFFFF00FFFFFF00000000000D0D0D001A1A1A00282828003535350043434300505050005D5D5D006B6B6B00787878008686860093939300A1A1A100AEAEAE00BBBBBB00C9C9C900D6D6D600E4E4E400
310
F1F1F100FFFFFF0000000000000000000000000000000000000000000000000000000000000000000000000000000000F5F5F5F5F5F5F5F5F5F5F5F5F5F5F5F5F5F5F5F5F5F5F5F5F5F5F5F5F5F5F5F5F5F5F5F5F5F5F5F5F5F5F5F5F5F5F5F5F5F5F5F5F5F5F5F5F5F5F5F5F5F5F5F5F5F5F5F5F5F5F5F5F5F5F5F5F5F5F5
310
F5F5F5F5F5F5F5F5F5F5F5F5F5F5F5F5F5F5F5EF00E2E2E2E2E2E2E2E2E2E2E2E2E2E2E2E2E2E2E2E2E2E2E2E2E2E2E2E2E2E2E2E2E2E2E2E2E2E2E2E2E2E2E2E2E2E2E2E2E2E2E2E2E2E2E2E2E2E2E2E2E2E2E2E2E2E2E2E2E2E2E2E2E2E2E2E2E2E2E2E2E2E2E2E2E2E2E2E2E2E2E2E2E2E2E2E2E2F5EF00E2E2E2E2E2E2
310
E2E2E2E2E2E2E2E2E2E2E2E2E2E2E2E2E2E2E2E2E2E2E2E2E2E2E2E2E2E2E2E2E2E2E2E2E2E2E2E2E2E2E2E2E2E2E2E2E2E2E2E2E2E2E2E2E2E2E2E2E2E2E2E2E2E2E2E2E2E2E2E2E2E2E2E2E2E2E2E2E2E2E2E2E2E2E2E2E2E2E2F5EF00E2F5F5F5F5F5F5F5F5E2E2E2E2E2E2E2E2F5F5F5F5F5F5F5F5F5F5F5F5F5F5F5E2
310
E2E2E2E2E2E2E2E2F5F5F5F5F5F5F5F5F5F5F5F5F5F5E2E2E2E2E2E2E2E2E2F5F5F5F5F5F5F5F5F5F5F5F5F5F5F5E2E2E2E2E2E2E2E2F5F5F5F5F5F5F5F5E2E2F5EF00E2F5E2E2E2E2E2E2E2E2E2E2E2E2E2E2E2E2E2E2E2E2E2E2E2E2E2E2F5F5E2E2E2E2E2E2E2E2E2E2E2E2E2E2E2E2E2E2E2E2E2E2E2E2E2E2E2E2E2E2
310
E2E2E2E2E2E2E2E2E2E2E2E2E2E2E2E2E2E2E2E2E2E2E2E2E2E2E2E2E2E2E2E2E2E2F5E2E2F5EF00E2F5E2E2E2E2E2F5F5F5F5F5F5F5F5F5F5F5F5F5F5F5F5F5F5F5F5F5F5F5F5F5F5F5F5F5F5F5F5F5F5F5F5F5F5F5F5F5F5F5F5F5F5F5F5F5F5F5F5F5F5F5F5F5F5F5F5F5F5F5F5F5F5F5F5F5F5F5F5F5F5F5F5F5F5F5F5
310
F5F5F5E2E2E2E2F5E2E2F5EF00E2F5E2E2E2E2E2F5F5F5F5F5F5F5F5F5F5F5F5F5F5F5F5F5F5F5F5F5F5F5F5F5F5F5F5F5F5F5F5F5F5F5F5F5F5F5F5F5F5F5F5F5F5F5F5F5F5F5F5F5F5F5F5F5F5F5F5F5F5F5F5F5F5F5F5F5F5F5F5F5F5F5F5F5F5F5F5F5F5F5F5E2E2E2F5E2E2F5EF00E2F5E2E2E2E2E2E2E2E2E2E2E2E2
310
E2E2E2E2E2E2E2E2E2E2E2E2E2E2E2E2E2E2E2E2E2E2E2E2E2E2E2E2E2E2E2E2E2E2E2E2E2E2E2E2E2E2E2E2E2E2E2E2E2E2E2E2E2E2E2E2E2E2E2E2E2E2E2E2E2E2E2E2E2E2E2E2E2E2E2E2E2E2E2E2F5E2E2F5EF00E2F5E2E2E2E2E2EAEAEAEAEAEAEAEAEAEAEAEAEAEAEAEAEAEAEAEAEAEAEAEAEAEAEAEAEAEAEAEAEAEA
310
EAEAEAEAEAEAEAEAEAEAEAEAEAEAEAEAEAEAEAEAEAEAEAEAEAEAEAEAEAEAEAEAEAEAEAEAEAEAEAEAEAEAEAEAEAEAEAEAEAEAE2E2E2F5E2E2F5EF00E2F5E2E2E2E2E2EAE2E2E2E2E2E2E2E2E2E2E2E2E2E2E2E2E2E2E2E2E2E2E2E2E2E2E2E2E2E2E2E2E2E2E2E2E2E2E2E2E2E2E2E2E2E2E2E2E2E2E2E2E2E2E2E2E2E2E2E2
310
E2E2E2E2E2E2E2E2E2E2E2E2E2E2E2E2E2E2E2E2E2E2EAE2E2E2F5E2E2F5EF00E2F5E2E2E2E2E2EAE2E2E2E2E2E2E2E2E2E2E2E2E2E2E2E2E2E2E2E2E2E2E2E2E2E2E2E2E2E2E2E2E2E2E2E2E2E2E2E2E2E2E2E2E2E2E2E2E2E2E2E2E2E2E2E2E2E2E2E2E2E2E2E2E2E2E2E2E2E2E2E2E2E2E2E2E2E2E2E2E2E2EAE2E2E2F5
310
E2E2F5EF00E2F5E2E2E2E2E2EAE2E2E2E2E2E2E2E2E2E2E2E2E2E2E2E2E2E2E2E2E2E2E2E2E2E2E2E2E2E2E2E2E2E2E2E2E2E2E2E2E2E2E2E2E2E2E2E2E2E2E2E2E2E2E2E2E2E2E2E2E2E2E2E2E2E2E2E2E2E2E2E2E2E2E2E2E2E2E2E2E2E2EAE2E2E2F5E2E2F5EF00E2E2E2E2E2E2E2EAE2E2E2E2E2E2E2E2E2E2E2E2E2E2
310
E2E2E2E2E2E2E2E2E2E2E2E2E2E2E2E2E2E2E2E2E2E2E2E2E2E2E2E2E2E2E2E2E2E2E2E2E2E2E2E2E2E2E2E2E2E2E2E2E2E2E2E2E2E2E2E2E2E2E2E2E2E2E2E2E2E2E2E2EAE2E2E2E2E2E2F5EF00E2E2E2E2E2E2E2EAE2E2E2E2E2E2E2E2E2E2E2E2E2E2E2E2E2E2E2E2E2E2E2E2E2E2E2E2E2E2E2E2E2E2E2E2E2E2E2E2E2
310
E2E2E2E2E2E2E2E2E2E2E2E2E2E2E2E2E2E2E2E2E2E2E2E2E2E2E2E2E2E2E2E2E2E2E2E2E2E2E2E2E2EAE2E2E2E2E2E2F5EF00E2E2E2E2E2E2E2EAE2E2E2E2E2E2E2E2E2E2E2E2E2E2E2E2E2E2E2E2E2E2E2E2E2E2E2E2E2E2E2E2E2E2E2E2E2E2E2E2E2E2E2E2E2E2E2E2E2E2E2E2E2E2E2E2E2E2E2E2E2E2E2E2E2E2E2E2
310
E2E2E2E2E2E2E2E2E2E2E2E2E2E2EAE2E2E2E2E2E2F5EF00E2E2E2E2E2E2E2EAE2E2E2E2E2E2E2E2E2E2E2E2E2E2E2E2E2E2E2E2E2E2E2E2E2E2E2E2E2E2E2E2E2E2E2E2E2E2E2E2E2E2E2E2E2E2E2E2E2E2E2E2E2E2E2E2E2E2E2E2E2E2E2E2E2E2E2E2E2E2E2E2E2E2E2E2E2E2E2E2E2E2EAE2E2E2E2E2E2F5EF00E2E2E2
310
E2E2E2E2EAE2E2E2E2E2E2E2E2E2E2E2E2E2E2E2E2E2E2E2E2E2E2E2E2E2E2E2E2E2E2E2E2E2E2E2E2E2E2E2E2E2E2E2E2E2E2E2E2E2E2E2E2E2E2E2E2E2E2E2E2E2E2E2E2E2E2E2E2E2E2E2E2E2E2E2E2E2E2E2E2E2E2EAE2E2E2E2E2E2F5EF00E2E2E2E2E2E2E2EAE2E2E2E2E2E2E2E2E2E2E2E2E2E2E2E2E2E2E2E2E2E2
310
E2E2E2E2E2E2E2E2E2E2E2E2E2E2E2E2E2E2E2E2E2E2E2E2E2E2E2E2E2E2E2E2E2E2E2E2E2E2E2E2E2E2E2E2E2E2E2E2E2E2E2E2E2E2E2E2E2E2E2E2EAE2E2E2E2E2E2F5EF00E2E2E2E2E2E2E2EAE2E2E2E2E2E2E2E2E2E2E2E2E2E2E2E2E2E2E2E2E2E2E2E2E2E2E2E2E2E2E2E2E2E2E2E2E2E2E2E2E2E2E2E2E2E2E2E2E2
310
E2E2E2E2E2E2E2E2E2E2E2E2E2E2E2E2E2E2E2E2E2E2E2E2E2E2E2E2E2E2E2E2E2EAE2E2E2E2E2E2F5EF00E2E2E2E2E2E2E2EAE2E2E2E2E2E2E2E2E2E2E2E2E2E2E2E2E2E2E2E2E2E2E2E2E2E2E2E2E2E2E2E2E2E2E2E2E2E2E2E2E2E2E2E2E2E2E2E2E2E2E2E2E2E2E2E2E2E2E2E2E2E2E2E2E2E2E2E2E2E2E2E2E2E2E2E2
310
E2E2E2E2E2E2EAE2E2E2E2E2E2F5EF00E2E2E2E2E2E2E2EAE2E2E2E2E2E2E2E2E2E2E2E2E2E2E2E2E2E2E2E2E2E2E2E2E2E2E2E2E2E2E2E2E2E2E2E2E2E2E2E2E2E2E2E2E2E2E2E2E2E2E2E2F5F5F5F5F5E2E2E2E2E2E2E2E2E2F5F5F5F5F5E2E2E2E2E2E2E2E2E2E2E2EAE2E2E2E2E2E2F5EF00E2E2E2E2E2E2E2EAE2E2E2
310
E2E2E2E2E2E2E2E2E2E2E2E2E2E2E2E2E2E2E2E2E2E2E2E2E2E2E2E2E2E2E2E2E2E2E2E2E2E2E2E2E2E2E2E2E2E2E2E2E2F5F5F5F5F5E2E2E2E2E2E2E2E2E2F5F5F5F5F5E2E2E2E2E2E2E2E2E2E2E2EAE2E2E2E2E2E2F5EF00E2F5E2E2E2E2E2EAE2E2E2E2E2E2E2E2E2E2E2E2E2E2E2E2E2E2E2E2E2E2E2E2E2E2E2E2E2E2
310
E2ECE2E2E2E2E2E2E2E2E2E2EFEFEFEFEFEFEFEFEFEFEFEFEFEFEFEFEFEFEFEFEFEFEFEFEFEFEFEFEFEFEFEFE2E2E2E2E2E2E2E2EAE2E2E2F5E2E2F5EF00E2F5E2E2E2E2E2EAE2E2E2E2E2E2E2E2E2E2E2E2E2E2E2E2E2E2E2E2E2E2E2E2E2E2E2E2E2E2E2282828282828282828282828282828282828EFEFEFEFEFEFEFEF
310
EFEFEFEFEFEFEFEFEFEFEFEFEFEFEFEFEFE2E2E2E2E2E2E2E2EAE2E2E2F5E2E2F5EF00E2F5E2E2E2E2E2EAE2E2E2E2E2E2E2E2E2E2E2E2E2E2E2E2E2E2E2E2E2E2E2E2E2E2E2E2E2E2E2ECE2E2E2E2E2E2E2E2E2E2E2E2E2E2E2E2EFEFE2E2E2E2E2E2E2E2EFEFEFEFEFE2E2E2EFEFE2E2E2E2E2E2E2E2E2E2E2E2E2E2EAE2
310
E2E2F5E2E2F5EF00E2F5E2E2E2E2E2EAE2E2E2E2E2E2E2E2E2E2E2E2E2E2E2E2E2E2E2E2E2E2E2E2E2E2E2E2E2E2E2ECE2E2ECECECECE2E2E2E2ECECECECE2E2EFEFE2E2E2E2E2E2E2E2EFEFEFEFEFE2EFEFEFE2E2E2E2E2E2E2E2E2E2E2E2E2E2E2EAE2E2E2F5E2E2F5EF00E2F5E2E2E2E2E2EAE2E2E2E2E2E2E2E2E2E2E2
310
E2E2E2E2E2E2E2E2E2E2E2E2E2E2E2E2E2E2E2E2ECE2E2ECECECECE2E2E2E2ECECECECE2E2EFEFE2E2E2E2E2E2E2E2EFEFEFEFEFE2EFEFEFEFE2E2E2E2E2E2E2E2E2E2E2E2E2E2EAE2E2E2F5E2E2F5EF00E2F5E2E2E2E2E2EAE2E2E2E2E2E2E2E2E2E2E2E2E2E2E2E2E2E2E2E2E2E2E2E2E2E2E2E2E2E2E2ECECECECECECEC
310
E2E2E2E2ECECECECECE2EFEFE2E2E2E2E2E2E2E2E2EFEFEFEFE2EFE2EFEFE2E2E2E2E2E2E2E2E2E2E2E2E2E2EAE2E2E2F5E2E2F5EF00E2F5E2E2E2E2E2EAE2E2E2E2E2E2E2E2E2E2E2E2E2E2E2E2E2E2E2E2E2E2E2E2E2E2E2E2E2E2E2ECE2ECECECECECECE2E2ECECECECECECE2EFEFE2E2E2E2E2E2E2E2E2EFEFEFEFE2EF
310
E2E2E2E2E2E2E2E2E2E2E2E2E2E2E2E2E2EAE2E2E2F5E2E2F5EF00E2F5E2E2E2E2E2EAE2E2E2E2E2E2E2E2E2E2E2E2E2E2E2E2E2E2E2E2E2E2E2E2E2E2E2E2E2E2ECECE2ECECECECECECE2E2ECECECECECE2E2EFEFE2E2E2E2E2E2E2E2E2EFEFEFEFE2EFE2E2E2E2E2E2E2E2E2E2E2E2E2E2E2E2E2EAE2E2E2F5E2E2F5EF00
310
E2F5E2E2E2E2E2EAE2E2E2E2E2E2E2E2E2E2E2E2E2E2E2E2E2E2E2E2E2E2E2E2E2E2E2E2E2E2E2ECE2ECECECECECECE2E2ECECECECECE2E2EFEFE2E2E2E2E2E2E2E2EFEFEFEFEFE2EFE2E2E2E2E2E2E2E2E2E2E2E2E2E2E2E2E2EAE2E2E2F5E2E2F5EF00E2F5E2E2E2E2E2EAE2E2E2E2E2E2E2E2E2E2E2E2E2E2E2E2E2E2E2
310
E2E2E2E2E2E2E2E2E2E2E2E2ECE2E2E2E2E2E2E2E2E2E2E2E2E2E2E2E2EFEFE2E2E2E2E2E2E2E2EFEFEFEFEFE2EFE2E2E2E2E2E2E2E2E2E2E2E2E2E2E2E2E2EAE2E2E2F5E2E2F5EF00E2F5E2E2E2E2E2EAE2E2E2E2E2E2E2E2E2E2E2E2E2E2E2E2E2E2E2E2E2E2E2E2E2E2E2E2E2E2E2ECE2E2E2E2E2E2E2E2E2E2E2E2E2E2
310
E2E2EFEFE2E2E2E2E2E2E2E2EFEFEFEFEFE2EFE2E2E2E2E2E2E2E2E2E2E2E2E2E2E2E2E2EAE2E2E2F5E2E2F5EF00E2F5E2E2E2E2E2EAE2E2E2E2E2E2E2E2E2E2E2E2E2E2E2E2E2E2E2E2E2E2E2E2E2E2E2E2E2E2E2282828282828282828282828282828282828EFEFEFEFEFEFEFEFEFEFEFEFEFEFEFEFE2E2E2E2E2E2E2E2
310
E2E2E2E2E2E2E2E2E2EAE2E2E2F5E2E2F5EF00E2F5E2E2E2E2E2EAE2E2E2E2E2E2E2E2E2E2E2E2E2E2E2E2E2E2E2E2E2E2E2E2E2E2E2E2E2E2E2ECE2E2E2E2E2E2E2E2E2E2EFEFEFEFEFEFEFEFEFEFEFEFEFEFEFEFEFEFEFEFEFEFEFEFEFEFE2E2E2E2E2E2E2E2E2E2E2E2E2E2EAE2E2E2F5E2E2F5EF00E2F5E2E2E2E2E2EA
310
E2E2E2E2E2E2E2E2E2E2E2E2E2E2E2E2E2E2E2E2E2E2E2E2E2E2E2E2E2E2E2E2E2E2E2E2E2E2E2E2E2E2E2E2E2E2E2E2E2E2E2E2E2E2E2E2E2EFEFEFE2EF2828EC2828EFE2E2E2E2E2E2E2E2E2E2E2E2E2E2EAE2E2E2F5E2E2F5EF00E2F5E2E2E2E2E2EAE2E2E2E2E2E2E2E2E2E2E2E2E2E2E2E2E2E2E2E2E2E2E2E2E2E2E2
310
E2E2E2E2E2E2E2E2E2E2E2E2E2E2E2E2E2E2E2E2E2E2E2E2E2E2E2E2E2E2EFEFEFEFEF28ECECECECEFE2E2E2E2E2E2E2E2E2E2E2E2E2E2EAE2E2E2F5E2E2F5EF00E2F5E2E2E2E2E2EAE2E2E2E2E2E2E2E2E2E2E2E2F5ECF5E2ECF5E2E2E2E2E2E2E2E2E2E2E2E2E2E2E2E2E2E2E2E2E2E2E2E2E2E2E2E2E2E2E2E2E2E2E2E2
310
E2E2E2EFEFEFEFEFECECECECECEFE2E2E2E2E2E2E2E2E2E2E2E2E2E2EAE2E2E2F5E2E2F5EF00E2F5E2E2E2E2E2EAE2E2E2E2E2E2E2E2E2E2E2E2F5ECF5E2ECECE2E2E2E2E2E2E2E2E2E2E2E2E2E2E2E2E2E2E2E2E2E2E2E2E2E2E2E2E2E2E2E2E2E2E2E2E2E2E2E2E2E2E2E2ECE2ECECECEFE2E2E2E2E2E2E2E2E2E2E2E2E2
310
E2EAE2E2E2F5E2E2F5EF00E2E2E2E2E2E2E2EAE2E2E2E2E2E2E2E2E2E2EFECECECF5E2ECECECEFEFEFE2E2E2E2E2E2E2E2E2E2E2E2E2E2E2E2E2E2E2E2E2E2E2E2E2E2E2E2E2E2E2E2E2E2E2E2E2E2E2E2ECECECECECEFE2E2E2E2E2E2E2E2E2E2E2E2E2E2EAE2E2E2E2E2E2F5EF00E2E2E2E2E2E2E2EAE2E2E2E2E2F5F5F5
310
F5F5EFECECECF5E2ECECECE2E2EFE2E2E2E2E2E2E2E2E2E2E2E2E2E2E2E2E2E2E2E2E2E2E2E2E2E2E2E2E2E2E2E2E2E2E2E2E2E2E2E2ECE2ECEC28E2E2E2E2E2E2E2E2E2E2E2E2E2E2E2EAE2E2E2E2E2E2F5EF00E2E2E2E2E2E2E2EAE2E2E2E2E2F5F5F5F5F5EFECECECF5F5ECECECE2E2EFE2E2E2E2E2E2E2E2E2E2E2E2E2
310
E2E2E2E2E2F5F5F5F5F5F5F5F5F5F5F5F5F5E2E2E2E2E2E2E2E2E2ECE2ECECECE2E2E2E2E2E2E2E2E2E2E2E2E2E2E2EAE2E2E2E2E2E2F5EF00E2E2E2E2E2E2E2EAE2E2E2E2E2E2E2E2E2E2EFEFF5ECF5F5ECECE2E2E2EFE2E2E2E2E2E2E2E2E2E2E2E2E2E2E2E2E2E2F5F5F5F5F5F5F5F5F5F5F5F5F5E2E2E2E2E2E2E2E2E2
310
ECE2ECECECE2E2E2E2E2E2E2E2E2E2E2E2E2E2E2EAE2E2E2E2E2E2F5EF00E2E2E2E2E2E2E2EAE2E2E2E2E2E2E2E2E2E2EFEFEFEFEFEFEFEFEFEFEFEFE2E2E2E2E2E2E2E2E2E2E2E2E2E2E2E2E2E2F5F5E2E2E2E2E2E2E2E2E2E2F5E2E2E2E2E2E2E2E2E2ECECECE2ECE2E2E2E2E2E2E2E2E2E2E2E2E2E2E2EAE2E2E2E2E2E2
310
F5EF00E2E2E2E2E2E2E2EAE2E2E2E2E2E2E2E2E2E2EFEFEFEFEFEFEFEFEFEFEFEFE2E2E2E2E2E2E2E2E2E2E2E2E2E2E2E2E2E2F5F5F5F5F5F5F5F5F5F5F5F5F5E2E2E2E2E2E2E2E2E2ECECECECECE2E2E2E2E2E2E2E2E2E2E2E2E2E2E2EAE2E2E2E2E2E2F5EF00E2E2E2E2E2E2E2EAE2E2E2E2E2F5F5F5F5F5EFEFEFEFEFEF
310
EFEFE2EFEFEFE2E2E2E2E2E2E2E2E2E2E2E2E2E2E2E2E2E2E2E2E2E2E2E2E2E2E2E2E2E2E2E2E2E2E2E2E2E2E2E228ECE2EC28E2E2E2E2E2E2E2E2E2E2E2E2E2E2E2EAE2E2E2E2E2E2F5EF00E2E2E2E2E2E2E2EAE2E2E2E2E2F5F5F5F5F5EFEFEFEFEFEFEFEFE2E2E2EFE2E2E2E2E2E2E2E2E2E2E2E2E2E2E2E2E2E2E2E2E2
310
E2E2E2E2E2E2E2E2E2E2E2E2E2E2E2E2E2E2E228ECEC2828E2E2E2E2E2E2E2E2E2E2E2E2E2E2E2EAE2E2E2E2E2E2F5EF00E2E2E2E2E2E2E2EAE2E2E2E2E2E2E2E2E2E2282828282828282828282828E2E2E2E2E2E2E2E2E2E2E2E2E2E2E2E2E2E2E2E2E2E2E2E2E2E2E2E2E2E2E2E2E2E2E2E2E2E2E2E2ECE2EC28E2E2E2E2
310
E2E2E2E2E2E2E2E2E2E2E2E2EAE2E2E2E2E2E2F5EF00E2F5E2E2E2E2E2EAE2E2E2E2E2E2E2E2E2E22828E2E2E2E2E2E2E2E2E228E2E2E2E2E2E2E2E2E2E2E2E2E2E2E2E2E2E2E2E2E2E2E2E2E2E2E2E2E2E2E2E2E2E2E2E2E2E2E2E2ECE2EC28E2E2E2E2E2E2E2E2E2E2E2E2E2E2E2E2EAE2E2E2F5E2E2F5EF00E2F5E2E2E2
310
E2E2EAE2E2E2E2E2E2E2E2E2E22828E2ECECECECECECECE228E2E2E2E2E2E2E2E2E2E2E2E2E2E2E2E2E2E2E2E2E2E2E2E2E2E2E2E2E2E2E2E2E2E2E2E2E2E2E2E2ECECE22828E2E2E2E2E2E2E2E2E2E2E2E2E2E2E2EAE2E2E2F5E2E2F5EF00E2F5E2E2E2E2E2EAE2E2E2E2E2E2E2E2E2E22828E2E2ECECECECECECE228E2E2
310
E2E2E2E2E2E2E2E2E2E2E2E2E2E2E2E2E2E2E2E2E2E2E2E2E2E2E2E2E2E2E2E2E2E2E2E2E2E22828282828E2E2E2E2E2E2E2E2E2E2E2E2E2E2E2EAE2E2E2F5E2E2F5EF00E2F5E2E2E2E2E2EAE2E2E2E2E2E2E2E2E2E22828E2E2ECECECECECECE228E2E2E2E2E2E2E2E2E2E2E2E2E2E2E2E2E2E2E2E2E2E2E2E2E2E2E2E2E2
310
E2E2E2E2E2E2E2E2E2E2E2E2E2E2E2E2E2E2E2E2E2E2E2E2E2E2E2E2E2E2E2EAE2E2E2F5E2E2F5EF00E2F5E2E2E2E2E2EAE2E2E2E2E2E2E2E2E2E22828E2E2ECECECECECECE228E2E2E2E2E2E2E2E2E2E2E2E2E2E2E2E2E2E2E2E2E2E2E2E2E2E2E2E2E2E2E2E2E2E2E2E2E2E2E2E2E2E2E2E2E2E2E2E2E2E2E2E2E2E2E2E2
310
E2E2E2E2EAE2E2E2F5E2E2F5EF00E2F5E2E2E2E2E2EAE2E2E2E2E2E2E2E2E2E22828E2E2ECECECE2E2E2E228E2E2E2E2E2E2E2E2E2E2E2E2E2E2E2E2E2E2E2E2E2E2E2E2E2E2E2E2E2E2E2E2E2E2E2E2E2E2E2E2E2E2E2E2E2E2E2E2E2E2E2E2E2E2E2E2E2E2E2E2EAE2E2E2F5E2E2F5EF00E2F5E2E2E2E2E2EAE2E2E2E2E2
310
E2E2E2E2E22828E2E2E2E2E2E2E2E2E228E2E2E2E2E2E2E2E2E2E2E2E2E2E2E2E2E2E2E2E2E2E2E2E2E2E2E2E2E2E2E2E2E2E2E2E2E2E2E2E2E2E2E2E2E2E2E2E2E2E2E2E2E2E2E2E2E2E2E2E2EAE2E2E2F5E2E2F5EF00E2F5E2E2E2E2E2EAE2E2E2E2E2E2E2E2E2E22828E2E2E2E2E2E2E2E2E228E2E2E2E2E2E2E2E2E2E2
310
E2E2E2E2E2E2E2E2E2E2E2E2E2E2E2E2E2E2E2E2E2E2E2E2E2E2E2E2E2E2E2E2E2E2E2E2E2E2E2E2E2E2E2E2E2E2E2E2E2E2EAE2E2E2F5E2E2F5EF00E2F5E2E2E2E2E2EAE2E2E2E2E2E2E2E2E2E22828E2E2E2E2E2E2E2E2E228E2E2E2E2E2E2E2E2E2E2E2E2E2E2E2E2E2E2E2E2E2E2E2E2E2E2E2E2E2E2E2E2E2E2E2E2E2
310
E2E2E2E2E2E2E2E2E2E2E2E2E2E2E2E2E2E2E2E2E2E2E2EAE2E2E2F5E2E2F5EF00E2F5E2E2E2E2E2EAE2E2E2E2E2E2E2E2E2E22828E2E2E2E2E2E2E2E2E228E2E2E2E2E2E2E2E2E2E2E2E2E2E2E2E2E2E2E2E2E2E2E2E2E2E2E2E2E2E2E2E2E2E2E2E2E2E2E2E2E2E2E2E2E2E2E2E2E2E2E2E2E2E2E2E2E2E2E2E2EAE2E2E2
310
F5E2E2F5EF00E2F5E2E2E2E2E2EAE2E2E2E2E2E2E2E2E2E22828E2E2E2E2E2E2E2E2E228E2E2E2E2E2E2E2E2E2E2E2E2E2E2E2E2E2E2E2E2E2E2E2E2E2E2E2E2E2E2E2E2E2E2E2E2E2E2E2E2E2E2E2E2E2E2E2E2E2E2E2E2E2E2E2E2E2E2E2E2EAE2E2E2F5E2E2F5EF00E2F5E2E2E2E2E2EAE2E2E2E2E2E2E2E2E2E22828E2
310
E2E2E2E2E2E2E2E228E2E2E2E2E2E2E2E2E2E2E2E2E2E2E2E2E2E2E2E2E2E2E2E2E2E2E2E2E2E2E2E2E2E2E2E2E2E2E2E2E2E2E2E2E2E2E2E2E2E2E2E2E2E2E2E2E2E2E2E2EAE2E2E2F5E2E2F5EF00E2F5E2E2E2E2E2EAE2E2E2E2E2E2E2E2E2E22828E2E2E2E2E2E2E2E2E228E2E2E2E2E2E2E2E2E2E2E2E2E2E2E2E2E2E2
310
E2E2E2E2E2E2E2E2E2E2E2E2E2E2E2E2E2E2E2E2E2E2E2E2E2E2E2E2E2E2E2E2E2E2E2E2E2E2E2E2E2E2EAE2E2E2F5E2E2F5EF00E2F5E2E2E2E2E2EAE2E2E2E2E2E2E2E2E2E22828E2E2E2E2E2E2E2E2E228E2E2E2E2E2E2E2E2E2E2E2E2E2E2E2E2E2E2E2E2E2E2E2E2E2E2E2E2E2E2E2E2E2E2E2E2E2E2E2E2E2E2E2E2E2
310
E2E2E2E2E2E2E2E2E2E2E2E2E2E2E2EAE2E2E2F5E2E2F5EF00E2F5E2E2E2E2E2EAE2E2E2E2E2E2E2E2E2E22828E2E2E2E2E2E2E2E2E228E2E2E2E2E2E2E2E2E2E2E2E2E2E2E2E2E2E2E2E2E2E2E2E2E2E2E2E2E2E2E2E2E2E2E2E2E2E2E2E2E2E2E2E2E2E2E2E2E2E2E2E2E2E2E2E2E2E2E2E2EAE2E2E2F5E2E2F5EF00E2F5
310
E2E2E2E2E2EAE2E2E2E2E2E2E2E2E2E22828E2E2E2E2E2E2E2E2E228E2E2E2E2E2E2E2E2E2E2E2E2E2E2E2E2E2E2E2E2E2E2E2E2E2E2E2E2E2E2E2E2E2E2E2E2E2E2E2E2E2E2E2E2E2E2E2E2E2E2E2E2E2E2E2E2E2E2E2E2EAE2E2E2F5E2E2F5EF00E2F5E2E2E2E2E2EAE2E2E2E2E2E2E2E2E2E22828E2E2ECECECE2E2E2E2
310
28E2E2E2E2E2E2E2E2E2E2E2E2E2E2E2E2E2E2E2E2E2E2E2E2E2E2E2E2E2E2E2E2E2E2E2E2E2E2E2E2E2E2E2E2E2E2E2E2E2E2E2E2E2E2E2E2E2E2E2E2EAE2E2E2F5E2E2F5EF00E2E2E2E2E2E2E2EAE2E2E2E2E2E2E2E2E2E22828E2E2ECECECECECECE228E2E2E2E2E2E2E2E2E2E2E2E2E2E2E2E2E2E2E2E2E2E2E2E2E2E2
310
E2E2E2E2E2E2E2E2E2E2E2E2E2E2E2E2E2E2E2E2E2E2E2E2E2E2E2E2E2E2E2E2E2E2EAE2E2E2E2E2E2F5EF00E2E2E2E2E2E2E2EAE2E2E2E2E2E2E2E2E2E22828E2E2ECECECECECECE228E2E2E2E2E2E2E2E2E2E2E2E2E2E2E2E2E2E2E2E2E2E2E2E2E2E2E2E2E2E2E2E2E2E2E2E2E2E2E2E2E2E2E2E2E2E2E2E2E2E2E2E2E2
310
E2E2E2E2E2E2E2EAE2E2E2E2E2E2F5EF00E2E2E2E2E2E2E2EAE2E2E2E2E2E2E2E2E2E22828E2E2ECECECECECECE228E2E2E2E2E2E2E2E2E2E2E2E2E2E2E2E2E2E2E2E2E2E2E2E2E2E2E2E2E2E2E2E2E2E2E2E2E2E2E2E2E2E2E2E2E2E2E2E2E2E2E2E2E2E2E2E2E2E2E2E2EAE2E2E2E2E2E2F5EF00E2E2E2E2E2E2E2EAE2E2
310
E2E2E2F5F5F5F5F52828E2ECECECECECE2E2E228E2E2E2E2E2E2E2E2E2E2E2E2E2E2E2E2E2E2E2E2E2E2E2E2E2E2E2E2E2E2E2E2E2E2E2E2E2E2E2E2E2E2E2E2E2E2E2E2E2E2E2E2E2E2E2E2E2E2E2E2EAE2E2E2E2E2E2F5EF00E2E2E2E2E2E2E2EAE2E2E2E2E2F5F5F5F5F52828E2E2E2E2E2E2E2E2E228E2E2E2E2E2E2E2
310
E2E2E2E2E2E2E2E2E2E2E2E2E2E2E2E2E2E2E2E2E2E2E2E2E2E2E2E2E2E2E2E2E2E2E2E2E2E2E2E2E2E2E2E2E2E2E2E2E2E2E2E2E2EAE2E2E2E2E2E2F5EF00E2E2E2E2E2E2E2EAE2E2E2E2E2E2E2E2E2E2282828282828282828282828E2E2E2E2E2E2E2E2E2E2E2E2E2E2E2E2E2E2E2E2E2E2E2E2E2E2E2E2E2E2E2E2E2E2
310
E2E2E2E2E2E2E2E2E2E2E2E2E2E2E2E2E2E2E2E2E2E2E2E2E2E2EAE2E2E2E2E2E2F5EF00E2E2E2E2E2E2E2EAE2E2E2E2E2E2E2E2E2E2EFEFEFEFEFEFEFEFE2E2E2EFE2E2E2E2E2E2E2E2E2E2E2E2E2E2E2E2E2E2E2E2E2E2E2E2E2E2E2E2E2E2E2E2E2E2E2E2E2E2E2E2E2E2E2E2E2E2E2E2E2E2E2E2E2E2E2E2E2E2E2E2EA
310
E2E2E2E2E2E2F5EF00E2E2E2E2E2E2E2EAE2E2E2E2E2E2E2E2E2E2EFEFE2EFEFEFEFEFE2EFEFEFE2E2E2E2E2E2E2E2E2E2E2E2E2E2E2E2E2E2E2E2E2E2E2E2E2E2E2E2E2E2E2E2E2E2E2E2E2E2E2E2E2E2E2E2E2E2E2E2E2E2E2E2E2E2E2E2E2E2E2E2EAE2E2E2E2E2E2F5EF00E2E2E2E2E2E2E2EAE2E2E2E2E2E2F5F5F5F5
310
EFEFE2EFEFEFEFEFEFEFEFEFE2E2E2E2E2E2E2E2E2E2E2E2E2E2E2E2E2E2E2E2E2E2E2E2E2E2E2E2E2E2E2E2E2E2E2E2E2E2DCDCDCDCDCDCDCDCDCDCDCDCDCDCDCE2E2E2E2E2E2E2EAE2E2E2E2E2E2F5EF00E2E2E2E2E2E2E2EAE2E2E2E2E2E2F5F5F5F5EFEFE2EFEFE2E2E2E2E2E2EFE2E2E2E2E2E2E2E2E2E2E2E2E2E2E2
310
E2E2E2E2E2E2E2E2E2E2E2E2E2E2E2E2E2E2E2E2E2E2E2ECECECECECECECECECECECECECECECE2E2E2E2E2E2E2EAE2E2E2E2E2E2F5EF00E2F5E2E2E2E2E2EAE2E2E2E2F5F5F5F5F5F5EFEFEFEFECECECECEFE2E2EFE2E2E2E2E2E2E2E2E2E2E2E2E2E2E2E2E2E2E2E2E2E2E2E2E2E2E2E2E2E2E2E2E2E2E2E2E2E2ECECECEC
310
ECECECECECECECECECDCECE2E2E2E2E2E2E2EAE2E2E2F5E2E2F5EF00E2F5E2E2E2E2E2EAE2E2E2E2F5F5F5F5F5F5EFEFEFEFECECECECECE2E2EFE2E2E2E2E2E2E2E2E2E2E2E2E2E2E2E2E2E2E2E2E2E2E2E2E2E2E2E2E2E2E2E2E2E2E2E2E2E2ECECE2E2E2E2E2E2E2E2E2E2ECDCECE2E2E2E2E2E2E2EAE2E2E2F5E2E2F5EF
310
00E2F5E2E2E2E2E2EAE2E2E2E2E2F5F5F5F5F5EFE2EFEFECECECECECEFEFEFE2E2E2E2E2E2E2E2E2E2E2E2E2E2E2E2E2E2E2E2E2E2E2E2E2E2E2E2E2E2E2E2E2E2E2E2E2E2ECECECECECECECECECECECECECDCECE2E2E2E2E2E2E2EAE2E2E2F5E2E2F5EF00E2F5E2E2E2E2E2EAE2E2E2E2E2E2E2E2E2E2EFEFEFEFECECECEC
310
ECEFEFEFE2E2E2E2E2E2E2E2E2E2E2E2E2E2E2E2E2E2E2E2E2E2E2E2E2E2E2E2E2E2E2E2E2E2E2E2E2E2ECDCE2E2E2E2E2E2E2E2F5E2DCDCECE2E2E2E2E2E2E2EAE2E2E2F5E2E2F5EF00E2F5E2E2E2E2E2EAE2E2E2E2E2E2E2E2E2E2E2E2E2E2E2E2ECF5E2E2E2E2E2E2E2E2F5F5F5F5F5F5F5F5F5F5F5F5F5E2E2E2E2E2E2
310
E2E2E2E2E2E2E2E2E2E2E2E2E2E2E2ECDCE2E2E2E2E2E2E2F5E2E2DCDCECE2E2E2E2E2E2E2EAE2E2E2F5E2E2F5EF00E2F5E2E2E2E2E2EAE2E2E2E2E2E2E2E2E2E2E2E2E2E2E2E2E2E2E2E2E2E2E2E2E2E2F5F5F5F5F5F5F5F5F5F5F5E2F5E2E2E2E2E2E2E2E2E2E2E2E2E2E2E2E2E2E2E2E2E2ECDCE2E2E2E2E2E2F5E2E2E2
310
DCDCECE2E2E2E2E2E2E2EAE2E2E2F5E2E2F5EF00E2F5E2E2E2E2E2EAE2E2E2E2E2E2E2E2E2E2E2E2E2E2E2E2ECF5E2E2E2E2E2E2E2E2F5F5F5F5F5F5F5F5F5F5F5F5F5E2E2E2E2E2E2E2E2E2E2E2E2E2E2E2E2E2E2E2E2E2ECDCE2E2E2E2E2E2F5E2E2E2DCDCECE2E2E2E2E2E2E2EAE2E2E2F5E2E2F5EF00E2F5E2E2E2E2E2
310
EAE2E2E2E2E2E2E2E2E2E2EFEFEFEFECECECECECEFEFEFE2E2E2E2E2E2E2E2E2E2E2E2E2E2E2E2E2E2E2E2E2E2E2E2E2E2E2E2E2E2E2E2E2E2E2E2E2E2ECDCE2E2E2E2E2F5E2E2E2E2DCDCECE2E2E2E2E2E2E2EAE2E2E2F5E2E2F5EF00E2F5E2E2E2E2E2EAE2E2E2E2E2E2E2E2E2E2EFE2EFEFECECECECECEFEFEFE2E2E2E2
310
E2E2E2E2E2E2E2E2E2E2E2E2E2E2E2E2E2E2E2E2E2E2E2E2E2E2E2E2E2E2F5F5E2E2ECDCE2E2E2E2F5E2E2E2E2E2DCDCECE2E2E2E2E2E2E2EAE2E2E2F5E2E2F5EF00E2F5E2E2E2E2E2EAE2E2E2E2E2F5F5F5F5F5EFEFEFEFECECECECECEFEFEFE2E2E2E2E2E2E2E2E2E2E2E2E2E2E2E2E2E2E2E2E2E2E2E2E2E2E2E2E2E2E2
310
E2E2E2F5F5E2E2ECDCE2E2E2F5E2E2E2E2F5F5DCDCECE2F5F5E2E2E2E2EAE2E2E2F5E2E2F5EF00E2F5E2E2E2E2E2EAE2E2E2E2E2E2E2E2E2E2EFEFEFEFECECECECEFE2E2EFE2E2E2E2E2E2E2E2E2E2E2E2E2E2E2E2E2E2E2E2E2E2E2E2E2E2E2E2E2E2E2E2E2E2F5F5ECECECECECECF5F5E2E2E2E2F5F5DCDCECE2F5F5E2E2
310
E2E2EAE2E2E2F5E2E2F5EF00E2F5E2E2E2E2E2EAE2E2E2E2E2E2E2E2E2E2EFEFE2EFEFE2E2E2E2E2E2EFE2E2E2E2E2E2E2E2E2E2E2E2E2E2E2E2E2E2E2E2E2E2E2E2E2E2E2E2E2E2E2E2E2E2E2E2E2E2ECDCE2ECF5E2E2E2E2E2F5F5DCDCECE2F5F5E2E2E2E2EAE2E2E2F5E2E2F5EF00E2F5E2E2E2E2E2EAE2E2E2E2E2E2E2
310
E2E2E2EFEFE2EFEFEFEFEFEFEFEFEFE2E2E2E2E2E2E2E2E2E2E2E2E2E2E2E2E2E2E2E2E2E2E2E2E2E2E2E2E2E2E2E2E2E2E2E2E2E2ECDCF5ECE2E2E2E2E2E2ECE2DCDCECE2ECE2E2E2E2E2EAE2E2E2F5E2E2F5EF00E2F5E2E2E2E2E2EAE2E2E2E2E2E2E2E2E2E2EFEFE2EFEFEFEFEFE2E2E2EFE2E2E2E2E2E2E2E2E2E2E2E2
310
E2E2E2E2E2E2E2E2E2E2E2E2E2E2E2E2E2E2E2E2E2E2E2E2E2E2ECDCF5ECE2E2E2E2E2E2ECECDCDCECE2ECE2E2E2E2E2EAE2E2E2F5E2E2F5EF00E2F5E2E2E2E2E2EAE2E2E2E2E2E2E2E2E2E2EFEFEFEFEFEFEFEFE2E2E2EFE2E2E2E2E2E2E2E2E2E2E2E2E2E2E2E2E2E2E2E2E2E2E2E2E2E2E2E2E2E2E2E2E2E2E2E2E2E2EC
310
F5F5F5F5F5F5F5F5F5F5F5F5DCECE2ECE2E2E2E2E2EAE2E2E2F5E2E2F5EF00E2F5E2E2E2E2E2EAE2E2E2E2E2F5F5F5F5F5EFEFEFEFE2E2E2E2E2E2E2EFE2E2E2E2E2E2E2E2E2E2E2E2E2E2E2E2E2E2E2E2E2E2E2E2E2E2E2E2E2E2E2E2E2E2E2E2E2E2ECF5E2ECE2E2E2E2E2E2ECE2DCDCECE2ECE2E2E2E2E2EAE2E2E2F5E2
310
E2F5EF00E2F5E2E2E2E2E2EAE2E2E2E2E2F5F5F5F5F5EFEFE2E2E2E2E2E2E2E2E2EFE2E2E2E2E2E2E2E2E2E2E2E2E2E2E2E2E2E2E2E2E2E2E2E2E2E2E2E2E2E2E2E2E2E2E2E2E2E2ECF5E2ECE2E2E2E2E2E2ECECECDCECECECE2E2E2E2E2EAE2E2E2F5E2E2F5EF00E2E2E2E2E2E2E2EAE2E2E2E2E2E2E2E2E2E2EFEFE2E2E2
310
E2E2E2E2E2E2EFE2E2E2E2E2E2E2E2E2E2E2E2E2E2E2E2E2E2E2E2E2E2E2E2E2E2E2E2E2E2E2E2E2E2E2E2E2E2ECF5F5F5F5F5F5F5F5F5F5F5F5DCECE2E2E2E2E2E2E2EAE2E2E2E2E2E2F5EF00E2E2E2E2E2E2E2EAE2E2E2E2E2E2E2E2E2E2EFEFE2E2E2E2E2E2E2E2E2EFE2E2E2E2E2E2E2E2E2E2E2E2E2E2E2E2E2E2E2E2
310
E2E2E2E2E2E2E2E2E2E2E2E2E2E2E2E2E2E2ECDCF5F5E2E2E2E2E2E2E2E2DCDCECE2E2E2E2E2E2E2EAE2E2E2E2E2E2F5EF00E2E2E2E2E2E2E2EAE2E2E2E2E2E2E2E2E2E2EFEFE2E2E2E2E2E2E2E2E2EFE2E2E2E2E2E2E2E2E2E2E2E2E2E2E2E2E2E2E2E2E2E2E2E2E2E2E2E2E2E2E2E2E2E2E2E2E2E2ECDCE2ECF5E2E2E2E2
310
E2E2E2DCDCECE2E2E2E2E2E2E2EAE2E2E2E2E2E2F5EF00E2E2E2E2E2E2E2EAE2E2E2E2E2E2E2E2E2E2EFEFE2E2E2E2E2E2E2E2E2EFE2E2E2E2E2E2E2E2E2E2E2E2E2E2E2E2E2E2E2E2E2E2E2E2E2E2E2E2E2E2E2E2E2E2E2E2E2E2ECDCE2E2F5E2E2E2E2E2E2E2DCDCECE2E2E2E2E2E2E2EAE2E2E2E2E2E2F5EF00E2E2E2E2
310
E2E2E2EAE2E2E2E2E2E2E2E2E2E2EFEFE2E2E2EFEFEFE2E2E2EFE2E2E2E2E2E2E2E2E2E2E2E2E2E2E2E2E2E2E2E2E2E2E2E2E2E2E2E2E2E2E2E2E2E2E2E2E2E2ECDCE2E2E2F5E2E2E2E2E2E2DCDCECE2E2E2E2E2E2E2EAE2E2E2E2E2E2F5EF00E2E2E2E2E2E2E2EAE2E2E2E2E2E2E2E2E2E2EFEFEFEFEFEFEFEFEFEFEFEFEC
310
E2E2E2E2E2E2E2E2E2E2E2E2E2E2E2E2E2E2E2E2E2E2E2E2E2E2E2E2E2E2E2E2E2E2E2E2E2ECDCE2E2E2E2F5E2E2E2E2E2DCDCECE2E2E2E2E2E2E2EAE2E2E2E2E2E2F5EF00E2E2E2E2E2E2E2EAE2E2E2E2E2E2E2E2E2E2EFEFEFEFEFEFEFEFEFEFEFEFECECEFE2E2E2E2E2E2E2E2E2E2E2E2E2E2E2E2E2E2E2E2E2E2E2E2E2
310
E2E2E2E2E2E2E2E2E2E2ECDCE2E2E2E2E2F5E2E2E2E2DCDCECE2E2E2E2E2E2E2EAE2E2E2E2E2E2F5EF00E2E2E2E2E2E2E2EAE2E2E2E2E2E2E2E2E2E2EFEFE2E2E2E2E2E2E2E2E2EFECECECE2E2E2E2E2E2E2E2E2E2E2E2E2E2E2E2E2E2E2E2E2E2E2E2E2E2E2E2E2E2E2E2E2E2E2ECDCE2ECE2E2E2E2F5E2E2E2DCDCECE2E2
310
E2E2E2E2E2EAE2E2E2E2E2E2F5EF00E2E2E2E2E2E2E2EAE2E2E2E2E2E2E2E2E2E2EFEFE2E2E2E2E2E2E2E2E2EFE2EFEFE2E2E2E2E2E2E2E2E2E2E2E2E2E2E2E2E2E2E2E2E2E2E2E2E2E2E2E2E2E2E2E2E2E2E2ECDCE2ECE2E2E2E2F5E2E2E2DCDCECE2E2E2E2E2E2E2EAE2E2E2E2E2E2F5EF00E2F5E2E2E2E2E2EAE2E2E2E2
310
E2E2E2E2E2E2EFEFE2E2E2E2E2E2E2E2E2EFE2E2EFE2E2E2E2E2E2E2E2E2E2E2E2E2E2E2E2E2E2E2E2E2E2E2E2E2E2E2E2E2E2E2E2E2E2E2ECDCE2ECE2E2E2E2E2F5E2E2DCDCECE2E2E2E2E2E2E2EAE2E2E2F5E2E2F5EF00E2F5E2E2E2E2E2EAE2E2E2E2E2E2E2E2E2E2EFEFEFEFEFEFEFEFEFEFEFEFEFEFEFE2E2E2E2E2E2
310
E2E2E2E2E2E2E2E2E2E2E2E2E2E2E2E2E2E2E2E2E2E2E2E2E2E2E2E2E2ECDCE2ECE2E2E2E2E2E2F5E2DCDCECE2E2E2E2E2E2E2EAE2E2E2F5E2E2F5EF00E2F5E2E2E2E2E2EAE2E2E2E2E2E2E2E2E2E2EFEFEFEFEFEFEFEFEFEFEFEF28ECECECECECECECECECEC2828ECECEC28E2E2E2E2E2E2E2E2E2E2E2E2E2E2E2E2E2E2E2
310
E2E2ECDCE2ECE2E2E2E2E2E2E2F5DCDCECE2E2E2E2E2E2E2EAE2E2E2F5E2E2F5EF00E2F5E2E2E2E2E2EAE2E2E2E2E2E2E2E2E2E2EFE2E2E2E2E2E2E2E2E2EFEF28E2E2E2ECE2E2E2E2ECECECECECECEC28E2E2E2E2E2E2E2E2E2E2E2E2E2E2E2E2E2E2E2E2E2ECECDCECDCDCDCDCDCDCDCF5ECDCECE2E2E2E2E2E2E2EAE2E2
310
E2F5E2E2F5EF00E2F5E2E2E2E2E2EAE2E2E2E2E2E2E2E2E2E2EFE2EFEFEFEFEFEFEFEFEFEF28ECECECECECECECECECECEC282828E228E2E2E2E2E2E2E2E2E2E2E2E2E2E2E2E2E2E2E2E2E2ECECECECECECECECECECECECECDCECE2E2E2E2E2E2E2EAE2E2E2F5E2E2F5EF00E2F5E2E2E2E2E2EAE2E2E2E2E2E2E2E2E2E2EFE2
310
EFEFEFE2E2E2E2E2E2E228E2ECECECECECECECECECEC28E228E228E2E2E2E2E2E2E2E2E2E2E2E2E2E2E2E2E2E2E2E2E2ECECDCECDCDCDCDCDCDCDCDCECECECE2E2E2E2E2E2E2EAE2E2E2F5E2E2F5EF00E2F5E2E2E2E2E2EAE2E2E2E2E2F5F5F5F5E2EFEFEFEFEFE2E2E2E2E2E2E22828ECEC28EC28ECEC2828EC28E2282828
310
E2E2E2E2E2E2E2E2E2E2E2E2E2E2E2E2E2F5F5F5E2ECECECECECECECECECECECECECECECE2E2E2E2E2E2E2EAE2E2E2F5E2E2F5EF00E2F5E2E2E2E2E2EAE2E2E2E2E2E2E2E2E2E2EFEFEFE2EFE2E2E2E2E2E2E2EFE2E2E2EFE2E2E2E2E2E2E2E2E2E2E2E2E2E2E2E2E2E2E2E2E2E2E2E2E2E2E2E2E2F5F5ECECECECECECE2E2
310
E2E2E2E2E2E2E2E2E2E2E2E2E2E2E2E2EAE2E2E2F5E2E2F5EF00E2F5E2E2E2E2E2EAE2E2E2E2E2E2E2E2E2E2EFE2E2E2E2E2E2E2E2E2E2E2E2E2E2E2E2E2E2E2E2E2E2E2E2E2E2E2E2E2E2E2E2E2E2E2E2E2E2E2E2E2E2E2E2E2E2E2E2E2E2E2E2E2E2E2E2E2E2E2E2E2E2E2E2E2E2E2E2E2E2E2EAE2E2E2F5E2E2F5EF00E2
310
F5E2E2E2E2E2EAE2E2E2E2E2E2E2E2E2E2EFEFE2E2E2E2E2E2E2E2E2E2E2E2E2E2E2E2E2E2E2E2E2E2E2E2E2E2E2E2E2E2E2E2E2E2E2E2E2E2E2E2E2E2E2E2E2E2E2E2E2E2E2E2E2E2E2E2E2E2E2E2E2E2E2E2E2E2E2E2E2E2EAE2E2E2F5E2E2F5EF00E2F5E2E2E2E2E2EAE2E2E2E2E2E2E2E2E2E2EFEFE2E2E2E2E2E2E2E2
310
E2E2E2E2E2E2E2E2E2E2E2E2E2E2E2E2E2E2E2E2E2E2E2E2E2E2E2E2E2E2E2E2E2E2E2E2E2E2E2E2E2E2E2E2E2E2E2E2E2E2E2E2E2E2E2E2E2E2E2E2E2E2EAE2E2E2F5E2E2F5EF00E2F5E2E2E2E2E2EAE2E2E2E2E2E2E2E2E2E2EFE2E2E2E2E2E2E2E2E2E2E2E2E2E2E2E2E2E2E2E2E2E2E2E2E2E2E2E2E2E2E2E2E2E2E2E2
310
E2E2E2E2E2E2E2E2E2E2E2E2E2E2E2E2E2E2E2E2E2E2E2E2E2E2E2E2E2E2E2E2E2E2E2EAE2E2E2F5E2E2F5EF00E2F5E2E2E2E2E2EAE2E2E2E2E2E2E2E2E2E2EFEFE2E2E2E2E2E2E2E2E2E2E2E2E2E2E2E2E2E2E2E2E2E2E2E2E2E2E2E2E2E2E2E2E2E2E2E2E2E2E2E2E2E2E2E2E2E2E2E2E2E2E2E2E2E2E2E2E2E2E2E2E2E2
310
E2E2E2E2E2E2E2E2EAE2E2E2F5E2E2F5EF00E2F5E2E2E2E2E2EAE2E2E2E2E2E2E2E2E2E2E2E2E2E2E2E2E2E2E2E2E2E2E2E2E2E2E2E2E2E2E2E2E2E2E2E2E2E2E2E2E2E2E2E2E2E2E2E2E2E2E2E2E2E2E2E2E2E2E2E2E2E2E2E2E2E2E2E2E2E2E2E2E2E2E2E2E2E2E2E2E2E2EAE2E2E2F5E2E2F5EF00E2F5E2E2E2E2E2EAE2
310
E2E2E2E2E2E2E2E2E2E2E2E2E2E2E2E2E2E2E2E2E2E2E2E2E2E2E2E2E2E2E2E2E2E2E2E2E2E2E2E2E2E2E2E2E2E2E2E2E2E2E2E2E2E2E2E2E2E2E2E2E2E2E2E2E2E2E2E2E2E2E2E2E2E2E2E2E2E2E2E2E2EAE2E2E2F5E2E2F5EF00E2F5E2E2E2E2E2EAE2E2E2E2E2E2E2E2E2E2E2E2E2E2E2E2E2E2E2E2E2E2E2E2E2E2E2E2
310
E2E2E2E2E2E2E2E2E2E2E2E2E2E2E2E2E2E2E2E2E2E2E2E2E2E2E2E2E2E2E2E2E2E2E2E2E2E2E2E2E2E2E2E2E2E2E2E2E2E2E2E2E2E2EAE2E2E2F5E2E2F5EF00E2F5E2E2E2E2E2EAE2E2E2E2E2E2E2E2E2E2E2E2E2E2E2E2E2E2E2E2E2E2E2E2E2E2E2E2E2E2E2E2E2E2E2E2E2E2E2E2E2E2E2E2E2E2E2E2E2E2E2E2E2E2E2
310
E2E2E2E2E2E2E2E2E2E2E2E2E2E2E2E2E2E2E2E2E2E2E2E2E2E2E2EAE2E2E2F5E2E2F5EF00E2E2E2E2E2E2E2EAE2E2E2E2E2E2E2E2E2E2E2E2E2E2E2E2E2E2E2E2E2E2E2E2E2E2E2E2E2E2E2E2E2E2E2E2E2E2E2E2E2E2E2E2E2E2E2E2E2E2E2E2E2E2E2E2E2E2E2E2E2E2E2E2E2E2E2E2E2E2E2E2E2E2E2E2E2E2E2E2E2E2
310
EAE2E2E2E2E2E2F5EF00E2E2E2E2E2E2E2EAE2E2E2E2E2E2E2E2E2E2E2E2E2E2E2E2E2E2E2E2E2E2E2E2E2E2E2E2E2E2E2E2E2E2E2E2E2E2E2E2E2E2E2E2E2E2E2E2E2E2E2E2E2E2E2E2E2E2E2E2E2E2E2E2E2E2E2E2E2E2E2E2E2E2E2E2E2E2E2E2E2E2EAE2E2E2E2E2E2F5EF00E2E2E2E2E2E2E2EAEAEAEAEAEAEAEAEAEA
310
EAEAEAEAEAEAEAEAEAEAEAEAEAEAEAEAEAEAEAEAEAEAEAEAEAEAEAEAEAEAEAEAEAEAEAEAEAEAEAEAEAEAEAEAEAEAEAEAEAEAEAEAEAEAEAEAEAEAEAEAEAEAEAEAEAEAEAEAEAEAEAEAEAEAE2E2E2E2E2E2F5EF00E2E2E2E2E2E2E2E2E2E2E2E2E2F5F5F5F5F5F5F5F5F5F5F5F5F5F5F5F5F5F5F5F5F5F5F5F5F5F5F5F5F5F5F5
310
F5F5F5F5F5F5F5F5F5F5F5F5F5F5F5F5F5F5F5F5F5F5F5F5F5F5F5F5F5F5F5F5F5F5F5F5F5F5F5F5F5F5F5F5F5F5F5E2E2E2E2E2E2F5EF00E2E2E2E2E2E2E2E2E2E2E2E2E2F5E2E2E2E2E2E2E2E2E2E2E2E2E2E2E2E2E2E2E2E2E2E2E2E2E2E2E2E2E2E2E2E2E2E2E2E2E2E2E2E2E2E2E2E2E2E2E2E2E2E2E2E2E2E2F5E2F5
310
F5F5F5F5F5F5E2E2F5E2E2E2F5F5E2E2E2E2E2F5E2E2E2E2E2E2F5EF00E2E2E2E2E2E2E2E2E2E2E2E2ECECECE2E2E2E2E2E2F5F5F5F5F5F5F5F5F5F5F5F5F5F5F5F5E2E2E2E2E2E2E2E2E2E2E2E2E2E2E2E2E2E2E2E2E2E2E2E2E2E2E2E2E2E2E2F5E2F5F5F5F5F5F5F5E2E2F5E2E2E2F5F5E2E2E2E2E2F5E2E2E2E2E2E2F5
310
EF00E2E2E2E2E2E2E2E2E2E2E2E2ECECECECE2E2E2E2E2F5F5F5F5F5F5F5F5F5F5F5F5F5F5F5F5E2E2E2E2E2E2E2E2E2E2E2E2E2E2E2E2E2E2E2E2E2E2E2E2E2E2E2E2E2E2E2F5E2E2E2E2E2E2E2E2E2E2F5E2E2E2E2E2E2E2E2E2E2F5E2E2E2E2E2E2F5EF00E2E2E2E2E2E2E2E2E2E2E2ECECECECECE2E2E2E2E2F5F5F5F5
310
F5F5F5F5F5F5F5F5F5F5F5F5F5F5F5F5F5F5F5F5F5F5F5F5F5F5F5F5F5F5E2E2E2E2E2E2E2E2E2E2E2E2E2F5E2E2F5F5F5F5F5E2E2E2F5E2E2F5F5F5F5F5E2E2E2F5E2E2E2E2E2E2F5EF00E2E2E2E2E2E2E2E2E2E2E2ECECECECECECE2E2E2E2F5F5F5F5F5F5F5F5F5F5F5F5F5F5F5F5F5F5F5F5F5F5F5F5F5F5F5F5F5F5F5
310
F5F5F5E2E2E2E2E2E2E2E2E2E2E2E2E2F5E2E2E2E2E2E2E2E2E2E2F5E2E2E2E2E2E2E2E2E2E2F5E2E2E2E2E2E2F5EF00E2E2E2E2E2E2E2E2E2E2ECECECECECECECE2E2E2E2F5F5F5F5F5F5F5F5F5F5F5F5F5F5F5F5F5F5F5F5F5F5F5F5F5F5F5F5F5F5F5F5F5F5E2E2E2E2E2E2E2E2E2E2E2E2E2F5E2E2E2E2E2E2E2E2E2E2
310
F5E2E2E2E2E2E2E2E2E2E2F5E2E2E2E2E2E2F5EF00E2F5E2E2E2E2E2E2E2E2ECECECECECECECECE2E2E2F5F5F5F5F5F5F5F5F5F5F5F5F5F5F5F5F5F5F5F5F5F5F5F5F5E2E2E2E2E2E2E2E2E2E2E2E2E2E2E2E2E2E2E2E2E2E2F5F5F5F5F5F5F5F5F5F5F5F5F5F5F5F5F5F5F5F5F5F5F5E2E2E2F5E2E2F5EF00E2F5E2E2E2E2
310
E2E2E2ECECECECECECECECECE2E2E2F5F5F5F5F5F5F5F5F5F5F5F5F5F5F5F5F5F5F5F5F5F5F5F5F5E2E2E2E2E2E2E2E2E2E2E2E2E2E2E2E2E2E2E2E2E2E2F5E2E2E2E2E2E2E2E2E2E2E2E2E2E2E2E2E2E2E2E2E2F5E2E2E2F5E2E2F5EF00E2F5E2E2E2E2E2E2ECECECECECECECECECECECE2E2F5F5F5F5F5F5F5F5F5F5F5F5
310
F5F5F5F5F5F5F5F5F5F5F5F5F5E2E2E2E2E2E2E2E2E2E2E2E2E2E2E2E2E2E2E2E2E2E2F5E2F5F5F5F5F5F5F5F5E2F5F5F5F5F5F5F5F5E2E2E2F5E2E2E2F5E2E2F5EF00E2F5E2E2E2E2E2E2ECECECECECECECECECECECE2E2F5F5F5F5F5F5F5F5F5F5F5F5F5F5E2E2E2E2E2E2E2E2E2E2E2E2E2E2E2E2E2E2E2E2E2E2E2E2E2
310
E2E2E2E2E2E2E2E2F5E2F5F5F5F5F5F5F5F5E2F5F5F5F5F5F5F5F5E2E2E2F5E2E2E2F5E2E2F5EF00E2F5E2E2E2E2E2ECECECECECECECECECECECECECE2F5F5F5F5F5F5F5F5F5F5F5F5F5F5E2E2E2E2E2E2E2E2E2E2E2E2E2E2E2E2E2E2E2E2E2E2E2E2E2E2E2E2E2E2E2E2E2F5E2E2E2E2E2E2E2E2E2E2E2E2E2E2E2E2E2E2
310
E2E2E2F5E2E2E2F5E2E2F5EF80E2F5E2E2E2E2E2ECECECECECECF5ECECECECECECE2E2E2E2E2E2E2E2E2E2E2E2E2E2E2E2E2E2E2E2E2E2E2E2E2E2E2E2E2E2E2E2E2E2E2E2E2E2E2E2E2E2E2E2E2E2E2E2F5E2E2E2E2E2E2E2E2E2E2E2E2E2E2E2E2E2E2E2E2E2F5E2E2E2F5E2E2F5EF80E2F5E2E2E2E2E2E2E2E2E2E2E2F5
310
F5F5F5F5F5F5F5F5F5F5F5F5F5F5F5F5F5F5F5F5F5F5F5F5F5F5F5F5F5F5F5F5F5F5F5F5F5F5F5F5F5F5F5F5F5F5F5F5F5F5F5F5F5F5F5F5F5F5F5F5F5F5F5F5F5F5F5F5F5F5F5F5F5F5F5F5F5E2E2E2F5E2E2F5EFBFE2F5E2E2E2E2E2E2E2E2E2E2E2E2E2E2E2E2E2E2E2E2E2E2E2E2E2E2E2E2E2E2E2E2E2E2E2E2E2E2E2
310
E2E2E2E2E2E2E2E2E2E2E2E2E2E2E2E2E2E2E2E2E2E2E2E2E2E2E2E2E2E2E2E2E2E2E2E2E2E2E2E2E2E2E2E2E2E2E2E2E2E2E2E2E2F5E2E2F5EF00E2F5F5F5F5F5F5F5F5E2E2E2E2E2E2E2E2F5F5F5F5F5F5F5F5F5F5F5F5F5F5F5E2E2E2E2E2E2E2E2E2F5F5F5F5F5F5F5F5F5F5F5F5F5F5E2E2E2E2E2E2E2E2E2F5F5F5F5
310
F5F5F5F5F5F5F5F5F5F5F5E2E2E2E2E2E2E2E2F5F5F5F5F5F5F5F5E2E2F5EF00E2E2E2E2E2E2E2E2E2E2E2E2E2E2E2E2E2E2E2E2E2E2E2E2E2E2E2E2E2E2E2E2E2E2E2E2E2E2E2E2E2E2E2E2E2E2E2E2E2E2E2E2E2E2E2E2E2E2E2E2E2E2E2E2E2E2E2E2E2E2E2E2E2E2E2E2E2E2E2E2E2E2E2E2E2E2E2E2E2E2E2E2E2E2E2
310
E2E2F5EF3FE2E2E2E2E2E2E2E2E2E2E2E2E2E2E2E2E2E2E2E2E2E2E2E2E2E2E2E2E2E2E2E2E2E2E2E2E2E2E2E2E2E2E2E2E2E2E2E2E2E2E2E2E2E2E2E2E2E2E2E2E2E2E2E2E2E2E2E2E2E2E2E2E2E2E2E2E2E2E2E2E2E2E2E2E2E2E2E2E2E2E2E2E2E2E2E2E2F5EF80F5F5F5F5F5F5F5F5F5F5F5F5F5F5F5F5F5F5F5F5F5F5
310
F5F5F5F5F5F5F5F5F5F5F5F5F5F5F5F5F5F5F5F5F5F5F5F5F5F5F5F5F5F5F5F5F5F5F5F5F5F5F5F5F5F5F5F5F5F5F5F5F5F5F5F5F5F5F5F5F5F5F5F5F5F5F5F5F5F5F5F5F5F5F5F5F5F5F5F5EF80
  0
XRECORD
  5
3C81
102
{ACAD_REACTORS
330
3506
102
}
330
3506
100
AcDbXrecord
280
     1
102
MATERIAL
148
0.0
149
0.0
149
0.0
 93
        0
 94
      127
282
     0
 72
     0
 77
     0
171
     0
175
     0
179
     0
273
     0
  0
XRECORD
  5
3508
102
{ACAD_REACTORS
330
3506
102
}
330
3506
100
AcDbXrecord
280
     1
270
     1
271
     1
  0
XRECORD
  5
3507
102
{ACAD_REACTORS
330
3506
102
}
330
3506
100
AcDbXrecord
280
     1
270
     1
271
     1
  0
XRECORD
  5
350B
102
{ACAD_REACTORS
330
3506
102
}
330
3506
100
AcDbXrecord
280
     1
270
     1
271
     1
  0
XRECORD
  5
350A
102
{ACAD_REACTORS
330
3506
102
}
330
3506
100
AcDbXrecord
280
     1
270
     1
271
     1
  0
XRECORD
  5
350C
102
{ACAD_REACTORS
330
3506
102
}
330
3506
100
AcDbXrecord
280
     1
270
     1
271
     1
  0
XRECORD
  5
3509
102
{ACAD_REACTORS
330
3506
102
}
330
3506
100
AcDbXrecord
280
     1
270
     1
271
     1
  0
XRECORD
  5
3C80
102
{ACAD_REACTORS
330
34FE
102
}
330
34FE
100
AcDbXrecord
280
     1
102
MATERIAL
148
0.0
149
0.0
149
0.0
 93
        0
 94
      127
282
     0
 72
     0
 77
     0
171
     0
175
     0
179
     0
273
     0
  0
XRECORD
  5
3500
102
{ACAD_REACTORS
330
34FE
102
}
330
34FE
100
AcDbXrecord
280
     1
270
     1
271
     1
  0
XRECORD
  5
34FF
102
{ACAD_REACTORS
330
34FE
102
}
330
34FE
100
AcDbXrecord
280
     1
270
     1
271
     1
  0
XRECORD
  5
3503
102
{ACAD_REACTORS
330
34FE
102
}
330
34FE
100
AcDbXrecord
280
     1
270
     1
271
     1
  0
XRECORD
  5
3502
102
{ACAD_REACTORS
330
34FE
102
}
330
34FE
100
AcDbXrecord
280
     1
270
     1
271
     1
  0
XRECORD
  5
3504
102
{ACAD_REACTORS
330
34FE
102
}
330
34FE
100
AcDbXrecord
280
     1
270
     1
271
     1
  0
XRECORD
  5
3501
102
{ACAD_REACTORS
330
34FE
102
}
330
34FE
100
AcDbXrecord
280
     1
270
     1
271
     1
  0
XRECORD
  5
3C82
102
{ACAD_REACTORS
330
350E
102
}
330
350E
100
AcDbXrecord
280
     1
102
MATERIAL
148
0.0
149
0.0
149
0.0
 93
        0
 94
      127
282
     0
 72
     0
 77
     0
171
     0
175
     0
179
     0
273
     0
  0
XRECORD
  5
3510
102
{ACAD_REACTORS
330
350E
102
}
330
350E
100
AcDbXrecord
280
     1
270
     1
271
     1
  0
XRECORD
  5
350F
102
{ACAD_REACTORS
330
350E
102
}
330
350E
100
AcDbXrecord
280
     1
270
     1
271
     1
  0
XRECORD
  5
3513
102
{ACAD_REACTORS
330
350E
102
}
330
350E
100
AcDbXrecord
280
     1
270
     1
271
     1
  0
XRECORD
  5
3512
102
{ACAD_REACTORS
330
350E
102
}
330
350E
100
AcDbXrecord
280
     1
270
     1
271
     1
  0
XRECORD
  5
3514
102
{ACAD_REACTORS
330
350E
102
}
330
350E
100
AcDbXrecord
280
     1
270
     1
271
     1
  0
XRECORD
  5
3511
102
{ACAD_REACTORS
330
350E
102
}
330
350E
100
AcDbXrecord
280
     1
270
     1
271
     1
  0
ACAD_PROXY_OBJECT
  5
3C68
102
{ACAD_REACTORS
330
35CC
102
}
330
35CC
100
AcDbProxyObject
 90
      499
 91
      513
 95
   983063
 70
     0
 93
     5304
310
40D054060020000020000003200101A000080002A5058000000C10000000000000006101010000000000003E0FC000000000000F83F0000000000003E0FC000000000000F83F02B5E8DC0F42B1CFC0AD7A3703D0AC73F419019018000000C1003FBFFFFFE0000000000003C8FD029018000000C1003FBFFFFFE00000000000
310
03C8FD049018000000C1003FBFFFFFE0000000000003C8FD089018000000C1003FBFFFFFE0000000000003C8FD109018000000C1003FBFFFFFE0000000000003C8FD209018000000C1003FBFFFFFE0000000000003C8FD01405075F5449544C450041501A8000000C800406800020000A94160000003040000000000000012
310
40404000000000000F83F0000000000003E0FC000000000000F83F0000000000003E0FC0AD7A3703D0AC73F02B5E8DC0F42B1CFD0640640600000030400FEFFFFFF8000000000000F23F40A40600000030400FEFFFFFF8000000000000F23F41240600000030400FEFFFFFF8000000000000F23F42240600000030400FEFFF
310
FFF8000000000000F23F44240600000030400FEFFFFFF8000000000000F23F48240600000030400FEFFFFFF8000000000000F23F409014217D2115051115480105406A0000003200101A000080002A5028000000C10000000000000004901010000000000003E0FC000000000000F83F0000000000003E0FC000000000000F
310
83F02B5E8DC0F42B1CFC0AD7A3703D0AC73F419019018000000C1003FBFFFFFE0000000000003C8FD029018000000C1003FBFFFFFE0000000000003C8FD049018000000C1003FBFFFFFE0000000000003C8FD089018000000C1003FBFFFFFE0000000000003C8FD109018000000C1003FBFFFFFE0000000000003C8FD20901
310
8000000C1003FBFFFFFE0000000000003C8FD03409065F444154410000
340
11
340
0
340
0
340
0
340
0
340
0
340
0
340
11
340
0
340
0
340
0
340
0
340
0
340
0
340
11
340
0
340
0
340
0
340
0
340
0
340
0
 94
        0
1001
ACAD
1000
AcRTDxfName
1000
CELLSTYLEMAP
1000
AcRTDxfName
1000
CELLSTYLEMAP
1000
AcRTDxfName
1000
CELLSTYLEMAP
  0
XRECORD
  5
3C83
102
{ACAD_REACTORS
330
35CC
102
}
330
35CC
100
AcDbXrecord
280
     1
102
ACAD_ROUNDTRIP_PRE2007_TABLESTYLE
 90
      512
 91
        0
  1

 92
      512
 93
        0
  2

 94
      512
 95
        0
  3

  0
ENDSEC
  0
EOF
