  0
SECTION
  2
HEADER
  9
$ACADVER
  1
AC1015
  9
$ACADMAINTVER
 70
    20
  9
$DWGCODEPAGE
  3
ANSI_1252
  9
$INSBASE
 10
0.0
 20
0.0
 30
0.0
  9
$EXTMIN
 10
0.0
 20
0.0
 30
0.0
  9
$EXTMAX
 10
356.0
 20
483.9999999999998
 30
0.0
  9
$LIMMIN
 10
11.59500000000003
 20
10.19
  9
$LIMMAX
 10
189.595
 20
252.19
  9
$ORTHOMODE
 70
     0
  9
$REGENMODE
 70
     1
  9
$FILLMODE
 70
     1
  9
$QTEXTMODE
 70
     0
  9
$MIRRTEXT
 70
     0
  9
$LTSCALE
 40
0.25
  9
$ATTMODE
 70
     1
  9
$TEXTSIZE
 40
5.0
  9
$TRACEWID
 40
1.0
  9
$TEXTSTYLE
  7
FranklinGothic-Book
  9
$CLAYER
  8
APL Joinery
  9
$CELTYPE
  6
ByLayer
  9
$CECOLOR
 62
   256
  9
$CELTSCALE
 40
1.0
  9
$DISPSILH
 70
     0
  9
$DIMSCALE
 40
1.0
  9
$DIMASZ
 40
5.0
  9
$DIMEXO
 40
0.625
  9
$DIMDLI
 40
3.75
  9
$DIMRND
 40
0.0
  9
$DIMDLE
 40
0.0
  9
$DIMEXE
 40
1.25
  9
$DIMTP
 40
0.0
  9
$DIMTM
 40
0.0
  9
$DIMTXT
 40
2.5
  9
$DIMCEN
 40
2.5
  9
$DIMTSZ
 40
0.0
  9
$DIMTOL
 70
     0
  9
$DIMLIM
 70
     0
  9
$DIMTIH
 70
     0
  9
$DIMTOH
 70
     0
  9
$DIMSE1
 70
     0
  9
$DIMSE2
 70
     0
  9
$DIMTAD
 70
     1
  9
$DIMZIN
 70
     8
  9
$DIMBLK
  1

  9
$DIMASO
 70
     1
  9
$DIMSHO
 70
     1
  9
$DIMPOST
  1

  9
$DIMAPOST
  1

  9
$DIMALT
 70
     0
  9
$DIMALTD
 70
     3
  9
$DIMALTF
 40
0.03937007874016
  9
$DIMLFAC
 40
1.0
  9
$DIMTOFL
 70
     1
  9
$DIMTVP
 40
0.0
  9
$DIMTIX
 70
     0
  9
$DIMSOXD
 70
     0
  9
$DIMSAH
 70
     0
  9
$DIMBLK1
  1

  9
$DIMBLK2
  1

  9
$DIMSTYLE
  2
ISO-25
  9
$DIMCLRD
 70
     0
  9
$DIMCLRE
 70
     0
  9
$DIMCLRT
 70
     0
  9
$DIMTFAC
 40
1.0
  9
$DIMGAP
 40
0.625
  9
$DIMJUST
 70
     0
  9
$DIMSD1
 70
     0
  9
$DIMSD2
 70
     0
  9
$DIMTOLJ
 70
     0
  9
$DIMTZIN
 70
     8
  9
$DIMALTZ
 70
     0
  9
$DIMALTTZ
 70
     0
  9
$DIMUPT
 70
     0
  9
$DIMDEC
 70
     2
  9
$DIMTDEC
 70
     2
  9
$DIMALTU
 70
     2
  9
$DIMALTTD
 70
     3
  9
$DIMTXSTY
  7
Arial-Regular
  9
$DIMAUNIT
 70
     0
  9
$DIMADEC
 70
     0
  9
$DIMALTRND
 40
0.0
  9
$DIMAZIN
 70
     0
  9
$DIMDSEP
 70
    46
  9
$DIMATFIT
 70
     3
  9
$DIMFRAC
 70
     0
  9
$DIMLDRBLK
  1

  9
$DIMLUNIT
 70
     2
  9
$DIMLWD
 70
    -2
  9
$DIMLWE
 70
    -2
  9
$DIMTMOVE
 70
     0
  9
$LUNITS
 70
     2
  9
$LUPREC
 70
     4
  9
$SKETCHINC
 40
1.0
  9
$FILLETRAD
 40
0.0
  9
$AUNITS
 70
     0
  9
$AUPREC
 70
     0
  9
$MENU
  1
.
  9
$ELEVATION
 40
0.0
  9
$PELEVATION
 40
0.0
  9
$THICKNESS
 40
0.0
  9
$LIMCHECK
 70
     0
  9
$CHAMFERA
 40
10.0
  9
$CHAMFERB
 40
10.0
  9
$CHAMFERC
 40
20.0
  9
$CHAMFERD
 40
0.0
  9
$SKPOLY
 70
     0
  9
$TDCREATE
 40
2452682.337302118
  9
$TDUCREATE
 40
2452681.837302118
  9
$TDUPDATE
 40
2455659.587585162
  9
$TDUUPDATE
 40
2455659.087585162
  9
$TDINDWG
 40
0.7903281944
  9
$TDUSRTIMER
 40
0.7903276157
  9
$USRTIMER
 70
     1
  9
$ANGBASE
 50
0.0
  9
$ANGDIR
 70
     0
  9
$PDMODE
 70
     3
  9
$PDSIZE
 40
3.0
  9
$PLINEWID
 40
0.0
  9
$SPLFRAME
 70
     0
  9
$SPLINETYPE
 70
     6
  9
$SPLINESEGS
 70
     8
  9
$HANDSEED
  5
1E0C
  9
$SURFTAB1
 70
     6
  9
$SURFTAB2
 70
     6
  9
$SURFTYPE
 70
     6
  9
$SURFU
 70
     6
  9
$SURFV
 70
     6
  9
$UCSBASE
  2

  9
$UCSNAME
  2

  9
$UCSORG
 10
0.0
 20
0.0
 30
0.0
  9
$UCSXDIR
 10
1.0
 20
0.0
 30
0.0
  9
$UCSYDIR
 10
0.0
 20
1.0
 30
0.0
  9
$UCSORTHOREF
  2

  9
$UCSORTHOVIEW
 70
     0
  9
$UCSORGTOP
 10
0.0
 20
0.0
 30
0.0
  9
$UCSORGBOTTOM
 10
0.0
 20
0.0
 30
0.0
  9
$UCSORGLEFT
 10
0.0
 20
0.0
 30
0.0
  9
$UCSORGRIGHT
 10
0.0
 20
0.0
 30
0.0
  9
$UCSORGFRONT
 10
0.0
 20
0.0
 30
0.0
  9
$UCSORGBACK
 10
0.0
 20
0.0
 30
0.0
  9
$PUCSBASE
  2

  9
$PUCSNAME
  2

  9
$PUCSORG
 10
0.0
 20
0.0
 30
0.0
  9
$PUCSXDIR
 10
1.0
 20
0.0
 30
0.0
  9
$PUCSYDIR
 10
0.0
 20
1.0
 30
0.0
  9
$PUCSORTHOREF
  2

  9
$PUCSORTHOVIEW
 70
     0
  9
$PUCSORGTOP
 10
0.0
 20
0.0
 30
0.0
  9
$PUCSORGBOTTOM
 10
0.0
 20
0.0
 30
0.0
  9
$PUCSORGLEFT
 10
0.0
 20
0.0
 30
0.0
  9
$PUCSORGRIGHT
 10
0.0
 20
0.0
 30
0.0
  9
$PUCSORGFRONT
 10
0.0
 20
0.0
 30
0.0
  9
$PUCSORGBACK
 10
0.0
 20
0.0
 30
0.0
  9
$USERI1
 70
     0
  9
$USERI2
 70
     0
  9
$USERI3
 70
     0
  9
$USERI4
 70
     0
  9
$USERI5
 70
     0
  9
$USERR1
 40
0.0
  9
$USERR2
 40
0.0
  9
$USERR3
 40
0.0
  9
$USERR4
 40
0.0
  9
$USERR5
 40
0.0
  9
$WORLDVIEW
 70
     1
  9
$SHADEDGE
 70
     3
  9
$SHADEDIF
 70
    70
  9
$TILEMODE
 70
     0
  9
$MAXACTVP
 70
    64
  9
$PINSBASE
 10
0.0
 20
0.0
 30
0.0
  9
$PLIMCHECK
 70
     0
  9
$PEXTMIN
 10
11.44870716070187
 20
3.291453326351643
 30
-0.0015258207003583
  9
$PEXTMAX
 10
189.6037193801263
 20
282.1977073565778
 30
0.0000000349246037
  9
$PLIMMIN
 10
-7.143749713897706
 20
-6.170062541961671
  9
$PLIMMAX
 10
202.8295779228211
 20
290.7982602119446
  9
$UNITMODE
 70
     0
  9
$VISRETAIN
 70
     1
  9
$PLINEGEN
 70
     0
  9
$PSLTSCALE
 70
     1
  9
$TREEDEPTH
 70
  3020
  9
$CMLSTYLE
  2
Standard
  9
$CMLJUST
 70
     0
  9
$CMLSCALE
 40
20.0
  9
$PROXYGRAPHICS
 70
     1
  9
$MEASUREMENT
 70
     1
  9
$CELWEIGHT
370
    -1
  9
$ENDCAPS
280
     0
  9
$JOINSTYLE
280
     0
  9
$LWDISPLAY
290
     0
  9
$INSUNITS
 70
     4
  9
$HYPERLINKBASE
  1

  9
$STYLESHEET
  1

  9
$XEDIT
290
     1
  9
$CEPSNTYPE
380
     0
  9
$PSTYLEMODE
290
     1
  9
$FINGERPRINTGUID
  2
{5C5B7ED4-663B-48E1-9F7A-5A0E9EDC2DBF}
  9
$VERSIONGUID
  2
{BF66FBE4-FBAA-4E95-9447-CAAB2F006F50}
  9
$EXTNAMES
290
     1
  9
$PSVPSCALE
 40
0.0
  9
$OLESTARTUP
290
     0
  0
ENDSEC
  0
SECTION
  2
CLASSES
  0
CLASS
  1
ACDBDICTIONARYWDFLT
  2
AcDbDictionaryWithDefault
  3
ObjectDBX Classes
 90
        0
280
     0
281
     0
  0
CLASS
  1
ACDBPLACEHOLDER
  2
AcDbPlaceHolder
  3
ObjectDBX Classes
 90
        0
280
     0
281
     0
  0
CLASS
  1
LAYOUT
  2
AcDbLayout
  3
ObjectDBX Classes
 90
        0
280
     0
281
     0
  0
CLASS
  1
DICTIONARYVAR
  2
AcDbDictionaryVar
  3
ObjectDBX Classes
 90
        0
280
     0
281
     0
  0
CLASS
  1
SORTENTSTABLE
  2
AcDbSortentsTable
  3
ObjectDBX Classes
 90
        0
280
     0
281
     0
  0
CLASS
  1
MATERIAL
  2
AcDbMaterial
  3
ObjectDBX Classes
 90
        0
280
     0
281
     0
  0
CLASS
  1
VISUALSTYLE
  2
AcDbVisualStyle
  3
ObjectDBX Classes
 90
     4095
280
     0
281
     0
  0
CLASS
  1
TABLESTYLE
  2
AcDbTableStyle
  3
ObjectDBX Classes
 90
     2047
280
     0
281
     0
  0
CLASS
  1
SCALE
  2
AcDbScale
  3
ObjectDBX Classes
 90
     1153
280
     0
281
     0
  0
CLASS
  1
MLEADERSTYLE
  2
AcDbMLeaderStyle
  3
ACDB_MLEADERSTYLE_CLASS
 90
     4095
280
     0
281
     0
  0
CLASS
  1
EXACTERMXREFMAP
  2
ExAcTermXrefMap
  3
EXAC_SERVICE
 90
    33793
280
     0
281
     0
  0
CLASS
  1
NPOCOLLECTION
  2
AcDbImpNonPersistentObjectsCollection
  3
ObjectDBX Classes
 90
    33921
280
     0
281
     0
  0
CLASS
  1
EXACXREFPANELOBJECT
  2
ExAcXREFPanelObject
  3
EXAC_ESW
 90
    33793
280
     0
281
     0
  0
CLASS
  1
CELLSTYLEMAP
  2
AcDbCellStyleMap
  3
ObjectDBX Classes
 90
     1152
280
     0
281
     0
  0
CLASS
  1
ACAD_EVALUATION_GRAPH
  2
AcDbEvalGraph
  3
ObjectDBX Classes
 90
    33921
280
     0
281
     0
  0
CLASS
  1
ACAECUSTOBJ
  2
AcAeEditorObj
  3
AcAeEditorObj
 90
    33792
280
     0
281
     0
  0
CLASS
  1
ACDB_DYNAMICBLOCKPURGEPREVENTER_VERSION
  2
AcDbDynamicBlockPurgePreventer
  3
ObjectDBX Classes
 90
    33921
280
     0
281
     0
  0
ENDSEC
  0
SECTION
  2
TABLES
  0
TABLE
  2
VPORT
  5
8
102
{ACAD_XDICTIONARY
360
119A
102
}
330
0
100
AcDbSymbolTable
 70
     1
  0
VPORT
  5
FAB
330
8
100
AcDbSymbolTableRecord
100
AcDbViewportTableRecord
  2
*Active
 70
     0
 10
0.0
 20
0.0
 11
1.0
 21
1.0
 12
177.9998721475851
 22
242.0001948219931
 13
0.0
 23
0.0
 14
10.0
 24
10.0
 15
10.0
 25
10.0
 16
0.0
 26
0.0
 36
1.0
 17
0.0
 27
0.0
 37
0.0
 40
488.0661217849161
 41
2.243016759776536
 42
50.0
 43
0.0
 44
0.0
 50
0.0
 51
0.0
 71
     0
 72
 20000
 73
     1
 74
     2
 75
     0
 76
     0
 77
     0
 78
     1
281
     0
 65
     1
110
0.0
120
0.0
130
0.0
111
1.0
121
0.0
131
0.0
112
0.0
122
1.0
132
0.0
 79
     0
146
0.0
  0
ENDTAB
  0
TABLE
  2
LTYPE
  5
5
330
0
100
AcDbSymbolTable
 70
     2
  0
LTYPE
  5
14
330
5
100
AcDbSymbolTableRecord
100
AcDbLinetypeTableRecord
  2
ByBlock
 70
     0
  3

 72
    65
 73
     0
 40
0.0
  0
LTYPE
  5
15
330
5
100
AcDbSymbolTableRecord
100
AcDbLinetypeTableRecord
  2
ByLayer
 70
     0
  3

 72
    65
 73
     0
 40
0.0
  0
LTYPE
  5
16
330
5
100
AcDbSymbolTableRecord
100
AcDbLinetypeTableRecord
  2
Continuous
 70
     0
  3
Solid line
 72
    65
 73
     0
 40
0.0
  0
LTYPE
  5
6A
330
5
100
AcDbSymbolTableRecord
100
AcDbLinetypeTableRecord
  2
DASHED
 70
     0
  3
Dashed __ __ __ __ __ __ __ __ __ __ __ __ __ _
 72
    65
 73
     2
 40
19.05
 49
12.7
 74
     0
 49
-6.349999999999999
 74
     0
  0
ENDTAB
  0
TABLE
  2
LAYER
  5
2
102
{ACAD_XDICTIONARY
360
1019
102
}
330
0
100
AcDbSymbolTable
 70
     6
  0
LAYER
  5
10
102
{ACAD_XDICTIONARY
360
1055
102
}
330
2
100
AcDbSymbolTableRecord
100
AcDbLayerTableRecord
  2
0
 70
     4
 62
     7
  6
Continuous
290
     0
370
    -3
390
F
  0
LAYER
  5
41
102
{ACAD_XDICTIONARY
360
1057
102
}
330
2
100
AcDbSymbolTableRecord
100
AcDbLayerTableRecord
  2
APL Border
 70
     0
 62
     7
  6
Continuous
370
    -3
390
F
  0
LAYER
  5
42
102
{ACAD_XDICTIONARY
360
1059
102
}
330
2
100
AcDbSymbolTableRecord
100
AcDbLayerTableRecord
  2
APL Notes
 70
     0
 62
     7
  6
Continuous
370
    -3
390
F
  0
LAYER
  5
11C
102
{ACAD_XDICTIONARY
360
105F
102
}
330
2
100
AcDbSymbolTableRecord
100
AcDbLayerTableRecord
  2
APL Joinery
 70
     0
 62
     2
  6
Continuous
370
    -3
390
F
  0
LAYER
  5
1009
102
{ACAD_XDICTIONARY
360
1065
102
}
330
2
100
AcDbSymbolTableRecord
100
AcDbLayerTableRecord
  2
APL Hatch
 70
     0
 62
   253
  6
Continuous
370
    -3
390
F
  0
ENDTAB
  0
TABLE
  2
STYLE
  5
3
330
0
100
AcDbSymbolTable
 70
     6
  0
STYLE
  5
11
330
3
100
AcDbSymbolTableRecord
100
AcDbTextStyleTableRecord
  2
Standard
 70
     0
 40
0.0
 41
1.0
 50
0.0
 71
     0
 42
2.5
  3
txt
  4

  0
STYLE
  5
71
330
3
100
AcDbSymbolTableRecord
100
AcDbTextStyleTableRecord
  2
Arial-Regular
 70
     0
 40
0.0
 41
1.0
 50
0.0
 71
     0
 42
5.0
  3
ARIAL.TTF
  4

1001
ACAD
1000
Arial
1071
       34
  0
STYLE
  5
72
330
3
100
AcDbSymbolTableRecord
100
AcDbTextStyleTableRecord
  2
Arial-Bold
 70
     0
 40
0.0
 41
1.0
 50
0.0
 71
     0
 42
5.0
  3
ARIALBD.TTF
  4

1001
ACAD
1000
Arial
1071
 33554466
  0
STYLE
  5
D1
330
3
100
AcDbSymbolTableRecord
100
AcDbTextStyleTableRecord
  2
FranklinGothic-Book
 70
     0
 40
0.0
 41
1.1
 50
0.0
 71
     0
 42
5.0
  3
TT0670M_.TTF
  4

1001
ACAD
1000
FrnkGothITC Bk BT
1071
       34
  0
ENDTAB
  0
TABLE
  2
VIEW
  5
6
330
0
100
AcDbSymbolTable
 70
     0
  0
ENDTAB
  0
TABLE
  2
UCS
  5
7
330
0
100
AcDbSymbolTable
 70
     0
  0
ENDTAB
  0
TABLE
  2
APPID
  5
9
330
0
100
AcDbSymbolTable
 70
    10
  0
APPID
  5
12
330
9
100
AcDbSymbolTableRecord
100
AcDbRegAppTableRecord
  2
ACAD
 70
     0
  0
APPID
  5
FFE
330
9
100
AcDbSymbolTableRecord
100
AcDbRegAppTableRecord
  2
ACAD_MLEADERVER
 70
     0
  0
APPID
  5
100A
330
9
100
AcDbSymbolTableRecord
100
AcDbRegAppTableRecord
  2
DCO15
 70
     0
  0
APPID
  5
10D1
330
9
100
AcDbSymbolTableRecord
100
AcDbRegAppTableRecord
  2
ACAD_EXEMPT_FROM_CAD_STANDARDS
 70
     0
  0
APPID
  5
131C
330
9
100
AcDbSymbolTableRecord
100
AcDbRegAppTableRecord
  2
ACAD_PSEXT
 70
     0
  0
APPID
  5
1556
330
9
100
AcDbSymbolTableRecord
100
AcDbRegAppTableRecord
  2
AcDbDynamicBlockTrueName
 70
     0
  0
APPID
  5
1557
330
9
100
AcDbSymbolTableRecord
100
AcDbRegAppTableRecord
  2
AcDbBlockRepETag
 70
     0
  0
APPID
  5
166C
330
9
100
AcDbSymbolTableRecord
100
AcDbRegAppTableRecord
  2
ACAUTHENVIRON
 70
     0
  0
APPID
  5
166D
330
9
100
AcDbSymbolTableRecord
100
AcDbRegAppTableRecord
  2
AcDbDynamicBlockGUID
 70
     0
  0
APPID
  5
166E
330
9
100
AcDbSymbolTableRecord
100
AcDbRegAppTableRecord
  2
AcDbBlockRepBTag
 70
     0
  0
ENDTAB
  0
TABLE
  2
DIMSTYLE
  5
A
330
0
100
AcDbSymbolTable
 70
     2
100
AcDbDimStyleTable
 71
     1
340
27
  0
DIMSTYLE
105
27
330
A
100
AcDbSymbolTableRecord
100
AcDbDimStyleTableRecord
  2
ISO-25
 70
     0
 41
5.0
 42
0.625
 43
3.75
 44
1.25
 73
     0
 74
     0
 77
     1
 78
     8
140
2.5
141
2.5
143
0.03937007874016
147
0.625
171
     3
172
     1
271
     2
272
     2
274
     3
283
     0
284
     8
340
71
  0
ENDTAB
  0
TABLE
  2
BLOCK_RECORD
  5
1
330
0
100
AcDbSymbolTable
 70
    25
  0
BLOCK_RECORD
  5
1F
102
{ACAD_XDICTIONARY
360
F49
102
}
330
1
100
AcDbSymbolTableRecord
100
AcDbBlockTableRecord
  2
*Model_Space
340
22
  0
BLOCK_RECORD
  5
1B
330
1
100
AcDbSymbolTableRecord
100
AcDbBlockTableRecord
  2
*Paper_Space
340
1E
  0
BLOCK_RECORD
  5
45
330
1
100
AcDbSymbolTableRecord
100
AcDbBlockTableRecord
  2
vantage a4 SM border
340
0
102
{BLKREFS
331
4B
102
}
1001
ACAD
1000
DesignCenter Data
1002
{
1070
     1
1070
     4
1002
}
  0
BLOCK_RECORD
  5
262
102
{ACAD_XDICTIONARY
360
1DB3
102
}
330
1
100
AcDbSymbolTableRecord
100
AcDbBlockTableRecord
  2
08730
340
0
102
{BLKREFS
331
B58
331
B76
102
}
1001
ACAD
1000
DesignCenter Data
1002
{
1070
     1
1070
     4
1002
}
  0
BLOCK_RECORD
  5
36C
330
1
100
AcDbSymbolTableRecord
100
AcDbBlockTableRecord
  2
9010250l
340
0
102
{BLKREFS
331
18FC
102
}
1001
ACAD
1000
DesignCenter Data
1002
{
1070
     1
1070
     4
1002
}
  0
BLOCK_RECORD
  5
65F
102
{ACAD_XDICTIONARY
360
1DB7
102
}
330
1
100
AcDbSymbolTableRecord
100
AcDbBlockTableRecord
  2
08741
340
0
102
{BLKREFS
331
B59
331
B75
102
}
1001
ACAD
1000
DesignCenter Data
1002
{
1070
     1
1070
     4
1002
}
  0
BLOCK_RECORD
  5
665
102
{ACAD_XDICTIONARY
360
1DBB
102
}
330
1
100
AcDbSymbolTableRecord
100
AcDbBlockTableRecord
  2
08753
340
0
102
{BLKREFS
331
B5F
331
B84
102
}
1001
ACAD
1000
DesignCenter Data
1002
{
1070
     1
1070
     4
1002
}
  0
BLOCK_RECORD
  5
673
102
{ACAD_XDICTIONARY
360
1DC0
102
}
330
1
100
AcDbSymbolTableRecord
100
AcDbBlockTableRecord
  2
08747
340
0
102
{BLKREFS
331
B54
331
B8F
102
}
1001
ACAD
1000
DesignCenter Data
1002
{
1070
     1
1070
     4
1002
}
  0
BLOCK_RECORD
  5
679
102
{ACAD_XDICTIONARY
360
1DC5
102
}
330
1
100
AcDbSymbolTableRecord
100
AcDbBlockTableRecord
  2
08773
340
0
102
{BLKREFS
331
B53
331
B7A
102
}
1001
ACAD
1000
DesignCenter Data
1002
{
1070
     1
1070
     4
1002
}
  0
BLOCK_RECORD
  5
CBB
330
1
100
AcDbSymbolTableRecord
100
AcDbBlockTableRecord
  2
vantage a4 SM attributes (4)
340
0
102
{BLKREFS
331
CD6
102
}
  0
BLOCK_RECORD
  5
D5C
330
1
100
AcDbSymbolTableRecord
100
AcDbBlockTableRecord
  2
9010331
340
0
102
{BLKREFS
331
D61
331
D62
331
D64
331
D63
331
D84
331
D85
331
D87
331
D88
102
}
1001
ACAD
1000
DesignCenter Data
1002
{
1070
     1
1070
     4
1002
}
  0
BLOCK_RECORD
  5
D7E
330
1
100
AcDbSymbolTableRecord
100
AcDbBlockTableRecord
  2
9010100iarch
340
0
102
{BLKREFS
331
D82
331
D83
331
D86
331
D89
102
}
1001
ACAD
1000
DesignCenter Data
1002
{
1070
     1
1070
     4
1002
}
  0
BLOCK_RECORD
  5
F73
102
{ACAD_XDICTIONARY
360
1DDB
102
}
330
1
100
AcDbSymbolTableRecord
100
AcDbBlockTableRecord
  2
08900
340
0
102
{BLKREFS
331
F78
331
F79
102
}
1001
ACAD
1000
DesignCenter Data
1002
{
1070
     1
1070
     4
1002
}
  0
BLOCK_RECORD
  5
1031
330
1
100
AcDbSymbolTableRecord
100
AcDbBlockTableRecord
  2
9010312r
340
0
102
{BLKREFS
331
1902
102
}
1001
ACAD
1000
DesignCenter Data
1002
{
1070
     1
1070
     4
1002
}
  0
BLOCK_RECORD
  5
1034
330
1
100
AcDbSymbolTableRecord
100
AcDbBlockTableRecord
  2
6Glass
340
0
102
{BLKREFS
331
18FD
331
18FF
102
}
  0
BLOCK_RECORD
  5
103C
330
1
100
AcDbSymbolTableRecord
100
AcDbBlockTableRecord
  2
08638
340
0
102
{BLKREFS
331
18FE
102
}
1001
ACAD
1000
DesignCenter Data
1002
{
1070
     1
1070
     4
1002
}
  0
BLOCK_RECORD
  5
103F
102
{ACAD_XDICTIONARY
360
1903
102
}
330
1
100
AcDbSymbolTableRecord
100
AcDbBlockTableRecord
  2
A$C3EEB4669
340
0
102
{BLKREFS
331
1053
331
10CC
331
10D7
331
10D8
331
10D9
331
10DA
102
}
1001
AcDbDynamicBlockGUID
1000
{732A4CED-CE37-4E7B-AC81-DA2488C3B494}
1001
AcDbBlockRepETag
1070
     1
1071
        7
1001
ACAD
1000
DesignCenter Data
1002
{
1070
     1
1070
     4
1002
}
  0
BLOCK_RECORD
  5
19D8
102
{ACAD_XDICTIONARY
360
19D9
102
}
330
1
100
AcDbSymbolTableRecord
100
AcDbBlockTableRecord
  2
vantage black & white logo
340
0
310
2800000020000000200000000100080000000000000400000000000000000000000000000000000000000000000080000080000000808000800000008000800080800000C0C0C000C0DCC000F0CAA6000020400000206000002080000020A0000020C0000020E00000400000004020000040400000406000004080000040A0
310
000040C0000040E00000600000006020000060400000606000006080000060A0000060C0000060E00000800000008020000080400000806000008080000080A0000080C0000080E00000A0000000A0200000A0400000A0600000A0800000A0A00000A0C00000A0E00000C0000000C0200000C0400000C0600000C0800000C0
310
A00000C0C00000C0E00000E0000000E0200000E0400000E0600000E0800000E0A00000E0C00000E0E00040000000400020004000400040006000400080004000A0004000C0004000E00040200000402020004020400040206000402080004020A0004020C0004020E000404000004040200040404000404060004040800040
310
40A0004040C0004040E00040600000406020004060400040606000406080004060A0004060C0004060E00040800000408020004080400040806000408080004080A0004080C0004080E00040A0000040A0200040A0400040A0600040A0800040A0A00040A0C00040A0E00040C0000040C0200040C0400040C0600040C08000
310
40C0A00040C0C00040C0E00040E0000040E0200040E0400040E0600040E0800040E0A00040E0C00040E0E00080000000800020008000400080006000800080008000A0008000C0008000E00080200000802020008020400080206000802080008020A0008020C0008020E00080400000804020008040400080406000804080
310
008040A0008040C0008040E00080600000806020008060400080606000806080008060A0008060C0008060E00080800000808020008080400080806000808080008080A0008080C0008080E00080A0000080A0200080A0400080A0600080A0800080A0A00080A0C00080A0E00080C0000080C0200080C0400080C0600080C0
310
800080C0A00080C0C00080C0E00080E0000080E0200080E0400080E0600080E0800080E0A00080E0C00080E0E000C0000000C0002000C0004000C0006000C0008000C000A000C000C000C000E000C0200000C0202000C0204000C0206000C0208000C020A000C020C000C020E000C0400000C0402000C0404000C0406000C0
310
408000C040A000C040C000C040E000C0600000C0602000C0604000C0606000C0608000C060A000C060C000C060E000C0800000C0802000C0804000C0806000C0808000C080A000C080C000C080E000C0A00000C0A02000C0A04000C0A06000C0A08000C0A0A000C0A0C000C0A0E000C0C00000C0C02000C0C04000C0C06000
310
C0C08000C0C0A000F0FBFF00A4A0A000808080000000FF0000FF000000FFFF00FF000000FF00FF00FFFF0000FFFFFF0000000000000000000000000000000000000000000000000000000000000000000000000000000000000000000000000000000000000000000000000000000000000000000000000000000000000000
310
0000000000000000000000000000000000000000000000000000000000000000A4A40000000000000000000000000000000000000000000000000000000000A400000700000000000000000000000000000000000000000000000000000000A4000707000000000000000000000000000000000000000000000000000000A4
310
00A4A407070000000000000000000000000000000000000000000000000000A400A400A40700000000000000000000000000000000000000000000000000A400A4A400A407070000000000000000000000000000000000000000000000A40700A4000000A4070000000000000000000000000000000000000000000000A400
310
A4A4000000A40707000000000000000000000000000000000000000000A400A4A4000000A4A4A400070000000000000000000000000000000000000000A400A400000000A400A4070700000000000000000000000000000000000000A400A4A4000000A4A40000A40007000000000000000000000000000000000000A400A4
310
A4A4A4A4A4A4A4A4A407070000000000000000000000000000000000A400A4A4A4A4A4A4A4A4A4A4A4A40007000000000000000000000000000000A40000A4A4A4A4A4A4A4A4A4A4A4A40700070000000000000000000000000000A400A4A400A4A4A4A4A4A4A4A4A4A4A4070700000000000000000000000000A400A4A4A4
310
A4A4A4A4A4A4A4A4A4A4A4A4070007000000000000000000000000A400A4A4A4A4A4A4A4A4A4A4A4A4A4A4A4A407070000000000000000000000A400A4A400A4A4A4A4A4A4A4A4A4A4A4A4A4A4070007000000000000000000A40700A4A400A4A4A4A4A4A4A4A4A4A4A4A4A400A40707000000000000000000A400A4A4A4A4
310
A4A4A4A4A4A4A4A4A4A4A4A4A4A4A407000700000000000000A400A4A4A4A4A4A4A4A4A4A4A4A4A4A4A4A4A4A4A4A4A4070007000000000000A400A4A4A4A4A4A4A4A4A4A4A4A4A4A4A4A4A4A4A4A4A40700070000000000A400A4A400A4A4A4A4A4A4A4A4A4A4A4A4A4A4A4A4A4A4A40007000700000000A400A4A4A400A4
310
A4A4A4A4A4A4A4A4A4A4A4A4A4A4A4A4A4000700070000000700A4A4A4A4A4A4A4A4A4A4A4A4A4A4A4A4A4A4A4A4A4A4A4A4A40700070000A407A4A4A4A4A4A4A4A4A4A4A4A4A4A4A4A4A4A4A4A4A4A4A4A4A4A407A40000000000000000000000000000000000000000000000000000000000000000000000000000000000
310
0000000000000000000000000000000000000000000000000000000000000000000000000000000000000000000000000000000000000000
102
{BLKREFS
331
19D6
102
}
1001
AcDbDynamicBlockGUID
1000
{7D04BC3F-8AE2-40EA-A482-CE6E620AF154}
1001
AcDbBlockRepETag
1070
     1
1071
      907
1001
ACAD
1000
DesignCenter Data
1002
{
1070
     1
1070
     4
1002
}
  0
ENDTAB
  0
ENDSEC
  0
SECTION
  2
BLOCKS
  0
BLOCK
  5
20
330
1F
100
AcDbEntity
  8
0
100
AcDbBlockBegin
  2
*Model_Space
 70
     0
 10
0.0
 20
0.0
 30
0.0
  3
*Model_Space
  1

  0
ENDBLK
  5
21
330
1F
100
AcDbEntity
  8
0
100
AcDbBlockEnd
  0
BLOCK
  5
1C
330
1B
100
AcDbEntity
 67
     1
  8
0
100
AcDbBlockBegin
  2
*Paper_Space
 70
     0
 10
0.0
 20
0.0
 30
0.0
  3
*Paper_Space
  1

  0
ENDBLK
  5
1D
330
1B
100
AcDbEntity
 67
     1
  8
0
100
AcDbBlockEnd
  0
BLOCK
  5
46
330
45
100
AcDbEntity
  8
0
100
AcDbBlockBegin
  2
vantage a4 SM border
 70
     0
 10
0.0
 20
0.0
 30
0.0
  3
vantage a4 SM border
  1
vantage a4 SM border.dwg
  0
TEXT
  5
19CA
330
45
100
AcDbEntity
  8
APL Border
100
AcDbText
 10
11.59500000000003
 20
3.979818213543524
 30
0.0
 40
1.5
  1
VANTAGE SPECIFIER'S GUIDE 2011:1     ARCHITECTURAL PROFILES LTD. NB. TECHNICAL SPECIFICATIONS SUBJECT TO CHANGE WITHOUT NOTICE.
 41
1.175568529931163
  7
Arial-Regular
 72
     5
 11
189.595
 21
3.979818213543524
 31
0.0
100
AcDbText
  0
LINE
  5
19CB
330
45
100
AcDbEntity
  8
APL Border
100
AcDbLine
 10
11.59500000000003
 20
6.189999999999997
 30
0.0
 11
189.595
 21
6.189999999999997
 31
0.0
  0
MTEXT
  5
19CC
330
45
100
AcDbEntity
  8
APL Border
100
AcDbMText
 10
57.55102029361978
 20
3.879818213543526
 30
0.0
 40
1.5
 41
0.0
 71
     8
 72
     5
  1
{\fCommercialPi BT|b0|i0|c2|p18;a}
  7
Arial-Regular
 73
     1
 44
1.0
1001
ACAD
1000
MTEXTBEGIN
1070
    73
1070
     1
1070
    44
1040
1.0
1070
    74
1070
     0
1000
MTEXTEND
  0
LINE
  5
19CD
330
45
100
AcDbEntity
  8
APL Border
100
AcDbLine
 10
189.595
 20
268.19
 30
0.0
 11
142.595
 21
268.19
 31
0.0
  0
LINE
  5
19CE
330
45
100
AcDbEntity
  8
APL Border
100
AcDbLine
 10
189.595
 20
282.19
 30
0.0
 11
189.595
 21
254.19
 31
0.0
  0
LINE
  5
19CF
330
45
100
AcDbEntity
  8
APL Border
100
AcDbLine
 10
166.095
 20
268.19
 30
0.0
 11
166.095
 21
254.19
 31
0.0
  0
LINE
  5
19D0
330
45
100
AcDbEntity
  8
APL Border
100
AcDbLine
 10
189.595
 20
254.19
 30
0.0
 11
24.99473224900737
 21
254.19
 31
0.0
  0
LINE
  5
19D1
330
45
100
AcDbEntity
  8
APL Border
100
AcDbLine
 10
189.595
 20
282.19
 30
0.0
 11
24.99473224900737
 21
282.19
 31
0.0
  0
LINE
  5
19D2
330
45
100
AcDbEntity
  8
APL Border
100
AcDbLine
 10
142.595
 20
282.19
 30
0.0
 11
142.595
 21
254.19
 31
0.0
  0
TEXT
  5
19D3
330
45
100
AcDbEntity
  8
APL Border
100
AcDbText
 10
147.845
 20
273.69
 30
0.0
 40
2.5
  1
CAD REF.
  7
Arial-Regular
100
AcDbText
  0
TEXT
  5
19D4
330
45
100
AcDbEntity
  8
APL Border
100
AcDbText
 10
149.6877694406548
 20
262.19
 30
0.0
 40
2.5
  1
DATE
  7
Arial-Regular
 72
     1
 11
154.345
 21
262.19
 31
0.0
100
AcDbText
  0
TEXT
  5
19D5
330
45
100
AcDbEntity
  8
APL Border
100
AcDbText
 10
172.1185334242838
 20
262.19
 30
0.0
 40
2.5
  1
SCALE
  7
Arial-Regular
 72
     1
 11
177.845
 21
262.19
 31
0.0
100
AcDbText
  0
INSERT
  5
19D6
102
{ACAD_XDICTIONARY
360
19D7
102
}
330
45
100
AcDbEntity
  8
APL Border
100
AcDbBlockReference
  2
vantage black & white logo
 10
24.99473224900737
 20
256.19
 30
0.0
 41
0.5
 42
0.5
 43
0.5
  0
LINE
  5
1A1B
330
45
100
AcDbEntity
  8
APL Border
100
AcDbLine
 10
24.99473224900737
 20
256.19
 30
0.0
 11
24.99473224900737
 21
254.19
 31
0.0
  0
LINE
  5
1A1C
330
45
100
AcDbEntity
  8
APL Border
100
AcDbLine
 10
24.99473224900716
 20
279.6304177948761
 30
0.0
 11
24.99473224900737
 21
282.19
 31
0.0
  0
ENDBLK
  5
47
330
45
100
AcDbEntity
  8
0
100
AcDbBlockEnd
  0
BLOCK
  5
263
330
262
100
AcDbEntity
  8
0
100
AcDbBlockBegin
  2
08730
 70
     0
 10
0.0
 20
0.0
 30
0.0
  3
08730
  1
08730.dwg
  0
LWPOLYLINE
  5
1DB1
102
{ACAD_REACTORS
330
1DB2
102
}
330
262
100
AcDbEntity
  8
APL Joinery
  6
Continuous
100
AcDbPolyline
 90
       64
 70
     1
 43
0.0
 10
5.5
 20
0.25
 42
-0.4142135623730951
 10
5.25
 20
0.0
 10
0.25
 20
0.0
 42
0.4142135623730951
 10
0.0
 20
-0.25
 10
0.0
 20
-26.75
 42
0.4142135623730951
 10
0.25
 20
-27.0
 10
7.75
 20
-27.0
 42
0.4142135623730951
 10
8.0
 20
-26.75
 10
8.0
 20
-25.75
 42
0.4142135623730951
 10
7.75
 20
-25.5
 10
7.289756829953375
 20
-25.5
 42
-0.5849231395621138
 10
6.862515683210524
 20
-24.74025974026035
 42
0.3589993750619788
 10
6.254807577006789
 20
-20.52243208156442
 42
0.9999999999958543
 10
5.245192244045946
 20
-21.63179085098258
 42
-0.4390496178058308
 10
5.258850579850575
 20
-24.35565305942581
 42
0.1432248589152382
 10
5.000000068218947
 20
-24.78955297868039
 42
-0.263820418017367
 10
2.977485234958017
 20
-24.77678461135595
 42
0.1432248589117884
 10
2.724133656937219
 20
-24.33965110180001
 42
-0.4039324889489646
 10
2.616242012303901
 20
-21.77211000843244
 42
0.5246917004122232
 10
2.322103617723769
 20
-20.57339311107308
 42
-0.311264103520188
 10
1.999999999999999
 20
-20.10611067274158
 10
2.0
 20
-19.93955301678306
 42
-0.4142135623730951
 10
2.25
 20
-19.68955301678306
 10
3.0
 20
-19.68955301678343
 42
0.9999999999999998
 10
3.0
 20
-18.88955301678334
 10
2.25
 20
-18.88955301678334
 42
-0.4142135623730951
 10
2.0
 20
-18.63955301678334
 10
2.0
 20
-14.78955301678343
 10
2.799999999999999
 20
-14.78955301678343
 42
0.4142135623730951
 10
2.999999999999999
 20
-14.58955301678343
 10
3.0
 20
-13.78955301678343
 10
5.0
 20
-13.78955301678343
 10
5.0
 20
-14.53955301678343
 42
0.4142135623730951
 10
5.25
 20
-14.78955301678343
 10
5.75
 20
-14.78955301678343
 42
0.4142135623730951
 10
6.0
 20
-14.53955301678343
 10
6.0
 20
-13.03955301678343
 42
0.4142135623730951
 10
5.75
 20
-12.78955301678343
 10
2.5
 20
-12.78955301678343
 42
-0.4142135623730951
 10
2.0
 20
-12.28955301678343
 10
2.0
 20
-2.5
 42
-0.4142135623730951
 10
2.5
 20
-2.0
 10
105.7499999999997
 20
-2.0
 42
0.4142135623730951
 10
105.9999999999998
 20
-1.75
 10
105.9999999999998
 20
-0.25
 42
0.4142135623730951
 10
105.7499999999997
 20
0.0
 10
100.7499999999998
 20
0.0
 42
-0.4142135623730951
 10
100.4999999999997
 20
0.25
 10
100.4999999999997
 20
3.0
 10
100.9999999999992
 20
2.999999999999993
 42
0.533801728024635
 10
101.231180534412
 20
3.345160708848937
 10
100.4999999999998
 20
5.12146848064132
 10
100.4999999999997
 20
7.9955478446862
 42
0.9999999999999998
 10
99.49999999999977
 20
7.9955478446862
 10
99.49999999999979
 20
0.25
 42
-0.4142135623730951
 10
99.24999999999979
 20
0.0
 10
6.75
 20
0.0
 42
-0.4142135623730951
 10
6.5
 20
0.25
 10
6.5
 20
7.9955478446862
 42
0.9999999999999998
 10
5.5
 20
7.9955478446862
 10
5.5
 20
5.121468480641341
 10
4.768819465587796
 20
3.345160708848936
 42
0.5338017280246295
 10
5.000000000000569
 20
2.999999999999993
 10
5.5
 20
3.0
  0
HATCH
  5
1DB2
330
262
100
AcDbEntity
  8
APL Hatch
100
AcDbHatch
 10
0.0
 20
0.0
 30
0.0
210
0.0
220
0.0
230
1.0
  2
SOLID
 70
     1
 71
     1
 91
        1
 92
        1
 93
       64
 72
     2
 10
5.25
 20
0.25
 40
0.25
 50
360.0
 51
450.0
 73
     0
 72
     1
 10
5.25
 20
0.0
 11
0.25
 21
0.0
 72
     2
 10
0.25
 20
-0.25
 40
0.25
 50
90.0
 51
180.0
 73
     1
 72
     1
 10
0.0
 20
-0.25
 11
0.0
 21
-26.75
 72
     2
 10
0.25
 20
-26.75
 40
0.25
 50
180.0
 51
270.0
 73
     1
 72
     1
 10
0.25
 20
-27.0
 11
7.75
 21
-27.0
 72
     2
 10
7.75
 20
-26.75
 40
0.25
 50
270.0
 51
360.0
 73
     1
 72
     1
 10
8.0
 20
-26.75
 11
8.0
 21
-25.75
 72
     2
 10
7.75
 20
-25.75
 40
0.25
 50
0.0
 51
90.0
 73
     1
 72
     1
 10
7.75
 20
-25.5
 11
7.289756829953375
 21
-25.5
 72
     2
 10
7.289756829953356
 20
-25.00000000000016
 40
0.4999999999998366
 50
89.99999999999776
 51
211.2974122202416
 73
     0
 72
     2
 10
4.000000000027807
 20
-23.00000000004445
 40
3.349999999982583
 50
328.702587780407
 51
407.6950129596166
 73
     1
 72
     2
 10
5.749999910528667
 20
-21.07711146627559
 40
0.7499999999724364
 50
47.69501295897433
 51
227.6950129584993
 73
     1
 72
     2
 10
4.000000000029955
 20
-22.99999999996929
 40
1.84999999998068
 50
312.3049870411875
 51
407.1204182266343
 73
     0
 72
     2
 10
5.871264375464335
 20
-25.01515995324373
 40
0.90000000002856
 50
132.8795817733241
 51
165.4825757613963
 73
     1
 72
     2
 10
4.000000000015473
 20
-22.99999999996046
 40
2.050000000012761
 50
60.80359340690945
 51
119.9198265928943
 73
     0
 72
     2
 10
2.103441922482063
 20
-24.99137325942925
 40
0.8999999999810356
 50
13.79400424017761
 51
46.39699822747508
 73
     1
 72
     2
 10
4.000000000001479
 20
-23.00000000000185
 40
1.849999999976534
 50
133.6030017728178
 51
221.5845329588694
 73
     0
 72
     2
 10
2.055259044304594
 20
-21.27431676858499
 40
0.7500000000154243
 50
318.4154670405723
 51
429.157961094247
 73
     1
 72
     2
 10
2.500000000000042
 20
-20.10611067274155
 40
0.5000000000000427
 50
110.84203890581
 51
179.9999999999967
 73
     0
 72
     1
 10
1.999999999999999
 20
-20.10611067274158
 11
2.0
 21
-19.93955301678306
 72
     2
 10
2.25
 20
-19.93955301678306
 40
0.25
 50
180.0
 51
270.0
 73
     0
 72
     1
 10
2.25
 20
-19.68955301678306
 11
3.0
 21
-19.68955301678343
 72
     2
 10
3.0
 20
-19.28955301678338
 40
0.4000000000000448
 50
270.0
 51
450.0
 73
     1
 72
     1
 10
3.0
 20
-18.88955301678334
 11
2.25
 21
-18.88955301678334
 72
     2
 10
2.25
 20
-18.63955301678334
 40
0.25
 50
90.0
 51
180.0
 73
     0
 72
     1
 10
2.0
 20
-18.63955301678334
 11
2.0
 21
-14.78955301678343
 72
     1
 10
2.0
 20
-14.78955301678343
 11
2.799999999999999
 21
-14.78955301678343
 72
     2
 10
2.799999999999999
 20
-14.58955301678343
 40
0.1999999999999993
 50
270.0
 51
360.0
 73
     1
 72
     1
 10
2.999999999999999
 20
-14.58955301678343
 11
3.0
 21
-13.78955301678343
 72
     1
 10
3.0
 20
-13.78955301678343
 11
5.0
 21
-13.78955301678343
 72
     1
 10
5.0
 20
-13.78955301678343
 11
5.0
 21
-14.53955301678343
 72
     2
 10
5.25
 20
-14.53955301678343
 40
0.25
 50
180.0
 51
270.0
 73
     1
 72
     1
 10
5.25
 20
-14.78955301678343
 11
5.75
 21
-14.78955301678343
 72
     2
 10
5.75
 20
-14.53955301678343
 40
0.25
 50
270.0
 51
360.0
 73
     1
 72
     1
 10
6.0
 20
-14.53955301678343
 11
6.0
 21
-13.03955301678343
 72
     2
 10
5.75
 20
-13.03955301678343
 40
0.25
 50
0.0
 51
90.0
 73
     1
 72
     1
 10
5.75
 20
-12.78955301678343
 11
2.5
 21
-12.78955301678343
 72
     2
 10
2.5
 20
-12.28955301678343
 40
0.5
 50
90.0
 51
180.0
 73
     0
 72
     1
 10
2.0
 20
-12.28955301678343
 11
2.0
 21
-2.5
 72
     2
 10
2.5
 20
-2.5
 40
0.5
 50
180.0
 51
270.0
 73
     0
 72
     1
 10
2.5
 20
-2.0
 11
105.7499999999997
 21
-2.0
 72
     2
 10
105.7499999999997
 20
-1.75
 40
0.25
 50
270.0
 51
360.0
 73
     1
 72
     1
 10
105.9999999999998
 20
-1.75
 11
105.9999999999998
 21
-0.25
 72
     2
 10
105.7499999999997
 20
-0.25
 40
0.25
 50
0.0
 51
90.0
 73
     1
 72
     1
 10
105.7499999999997
 20
0.0
 11
100.7499999999998
 21
0.0
 72
     2
 10
100.7499999999998
 20
0.25
 40
0.25
 50
90.0
 51
180.0
 73
     0
 72
     1
 10
100.4999999999997
 20
0.25
 11
100.4999999999997
 21
3.0
 72
     1
 10
100.4999999999997
 20
3.0
 11
100.9999999999992
 21
2.999999999999993
 72
     2
 10
100.9999999999992
 20
3.250000000000006
 40
0.2500000000000124
 50
270.0
 51
382.3735070421803
 73
     1
 72
     1
 10
101.231180534412
 20
3.345160708848937
 11
100.4999999999998
 21
5.12146848064132
 72
     1
 10
100.4999999999998
 20
5.12146848064132
 11
100.4999999999997
 21
7.9955478446862
 72
     2
 10
99.99999999999978
 20
7.9955478446862
 40
0.5
 50
0.0
 51
180.0
 73
     1
 72
     1
 10
99.49999999999977
 20
7.9955478446862
 11
99.49999999999979
 21
0.25
 72
     2
 10
99.24999999999979
 20
0.25
 40
0.25
 50
360.0
 51
450.0
 73
     0
 72
     1
 10
99.24999999999979
 20
0.0
 11
6.75
 21
0.0
 72
     2
 10
6.75
 20
0.25
 40
0.25
 50
90.0
 51
180.0
 73
     0
 72
     1
 10
6.5
 20
0.25
 11
6.5
 21
7.9955478446862
 72
     2
 10
6.0
 20
7.9955478446862
 40
0.5
 50
0.0
 51
180.0
 73
     1
 72
     1
 10
5.5
 20
7.9955478446862
 11
5.5
 21
5.121468480641341
 72
     1
 10
5.5
 20
5.121468480641341
 11
4.768819465587796
 21
3.345160708848936
 72
     2
 10
5.000000000000571
 20
3.250000000000007
 40
0.2500000000000137
 50
157.6264929578202
 51
269.9999999999996
 73
     1
 72
     1
 10
5.000000000000569
 20
2.999999999999993
 11
5.5
 21
3.0
 72
     1
 10
5.5
 20
3.0
 11
5.5
 21
0.25
 97
        1
330
1DB1
 75
     0
 76
     1
 98
        1
 10
0.0
 20
0.0
  0
ENDBLK
  5
264
330
262
100
AcDbEntity
  8
0
100
AcDbBlockEnd
  0
BLOCK
  5
36E
330
36C
100
AcDbEntity
  8
0
100
AcDbBlockBegin
  2
9010250l
 70
     0
 10
0.0
 20
0.0
 30
0.0
  3
9010250l
  1

  0
LWPOLYLINE
  5
36D
330
36C
100
AcDbEntity
  8
APL Joinery
  6
Continuous
 62
   252
100
AcDbPolyline
 90
       35
 70
   129
 43
0.0
 10
6.44703759769132
 20
-5.223814239082557
 42
0.4340964952257526
 10
6.082059843849577
 20
-5.209309034231907
 42
-0.1536145893906839
 10
4.392218231910362
 20
-6.077348325469159
 42
-0.4648333009751577
 10
4.099999995644225
 20
-5.830938868413284
 10
4.099999995644225
 20
-4.651571529013864
 42
-0.2915390373815183
 10
4.388800495363284
 20
-4.198366530055267
 42
0.122912838877769
 10
6.56272970067701
 20
-2.437914397185934
 42
0.3152263475814818
 10
6.589934938151799
 20
-1.655903577981959
 10
6.531087620156512
 20
-1.56528665478649
 42
0.3630140704661038
 10
6.163200698857011
 20
-1.45213248458775
 42
-0.1219902707494916
 10
4.419208430897242
 20
-2.458282191302046
 42
-0.4989702342470917
 10
4.099999995644225
 20
-2.218052733304404
 10
4.099999995644338
 20
-1.17280761364293
 42
-0.3136800272017972
 10
4.426224443366351
 20
-0.7039770926329397
 42
0.1785411124350255
 10
6.636586807422759
 20
1.189434005323064
 42
0.1279718777770435
 10
6.699999995644247
 20
1.433138653988336
 10
6.699999995644247
 20
2.726869383082615
 42
0.4607623830565047
 10
6.411090109705128
 20
2.973822862054262
 10
0.2110901140605677
 20
1.99695347897159
 42
0.3941429072290372
 10
0.0009513254767768
 20
1.728211064312986
 10
0.1521502017843375
 20
-0.000000000000199
 10
1.699999995644247
 20
-0.000000000000199
 10
1.699999995644247
 20
-2.900000000000289
 10
1.199999995644247
 20
-2.900000000000289
 42
0.5486826681767417
 10
0.9734438043265214
 20
-3.255699064213771
 10
2.199999995644247
 20
-5.884709086297931
 10
2.199999995644247
 20
-6.364392571535034
 10
1.936602536022974
 20
-6.364392571535034
 42
0.5773502691896264
 10
1.731698725455132
 20
-6.71929638210301
 10
2.825833020563948
 20
-8.614392571535034
 42
0.2487009021145858
 10
3.222789489242927
 20
-8.863090825037559
 42
0.3109226116934106
 10
4.122894280104048
 20
-8.173236848605242
 42
-0.2088596723963019
 10
4.388553045802765
 20
-7.873849532333892
 42
0.1426663047989766
 10
6.629698845771201
 20
-5.921497873062122
 42
0.3321417186747404
 10
6.592250122233565
 20
-5.392085433604805
  0
ENDBLK
  5
36F
330
36C
100
AcDbEntity
  8
0
100
AcDbBlockEnd
  0
BLOCK
  5
660
330
65F
100
AcDbEntity
  8
0
100
AcDbBlockBegin
  2
08741
 70
     0
 10
0.0
 20
0.0
 30
0.0
  3
08741
  1
08741.dwg
  0
LWPOLYLINE
  5
1DB5
102
{ACAD_REACTORS
330
1DB6
102
}
330
65F
100
AcDbEntity
  8
APL Joinery
  6
Continuous
100
AcDbPolyline
 90
      234
 70
     1
 43
0.0
 10
5.475000494820513
 20
79.40000037182151
 10
5.475000494820513
 20
100.7500003718233
 42
0.4142135623730951
 10
5.225000494820513
 20
101.0000003718233
 10
4.725000494820513
 20
101.0000003718233
 42
-0.4142135623730951
 10
4.475000494820513
 20
101.2500003718233
 10
4.475000494820513
 20
101.7500003718233
 42
-0.4142135623730951
 10
4.725000494820513
 20
102.0000003718233
 10
5.475000494820513
 20
102.0000003718233
 10
5.475000494820513
 20
104.0000003718233
 10
0.3750004948205131
 20
104.0000003718233
 42
-0.9999999999999998
 10
-0.4249995051791231
 20
104.0000003718233
 10
-5.524999505179486
 20
104.0000003718233
 10
-5.524999505179486
 20
102.0000003718233
 10
-4.774999505179486
 20
102.0000003718233
 42
-0.4142135623730951
 10
-4.524999505179486
 20
101.7500003718233
 10
-4.524999505179486
 20
101.2500003718233
 42
-0.4142135623730951
 10
-4.774999505179486
 20
101.0000003718233
 10
-5.524999505179486
 20
101.0000003718233
 42
-0.4142135623730951
 10
-6.524999505179486
 20
102.0000003718233
 10
-6.524999505179486
 20
103.5000003718233
 42
0.4142135623730951
 10
-7.024999505179486
 20
104.0000003718251
 10
-9.324999505180578
 20
104.0000003718233
 42
0.4142135623730951
 10
-9.824999505180578
 20
103.5000003718233
 10
-9.824999505180578
 20
101.7500003718251
 42
-0.4142135623730951
 10
-10.07499950518058
 20
101.5000003718251
 10
-12.97499950517839
 20
101.5000003718251
 42
-0.9999999999999998
 10
-12.97499950517839
 20
102.5000003718251
 10
-11.77499950518039
 20
102.5000003718251
 42
0.4142135623730951
 10
-11.52499950518039
 20
102.7500003718251
 10
-11.52499950518039
 20
103.7500003718251
 42
0.4142135623730951
 10
-11.77499950518039
 20
104.0000003718251
 10
-18.97499950517931
 20
104.0000003718251
 42
0.4142135623730951
 10
-19.22499950517931
 20
103.7500003718251
 10
-19.22499950517931
 20
102.7500003718251
 42
0.4142135623730951
 10
-18.97499950517931
 20
102.5000003718251
 10
-18.47499950518022
 20
102.5000003718252
 42
-0.9999999999999998
 10
-18.47499950518022
 20
101.5000003718251
 10
-20.27499950517949
 20
101.5000003718251
 42
-0.4142135623730951
 10
-20.52499950517949
 20
101.7500003718251
 10
-20.52499950517949
 20
103.200000371824
 10
-22.2749995051795
 20
103.200000371824
 42
-0.4142135623730951
 10
-22.52499950517949
 20
103.4500003718249
 10
-22.52499950517949
 20
105.7500003718251
 42
-0.4142135623730951
 10
-22.2749995051795
 20
106.0000003718242
 10
22.2750004948207
 20
106.0000003718235
 42
-0.4142135623731054
 10
22.47500049482051
 20
105.8000003718235
 10
22.47500049482051
 20
101.4777305036805
 42
-0.3394542588634029
 10
22.10441001737173
 20
100.994767590536
 10
20.28970525609612
 20
100.508518915251
 42
-0.4931454260312739
 10
19.97500049482051
 20
100.7500003718233
 10
19.97500049482051
 20
101.7500003718233
 42
-0.4142135623730951
 10
20.22500049482051
 20
102.0000003718233
 10
20.97500049482051
 20
102.0000003718233
 10
20.97500049482051
 20
104.0000003718233
 10
15.87500049482051
 20
104.0000003718233
 42
-0.9999999999999998
 10
15.07500049482088
 20
104.0000003718233
 10
9.975000494820513
 20
104.0000003718233
 10
9.975000494820513
 20
102.0000003718233
 10
10.72500049482051
 20
102.0000003718233
 42
-0.4142135623730951
 10
10.97500049482051
 20
101.7500003718233
 10
10.97500049482051
 20
101.2500003718233
 42
-0.4142135623730951
 10
10.72500049482051
 20
101.0000003718233
 10
9.975000494820513
 20
101.0000003718233
 42
-0.4142135623730951
 10
8.975000494820513
 20
102.0000003718233
 10
8.975000494820513
 20
103.5000003718242
 42
0.4142135623730951
 10
8.475000494820513
 20
104.0000003718242
 42
0.4142135623730951
 10
7.475000494820513
 20
103.0000003718242
 10
7.475000494820513
 20
83.34511256831232
 42
0.5054633634288973
 10
8.123352143177431
 20
82.86762771155697
 42
-0.1886899672224732
 10
11.0674423553046
 20
82.65600862717299
 42
0.4674336148818817
 10
11.41617383981648
 20
82.81584426046435
 42
-0.3381387455418662
 10
11.65734718479553
 20
83.00000037182149
 10
12.42500049483761
 20
83.00000037182149
 42
-0.4142135623730951
 10
12.67500049483761
 20
82.75000037182149
 10
12.67500049483761
 20
75.25000037182149
 42
-0.4142135623730951
 10
12.42500049483761
 20
75.00000037182148
 10
11.67500049483761
 20
75.00000037182148
 42
-0.4142135623730951
 10
11.42500049483761
 20
75.25000037182149
 10
11.42500049483761
 20
75.94837290976084
 42
0.3563939586940901
 10
11.0250004948353
 20
76.43827085831796
 42
-0.5955450400375715
 10
10.64134664867708
 20
77.70010314387384
 42
0.403932488947799
 10
10.67045504029715
 20
80.26974525409354
 42
-0.1432248589117351
 10
10.4407622340925
 20
80.7197607449919
 42
0.2959768337489205
 10
8.209238755576231
 20
80.71976074498705
 42
-0.1432248589113567
 10
7.979545949378803
 20
80.26974525406702
 42
0.4039324889475198
 10
8.008654340995994
 20
77.70010314384004
 42
-0.5264686506372211
 10
7.775000494832065
 20
76.48573142694873
 42
0.2982166267054693
 10
7.475000494820513
 20
76.0274738574481
 10
7.475000494820513
 20
54.2500003718233
 42
0.4142135623730951
 10
7.975000494820513
 20
53.7500003718233
 10
22.22500049482051
 20
53.7500003718233
 42
-0.4142135623730951
 10
22.47500049482051
 20
53.5000003718233
 10
22.47500049482051
 20
52.5000003718233
 42
-0.4142135623730951
 10
22.22500049482051
 20
52.2500003718233
 10
7.975000494820513
 20
52.2500003718233
 42
0.4142135623730951
 10
7.475000494820513
 20
51.7500003718233
 10
7.475000494820513
 20
31.34511256833439
 42
0.5054633634290352
 10
8.123352143177429
 20
30.86762771157971
 42
-0.1886899672224732
 10
11.0674423553046
 20
30.65600862719482
 42
0.4674336148818638
 10
11.41617383981648
 20
30.81584426048618
 42
-0.3381387455418686
 10
11.65734718479553
 20
31.00000037184332
 10
12.42500049483761
 20
31.00000037184332
 42
-0.4142135623730951
 10
12.67500049483761
 20
30.75000037184331
 10
12.67500049483761
 20
23.25000037184331
 42
-0.4142135623730951
 10
12.42500049483761
 20
23.00000037184331
 10
11.67500049483761
 20
23.00000037184331
 42
-0.4142135623730951
 10
11.42500049483761
 20
23.25000037184331
 10
11.42500049483761
 20
23.94837290978266
 42
0.3563939586940881
 10
11.0250004948353
 20
24.43827085833979
 42
-0.5955450400375728
 10
10.64134664867708
 20
25.70010314389567
 42
0.403932488947799
 10
10.67045504029715
 20
28.26974525411627
 42
-0.1432248589117349
 10
10.4407622340925
 20
28.71976074501373
 42
0.2959768337489212
 10
8.209238755576231
 20
28.7197607450098
 42
-0.1432248589113565
 10
7.979545949378803
 20
28.26974525408885
 42
0.4039324889475199
 10
8.008654340995994
 20
25.70010314386278
 42
-0.526468650637221
 10
7.775000494832065
 20
24.48573142697056
 42
0.2982166267054698
 10
7.475000494820513
 20
24.02747385746993
 10
7.475000494820513
 20
3.000000371823304
 42
0.4142135623730951
 10
8.475000494820513
 20
2.000000371823304
 42
0.4142135623730951
 10
8.975000494820513
 20
2.500000371823304
 10
8.975000494820513
 20
4.000000371823304
 42
-0.4142135623730951
 10
9.975000494820513
 20
5.000000371823304
 10
10.72500049482051
 20
5.000000371823304
 42
-0.4142135623730951
 10
10.97500049482051
 20
4.750000371823304
 10
10.97500049482051
 20
4.250000371823304
 42
-0.4142135623730951
 10
10.72500049482051
 20
4.000000371823304
 10
9.975000494820513
 20
4.000000371823304
 10
9.975000494820513
 20
2.000000371823304
 10
15.07500049482051
 20
2.000000371823304
 42
-0.9999999999999998
 10
15.87500049482106
 20
2.000000371823304
 10
20.97500049482051
 20
2.000000371823304
 10
20.97500049482051
 20
4.000000371823304
 10
20.22500049482051
 20
4.000000371823304
 42
-0.4142135623730951
 10
19.97500049482051
 20
4.250000371823304
 10
19.97500049482051
 20
5.250000371823304
 42
-0.4931454260312746
 10
20.28970525609612
 20
5.491481828396032
 10
22.10441001737173
 20
5.005233153111517
 42
-0.3394542588634027
 10
22.47500049482051
 20
4.522270239966971
 10
22.4750004948207
 20
0.2000003718240322
 42
-0.4142135623730977
 10
22.2750004948207
 20
0.0000003718233046
 10
-22.2749995051795
 20
0.0000003718233046
 42
-0.4142135623730951
 10
-22.52499950517949
 20
0.2500003718233046
 10
-22.52499950517949
 20
2.550000371823486
 42
-0.4142135623730951
 10
-22.2749995051795
 20
2.800000371823486
 10
-20.52499950517949
 20
2.800000371823486
 10
-20.52499950517949
 20
4.250000371823304
 42
-0.4142135623730951
 10
-20.27499950517949
 20
4.500000371823304
 10
-18.47499950518022
 20
4.500000371823389
 42
-0.9999999999999998
 10
-18.47499950518022
 20
3.500000371823304
 10
-18.97499950517931
 20
3.500000371823304
 42
0.4142135623730951
 10
-19.22499950517931
 20
3.250000371823304
 10
-19.22499950517931
 20
2.250000371823304
 42
0.4142135623730951
 10
-18.97499950517931
 20
2.000000371823304
 10
-11.77499950518039
 20
2.000000371823304
 42
0.4142135623730951
 10
-11.52499950518039
 20
2.250000371823304
 10
-11.52499950518039
 20
3.250000371823304
 42
0.4142135623730951
 10
-11.77499950518039
 20
3.500000371823304
 10
-12.97499950517839
 20
3.500000371823304
 42
-0.9999999999999998
 10
-12.97499950517839
 20
4.500000371823304
 10
-10.07499950518058
 20
4.500000371823304
 42
-0.4142135623730951
 10
-9.824999505180578
 20
4.250000371823304
 10
-9.824999505180578
 20
2.500000371825123
 42
0.4142135623730951
 10
-9.324999505180578
 20
2.000000371823304
 10
-7.024999505179486
 20
2.000000371823304
 42
0.4142135623730951
 10
-6.524999505179486
 20
2.500000371823304
 10
-6.524999505179486
 20
4.000000371823304
 42
-0.4142135623730951
 10
-5.524999505179486
 20
5.000000371823304
 10
-4.774999505179486
 20
5.000000371823304
 42
-0.4142135623730951
 10
-4.524999505179486
 20
4.750000371823304
 10
-4.524999505179486
 20
4.250000371823304
 42
-0.4142135623730951
 10
-4.774999505179486
 20
4.000000371823304
 10
-5.524999505179486
 20
4.000000371823304
 10
-5.524999505179486
 20
2.000000371823304
 10
-0.4249995051794869
 20
2.000000371823304
 42
-0.9999999999999998
 10
0.3750004948210588
 20
2.000000371823304
 10
5.475000494820513
 20
2.000000371823304
 10
5.475000494820513
 20
4.000000371823304
 10
4.725000494820513
 20
4.000000371823304
 42
-0.4142135623730951
 10
4.475000494820513
 20
4.250000371823304
 10
4.475000494820513
 20
4.750000371823304
 42
-0.4142135623730951
 10
4.725000494820513
 20
5.000000371823304
 10
5.225000494820513
 20
5.000000371823304
 42
0.4142135623730951
 10
5.475000494820513
 20
5.250000371823304
 10
5.47500049482052
 20
26.60000037184332
 10
5.875000494820156
 20
27.0000003718433
 10
5.475000494820513
 20
27.40000037184328
 10
5.475000494820513
 20
51.0000003718233
 42
0.4142135623730951
 10
4.475000494820513
 20
52.00000037182331
 10
-9.324999505180578
 20
52.00000037182331
 42
0.4142135623730951
 10
-9.824999505180578
 20
51.5000003718233
 10
-9.824999505180578
 20
49.7500003718233
 42
-0.4142135623730951
 10
-10.07499950518058
 20
49.50000037182331
 10
-12.97499950517839
 20
49.50000037182331
 42
-0.9999999999999998
 10
-12.97499950517839
 20
50.5000003718233
 10
-11.77499950518039
 20
50.5000003718233
 42
0.4142135623730951
 10
-11.52499950518039
 20
50.75000037182331
 10
-11.52499950518039
 20
51.7500003718233
 42
0.4142135623730951
 10
-11.77499950518039
 20
52.00000037182331
 10
-18.97499950517931
 20
52.00000037182331
 42
0.4142135623730951
 10
-19.22499950517931
 20
51.7500003718233
 10
-19.22499950517931
 20
50.75000037182331
 42
0.4142135623730951
 10
-18.97499950517931
 20
50.5000003718233
 10
-18.47499950518022
 20
50.50000037182339
 42
-0.9999999999999998
 10
-18.47499950518022
 20
49.50000037182331
 10
-20.27499950517949
 20
49.50000037182331
 42
-0.4142135623730951
 10
-20.52499950517949
 20
49.7500003718233
 10
-20.52499950517949
 20
51.20000037182403
 10
-22.2749995051795
 20
51.20000037182403
 42
-0.4142135623730951
 10
-22.52499950517949
 20
51.45000037182403
 10
-22.52499950517949
 20
54.55000037182348
 42
-0.4142135623730951
 10
-22.2749995051795
 20
54.80000037182349
 10
-20.52499950517949
 20
54.80000037182349
 10
-20.52499950517949
 20
56.2500003718233
 42
-0.4142135623730951
 10
-20.27499950517949
 20
56.5000003718233
 10
-18.47499950518022
 20
56.50000037182339
 42
-0.9999999999999998
 10
-18.47499950518022
 20
55.5000003718233
 10
-18.97499950517931
 20
55.5000003718233
 42
0.4142135623730951
 10
-19.22499950517931
 20
55.2500003718233
 10
-19.22499950517931
 20
54.2500003718233
 42
0.4142135623730951
 10
-18.97499950517931
 20
54.0000003718233
 10
-11.77499950518039
 20
54.0000003718233
 42
0.4142135623730951
 10
-11.52499950518039
 20
54.2500003718233
 10
-11.52499950518039
 20
55.2500003718233
 42
0.4142135623730951
 10
-11.77499950518039
 20
55.5000003718233
 10
-12.97499950517839
 20
55.5000003718233
 42
-0.9999999999999998
 10
-12.97499950517839
 20
56.5000003718233
 10
-10.07499950518058
 20
56.5000003718233
 42
-0.4142135623730951
 10
-9.824999505180578
 20
56.2500003718233
 10
-9.824999505180578
 20
54.50000037182512
 42
0.4142135623730951
 10
-9.324999505180578
 20
54.0000003718233
 10
4.475000494820513
 20
54.0000003718233
 42
0.4142135623730951
 10
5.475000494820513
 20
55.0000003718233
 10
5.475000494820562
 20
78.6000003718215
 10
5.875000494820199
 20
79.00000037182147
  0
HATCH
  5
1DB6
330
65F
100
AcDbEntity
  8
APL Hatch
100
AcDbHatch
 10
0.0
 20
0.0
 30
0.0
210
0.0
220
0.0
230
1.0
  2
SOLID
 70
     1
 71
     1
 91
        1
 92
        1
 93
      234
 72
     1
 10
5.475000494820513
 20
79.40000037182151
 11
5.475000494820513
 21
100.7500003718233
 72
     2
 10
5.225000494820513
 20
100.7500003718233
 40
0.25
 50
0.0
 51
90.0
 73
     1
 72
     1
 10
5.225000494820513
 20
101.0000003718233
 11
4.725000494820513
 21
101.0000003718233
 72
     2
 10
4.725000494820513
 20
101.2500003718233
 40
0.25
 50
90.0
 51
180.0
 73
     0
 72
     1
 10
4.475000494820513
 20
101.2500003718233
 11
4.475000494820513
 21
101.7500003718233
 72
     2
 10
4.725000494820513
 20
101.7500003718233
 40
0.25
 50
180.0
 51
270.0
 73
     0
 72
     1
 10
4.725000494820513
 20
102.0000003718233
 11
5.475000494820513
 21
102.0000003718233
 72
     1
 10
5.475000494820513
 20
102.0000003718233
 11
5.475000494820513
 21
104.0000003718233
 72
     1
 10
5.475000494820513
 20
104.0000003718233
 11
0.3750004948205134
 21
104.0000003718233
 72
     2
 10
-0.024999505179305
 20
104.0000003718233
 40
0.3999999999998181
 50
360.0
 51
540.0
 73
     0
 72
     1
 10
-0.4249995051791231
 20
104.0000003718233
 11
-5.524999505179486
 21
104.0000003718233
 72
     1
 10
-5.524999505179486
 20
104.0000003718233
 11
-5.524999505179486
 21
102.0000003718233
 72
     1
 10
-5.524999505179486
 20
102.0000003718233
 11
-4.774999505179486
 21
102.0000003718233
 72
     2
 10
-4.774999505179486
 20
101.7500003718233
 40
0.25
 50
270.0
 51
360.0
 73
     0
 72
     1
 10
-4.524999505179486
 20
101.7500003718233
 11
-4.524999505179486
 21
101.2500003718233
 72
     2
 10
-4.774999505179486
 20
101.2500003718233
 40
0.25
 50
360.0
 51
450.0
 73
     0
 72
     1
 10
-4.774999505179486
 20
101.0000003718233
 11
-5.524999505179486
 21
101.0000003718233
 72
     2
 10
-5.524999505179486
 20
102.0000003718233
 40
1.0
 50
90.0
 51
180.0
 73
     0
 72
     1
 10
-6.524999505179486
 20
102.0000003718233
 11
-6.524999505179486
 21
103.5000003718233
 72
     2
 10
-7.024999505180396
 20
103.5000003718242
 40
0.5000000000009095
 50
359.9999999998958
 51
449.9999999998958
 73
     1
 72
     1
 10
-7.024999505179486
 20
104.0000003718251
 11
-9.324999505180578
 21
104.0000003718233
 72
     2
 10
-9.324999505180578
 20
103.5000003718233
 40
0.5
 50
90.0
 51
180.0
 73
     1
 72
     1
 10
-9.824999505180578
 20
103.5000003718233
 11
-9.824999505180578
 21
101.7500003718251
 72
     2
 10
-10.07499950518058
 20
101.7500003718251
 40
0.25
 50
360.0
 51
450.0
 73
     0
 72
     1
 10
-10.07499950518058
 20
101.5000003718251
 11
-12.97499950517839
 21
101.5000003718251
 72
     2
 10
-12.97499950517839
 20
102.0000003718251
 40
0.5
 50
90.0
 51
270.0
 73
     0
 72
     1
 10
-12.97499950517839
 20
102.5000003718251
 11
-11.77499950518039
 21
102.5000003718251
 72
     2
 10
-11.77499950518039
 20
102.7500003718251
 40
0.25
 50
270.0
 51
360.0
 73
     1
 72
     1
 10
-11.52499950518039
 20
102.7500003718251
 11
-11.52499950518039
 21
103.7500003718251
 72
     2
 10
-11.77499950518039
 20
103.7500003718251
 40
0.25
 50
0.0
 51
90.0
 73
     1
 72
     1
 10
-11.77499950518039
 20
104.0000003718251
 11
-18.97499950517931
 21
104.0000003718251
 72
     2
 10
-18.97499950517931
 20
103.7500003718251
 40
0.25
 50
90.0
 51
180.0
 73
     1
 72
     1
 10
-19.22499950517931
 20
103.7500003718251
 11
-19.22499950517931
 21
102.7500003718251
 72
     2
 10
-18.97499950517931
 20
102.7500003718251
 40
0.25
 50
180.0
 51
270.0
 73
     1
 72
     1
 10
-18.97499950517931
 20
102.5000003718251
 11
-18.47499950518022
 21
102.5000003718252
 72
     2
 10
-18.47499950518022
 20
102.0000003718251
 40
0.5000000000000427
 50
270.0
 51
450.0
 73
     0
 72
     1
 10
-18.47499950518022
 20
101.5000003718251
 11
-20.27499950517949
 21
101.5000003718251
 72
     2
 10
-20.27499950517949
 20
101.7500003718251
 40
0.25
 50
90.0
 51
180.0
 73
     0
 72
     1
 10
-20.52499950517949
 20
101.7500003718251
 11
-20.52499950517949
 21
103.200000371824
 72
     1
 10
-20.52499950517949
 20
103.200000371824
 11
-22.2749995051795
 21
103.200000371824
 72
     2
 10
-22.27499950517904
 20
103.4500003718245
 40
0.2500000000004547
 50
90.00000000010421
 51
180.0000000001042
 73
     0
 72
     1
 10
-22.52499950517949
 20
103.4500003718249
 11
-22.52499950517949
 21
105.7500003718251
 72
     2
 10
-22.27499950517995
 20
105.7500003718246
 40
0.2499999999995452
 50
180.0000000001042
 51
270.0000000001042
 73
     0
 72
     1
 10
-22.2749995051795
 20
106.0000003718242
 11
22.2750004948207
 21
106.0000003718235
 72
     2
 10
22.27500049482061
 20
105.8000003718235
 40
0.1999999999999034
 50
270.0000000000255
 51
360.0000000000285
 73
     0
 72
     1
 10
22.47500049482051
 20
105.8000003718235
 11
22.47500049482051
 21
101.4777305036805
 72
     2
 10
21.97500049482052
 20
101.4777305036805
 40
0.5
 50
360.0
 51
435.0000000000055
 73
     0
 72
     1
 10
22.10441001737173
 20
100.994767590536
 11
20.28970525609612
 21
100.508518915251
 72
     2
 10
20.22500049482051
 20
100.7500003718233
 40
0.2500000000000003
 50
75.00000000000555
 51
180.0
 73
     0
 72
     1
 10
19.97500049482051
 20
100.7500003718233
 11
19.97500049482051
 21
101.7500003718233
 72
     2
 10
20.22500049482051
 20
101.7500003718233
 40
0.25
 50
180.0
 51
270.0
 73
     0
 72
     1
 10
20.22500049482051
 20
102.0000003718233
 11
20.97500049482051
 21
102.0000003718233
 72
     1
 10
20.97500049482051
 20
102.0000003718233
 11
20.97500049482051
 21
104.0000003718233
 72
     1
 10
20.97500049482051
 20
104.0000003718233
 11
15.87500049482051
 21
104.0000003718233
 72
     2
 10
15.47500049482069
 20
104.0000003718233
 40
0.3999999999998192
 50
360.0
 51
540.0
 73
     0
 72
     1
 10
15.07500049482088
 20
104.0000003718233
 11
9.975000494820513
 21
104.0000003718233
 72
     1
 10
9.975000494820513
 20
104.0000003718233
 11
9.975000494820513
 21
102.0000003718233
 72
     1
 10
9.975000494820513
 20
102.0000003718233
 11
10.72500049482051
 21
102.0000003718233
 72
     2
 10
10.72500049482051
 20
101.7500003718233
 40
0.25
 50
270.0
 51
360.0
 73
     0
 72
     1
 10
10.97500049482051
 20
101.7500003718233
 11
10.97500049482051
 21
101.2500003718233
 72
     2
 10
10.72500049482051
 20
101.2500003718233
 40
0.25
 50
360.0
 51
450.0
 73
     0
 72
     1
 10
10.72500049482051
 20
101.0000003718233
 11
9.975000494820513
 21
101.0000003718233
 72
     2
 10
9.975000494820513
 20
102.0000003718233
 40
1.0
 50
90.0
 51
180.0
 73
     0
 72
     1
 10
8.975000494820513
 20
102.0000003718233
 11
8.975000494820513
 21
103.5000003718242
 72
     2
 10
8.475000494820513
 20
103.5000003718242
 40
0.5
 50
0.0
 51
90.0
 73
     1
 72
     2
 10
8.475000494820513
 20
103.0000003718242
 40
1.0
 50
90.0
 51
180.0
 73
     1
 72
     1
 10
7.475000494820513
 20
103.0000003718242
 11
7.475000494820513
 21
83.34511256831232
 72
     2
 10
7.975000494820744
 20
83.34511256831168
 40
0.5000000000002319
 50
179.9999999999267
 51
287.2597026420672
 73
     1
 72
     2
 10
9.325000494871696
 20
79.00000037184885
 40
4.049999999998414
 50
252.740297357842
 51
295.4823197688353
 73
     0
 72
     2
 10
11.17500049483742
 20
82.88168814910653
 40
0.2499999999998244
 50
244.5176802311777
 51
344.7295496945629
 73
     1
 72
     2
 10
11.65734718479553
 20
82.75000037182149
 40
0.2499999999999995
 50
195.2704503055917
 51
270.0000000000004
 73
     0
 72
     1
 10
11.65734718479553
 20
83.00000037182149
 11
12.42500049483761
 21
83.00000037182149
 72
     2
 10
12.42500049483761
 20
82.75000037182149
 40
0.25
 50
270.0
 51
360.0
 73
     0
 72
     1
 10
12.67500049483761
 20
82.75000037182149
 11
12.67500049483761
 21
75.25000037182149
 72
     2
 10
12.42500049483761
 20
75.25000037182149
 40
0.25
 50
360.0
 51
450.0
 73
     0
 72
     1
 10
12.42500049483761
 20
75.00000037182148
 11
11.67500049483761
 21
75.00000037182148
 72
     2
 10
11.67500049483761
 20
75.25000037182149
 40
0.25
 50
90.0
 51
180.0
 73
     0
 72
     1
 10
11.42500049483761
 20
75.25000037182149
 11
11.42500049483761
 21
75.94837290976084
 72
     2
 10
10.92500049483777
 20
75.94837290976099
 40
0.4999999999998366
 50
359.9999999999821
 51
438.4630409674697
 73
     1
 72
     2
 10
11.17500049483465
 20
77.17311778116919
 40
0.750000000015821
 50
101.5369590325182
 51
224.6397729594216
 73
     0
 72
     2
 10
9.325000494854526
 20
79.00000037182127
 40
1.849999999975364
 50
315.3602270411295
 51
403.3417582269514
 73
     1
 72
     2
 10
11.32500049483492
 20
80.8874589806181
 40
0.8999999999960655
 50
136.6582417723295
 51
169.2612357596151
 73
     0
 72
     2
 10
9.3250004948381
 20
79.00000037178083
 40
2.050000000012461
 50
57.02493340712795
 51
122.9750665931209
 73
     1
 72
     2
 10
7.325000494798256
 20
80.88745898059114
 40
0.90000000002688
 50
10.73876423858011
 51
43.34175822578063
 73
     0
 72
     2
 10
9.325000494825047
 20
79.00000037178964
 40
1.849999999981502
 50
136.6582417730101
 51
224.6397729587771
 73
     1
 72
     2
 10
7.4750004948605
 20
77.17311778117458
 40
0.7499999999725651
 50
315.3602270415239
 51
426.4218215232535
 73
     0
 72
     2
 10
7.975000494820518
 20
76.0274738574481
 40
0.5000000000000071
 50
113.5781784767577
 51
180.0
 73
     1
 72
     1
 10
7.475000494820513
 20
76.0274738574481
 11
7.475000494820513
 21
54.2500003718233
 72
     2
 10
7.975000494820513
 20
54.2500003718233
 40
0.5
 50
180.0
 51
270.0
 73
     1
 72
     1
 10
7.975000494820513
 20
53.7500003718233
 11
22.22500049482051
 21
53.7500003718233
 72
     2
 10
22.22500049482051
 20
53.5000003718233
 40
0.25
 50
270.0
 51
360.0
 73
     0
 72
     1
 10
22.47500049482051
 20
53.5000003718233
 11
22.47500049482051
 21
52.5000003718233
 72
     2
 10
22.22500049482051
 20
52.5000003718233
 40
0.25
 50
360.0
 51
450.0
 73
     0
 72
     1
 10
22.22500049482051
 20
52.2500003718233
 11
7.975000494820513
 21
52.2500003718233
 72
     2
 10
7.975000494820513
 20
51.7500003718233
 40
0.5
 50
90.0
 51
180.0
 73
     1
 72
     1
 10
7.475000494820513
 20
51.7500003718233
 11
7.475000494820513
 21
31.34511256833439
 72
     2
 10
7.97500049482041
 20
31.34511256833398
 40
0.499999999999897
 50
179.9999999999536
 51
287.2597026421189
 73
     1
 72
     2
 10
9.325000494870522
 20
27.00000037187114
 40
4.049999999998504
 50
252.7402973578598
 51
295.482319768853
 73
     0
 72
     2
 10
11.17500049483741
 20
30.88168814912837
 40
0.2499999999998325
 50
244.5176802311796
 51
344.7295496945608
 73
     1
 72
     2
 10
11.65734718479553
 20
30.75000037184331
 40
0.2500000000000002
 50
195.2704503055908
 51
270.0
 73
     0
 72
     1
 10
11.65734718479553
 20
31.00000037184332
 11
12.42500049483761
 21
31.00000037184332
 72
     2
 10
12.42500049483761
 20
30.75000037184331
 40
0.25
 50
270.0
 51
360.0
 73
     0
 72
     1
 10
12.67500049483761
 20
30.75000037184331
 11
12.67500049483761
 21
23.25000037184331
 72
     2
 10
12.42500049483761
 20
23.25000037184331
 40
0.25
 50
360.0
 51
450.0
 73
     0
 72
     1
 10
12.42500049483761
 20
23.00000037184331
 11
11.67500049483761
 21
23.00000037184331
 72
     2
 10
11.67500049483761
 20
23.25000037184331
 40
0.25
 50
90.0
 51
180.0
 73
     0
 72
     1
 10
11.42500049483761
 20
23.25000037184331
 11
11.42500049483761
 21
23.94837290978266
 72
     2
 10
10.92500049483777
 20
23.94837290978281
 40
0.4999999999998348
 50
359.9999999999829
 51
438.4630409674699
 73
     1
 72
     2
 10
11.17500049483465
 20
25.17311778119101
 40
0.7500000000158136
 50
101.5369590325182
 51
224.6397729594221
 73
     0
 72
     2
 10
9.32500049485405
 20
27.00000037184355
 40
1.849999999976022
 50
315.3602270411298
 51
403.3417582269517
 73
     1
 72
     2
 10
11.32500049483336
 20
28.88745898064039
 40
0.8999999999946254
 50
136.6582417722825
 51
169.2612357595679
 73
     0
 72
     2
 10
9.325000494837397
 20
27.00000037180312
 40
2.050000000012456
 50
57.02493340710443
 51
122.9750665930975
 73
     1
 72
     2
 10
7.3250004947967
 20
28.88745898061344
 40
0.9000000000283247
 50
10.73876423853345
 51
43.34175822573387
 73
     0
 72
     2
 10
9.325000494824578
 20
27.00000037181192
 40
1.849999999980856
 50
136.6582417730101
 51
224.6397729587771
 73
     1
 72
     2
 10
7.475000494860187
 20
25.17311778119687
 40
0.7499999999731078
 50
315.360227041516
 51
426.4218215232456
 73
     0
 72
     2
 10
7.975000494820514
 20
24.02747385746993
 40
0.5000000000000023
 50
113.5781784767575
 51
180.0
 73
     1
 72
     1
 10
7.475000494820513
 20
24.02747385746993
 11
7.475000494820513
 21
3.000000371823304
 72
     2
 10
8.475000494820513
 20
3.000000371823304
 40
1.0
 50
180.0
 51
270.0
 73
     1
 72
     2
 10
8.475000494820513
 20
2.500000371823304
 40
0.5
 50
270.0
 51
360.0
 73
     1
 72
     1
 10
8.975000494820513
 20
2.500000371823304
 11
8.975000494820513
 21
4.000000371823304
 72
     2
 10
9.975000494820513
 20
4.000000371823304
 40
1.0
 50
180.0
 51
270.0
 73
     0
 72
     1
 10
9.975000494820513
 20
5.000000371823304
 11
10.72500049482051
 21
5.000000371823304
 72
     2
 10
10.72500049482051
 20
4.750000371823304
 40
0.25
 50
270.0
 51
360.0
 73
     0
 72
     1
 10
10.97500049482051
 20
4.750000371823304
 11
10.97500049482051
 21
4.250000371823304
 72
     2
 10
10.72500049482051
 20
4.250000371823304
 40
0.25
 50
360.0
 51
450.0
 73
     0
 72
     1
 10
10.72500049482051
 20
4.000000371823304
 11
9.975000494820513
 21
4.000000371823304
 72
     1
 10
9.975000494820513
 20
4.000000371823304
 11
9.975000494820513
 21
2.000000371823304
 72
     1
 10
9.975000494820513
 20
2.000000371823304
 11
15.07500049482051
 21
2.000000371823304
 72
     2
 10
15.47500049482079
 20
2.000000371823304
 40
0.400000000000274
 50
180.0
 51
360.0
 73
     0
 72
     1
 10
15.87500049482106
 20
2.000000371823304
 11
20.97500049482051
 21
2.000000371823304
 72
     1
 10
20.97500049482051
 20
2.000000371823304
 11
20.97500049482051
 21
4.000000371823304
 72
     1
 10
20.97500049482051
 20
4.000000371823304
 11
20.22500049482051
 21
4.000000371823304
 72
     2
 10
20.22500049482051
 20
4.250000371823304
 40
0.25
 50
90.0
 51
180.0
 73
     0
 72
     1
 10
19.97500049482051
 20
4.250000371823304
 11
19.97500049482051
 21
5.250000371823304
 72
     2
 10
20.22500049482069
 20
5.250000371823531
 40
0.2500000000001741
 50
179.9999999999479
 51
284.9999999999424
 73
     0
 72
     1
 10
20.28970525609612
 20
5.491481828396032
 11
22.10441001737173
 21
5.005233153111517
 72
     2
 10
21.97500049482052
 20
4.522270239966971
 40
0.4999999999999997
 50
284.9999999999945
 51
360.0
 73
     0
 72
     1
 10
22.47500049482051
 20
4.522270239966971
 11
22.4750004948207
 21
0.2000003718240322
 72
     2
 10
22.27500049482033
 20
0.2000003718236671
 40
0.2000000000003617
 50
359.9999999998954
 51
449.9999999998961
 73
     0
 72
     1
 10
22.2750004948207
 20
0.0000003718233046
 11
-22.2749995051795
 21
0.0000003718233046
 72
     2
 10
-22.2749995051795
 20
0.2500003718233046
 40
0.25
 50
90.0
 51
180.0
 73
     0
 72
     1
 10
-22.52499950517949
 20
0.2500003718233046
 11
-22.52499950517949
 21
2.550000371823486
 72
     2
 10
-22.2749995051795
 20
2.550000371823486
 40
0.25
 50
180.0
 51
270.0
 73
     0
 72
     1
 10
-22.2749995051795
 20
2.800000371823486
 11
-20.52499950517949
 21
2.800000371823486
 72
     1
 10
-20.52499950517949
 20
2.800000371823486
 11
-20.52499950517949
 21
4.250000371823304
 72
     2
 10
-20.27499950517949
 20
4.250000371823304
 40
0.25
 50
180.0
 51
270.0
 73
     0
 72
     1
 10
-20.27499950517949
 20
4.500000371823304
 11
-18.47499950518022
 21
4.500000371823389
 72
     2
 10
-18.47499950518022
 20
4.000000371823347
 40
0.5000000000000427
 50
270.0
 51
450.0
 73
     0
 72
     1
 10
-18.47499950518022
 20
3.500000371823304
 11
-18.97499950517931
 21
3.500000371823304
 72
     2
 10
-18.97499950517931
 20
3.250000371823304
 40
0.25
 50
90.0
 51
180.0
 73
     1
 72
     1
 10
-19.22499950517931
 20
3.250000371823304
 11
-19.22499950517931
 21
2.250000371823304
 72
     2
 10
-18.97499950517931
 20
2.250000371823304
 40
0.25
 50
180.0
 51
270.0
 73
     1
 72
     1
 10
-18.97499950517931
 20
2.000000371823304
 11
-11.77499950518039
 21
2.000000371823304
 72
     2
 10
-11.77499950518039
 20
2.250000371823304
 40
0.25
 50
270.0
 51
360.0
 73
     1
 72
     1
 10
-11.52499950518039
 20
2.250000371823304
 11
-11.52499950518039
 21
3.250000371823304
 72
     2
 10
-11.77499950518039
 20
3.250000371823304
 40
0.25
 50
0.0
 51
90.0
 73
     1
 72
     1
 10
-11.77499950518039
 20
3.500000371823304
 11
-12.97499950517839
 21
3.500000371823304
 72
     2
 10
-12.97499950517839
 20
4.000000371823304
 40
0.5
 50
90.0
 51
270.0
 73
     0
 72
     1
 10
-12.97499950517839
 20
4.500000371823304
 11
-10.07499950518058
 21
4.500000371823304
 72
     2
 10
-10.07499950518058
 20
4.250000371823304
 40
0.25
 50
270.0
 51
360.0
 73
     0
 72
     1
 10
-9.824999505180578
 20
4.250000371823304
 11
-9.824999505180578
 21
2.500000371825123
 72
     2
 10
-9.324999505179668
 20
2.500000371824214
 40
0.5000000000009095
 50
179.9999999998957
 51
269.9999999998958
 73
     1
 72
     1
 10
-9.324999505180578
 20
2.000000371823304
 11
-7.024999505179486
 21
2.000000371823304
 72
     2
 10
-7.024999505179486
 20
2.500000371823304
 40
0.5
 50
270.0
 51
360.0
 73
     1
 72
     1
 10
-6.524999505179486
 20
2.500000371823304
 11
-6.524999505179486
 21
4.000000371823304
 72
     2
 10
-5.524999505179486
 20
4.000000371823304
 40
1.0
 50
180.0
 51
270.0
 73
     0
 72
     1
 10
-5.524999505179486
 20
5.000000371823304
 11
-4.774999505179486
 21
5.000000371823304
 72
     2
 10
-4.774999505179486
 20
4.750000371823304
 40
0.25
 50
270.0
 51
360.0
 73
     0
 72
     1
 10
-4.524999505179486
 20
4.750000371823304
 11
-4.524999505179486
 21
4.250000371823304
 72
     2
 10
-4.774999505179486
 20
4.250000371823304
 40
0.25
 50
360.0
 51
450.0
 73
     0
 72
     1
 10
-4.774999505179486
 20
4.000000371823304
 11
-5.524999505179486
 21
4.000000371823304
 72
     1
 10
-5.524999505179486
 20
4.000000371823304
 11
-5.524999505179486
 21
2.000000371823304
 72
     1
 10
-5.524999505179486
 20
2.000000371823304
 11
-0.4249995051794873
 21
2.000000371823304
 72
     2
 10
-0.0249995051792141
 20
2.000000371823304
 40
0.4000000000002729
 50
180.0
 51
360.0
 73
     0
 72
     1
 10
0.3750004948210588
 20
2.000000371823304
 11
5.475000494820513
 21
2.000000371823304
 72
     1
 10
5.475000494820513
 20
2.000000371823304
 11
5.475000494820513
 21
4.000000371823304
 72
     1
 10
5.475000494820513
 20
4.000000371823304
 11
4.725000494820513
 21
4.000000371823304
 72
     2
 10
4.725000494820513
 20
4.250000371823304
 40
0.25
 50
90.0
 51
180.0
 73
     0
 72
     1
 10
4.475000494820513
 20
4.250000371823304
 11
4.475000494820513
 21
4.750000371823304
 72
     2
 10
4.725000494820513
 20
4.750000371823304
 40
0.25
 50
180.0
 51
270.0
 73
     0
 72
     1
 10
4.725000494820513
 20
5.000000371823304
 11
5.225000494820513
 21
5.000000371823304
 72
     2
 10
5.225000494820513
 20
5.250000371823304
 40
0.25
 50
270.0
 51
360.0
 73
     1
 72
     1
 10
5.475000494820513
 20
5.250000371823304
 11
5.47500049482052
 21
26.60000037184332
 72
     1
 10
5.47500049482052
 20
26.60000037184332
 11
5.875000494820156
 21
27.0000003718433
 72
     1
 10
5.875000494820156
 20
27.0000003718433
 11
5.475000494820513
 21
27.40000037184328
 72
     1
 10
5.475000494820513
 20
27.40000037184328
 11
5.475000494820513
 21
51.0000003718233
 72
     2
 10
4.475000494820513
 20
51.0000003718233
 40
1.0
 50
0.0
 51
90.0
 73
     1
 72
     1
 10
4.475000494820513
 20
52.00000037182331
 11
-9.324999505180578
 21
52.00000037182331
 72
     2
 10
-9.324999505180578
 20
51.5000003718233
 40
0.5
 50
90.0
 51
180.0
 73
     1
 72
     1
 10
-9.824999505180578
 20
51.5000003718233
 11
-9.824999505180578
 21
49.7500003718233
 72
     2
 10
-10.07499950518058
 20
49.7500003718233
 40
0.25
 50
360.0
 51
450.0
 73
     0
 72
     1
 10
-10.07499950518058
 20
49.50000037182331
 11
-12.97499950517839
 21
49.50000037182331
 72
     2
 10
-12.97499950517839
 20
50.0000003718233
 40
0.5
 50
90.0
 51
270.0
 73
     0
 72
     1
 10
-12.97499950517839
 20
50.5000003718233
 11
-11.77499950518039
 21
50.5000003718233
 72
     2
 10
-11.77499950518039
 20
50.75000037182331
 40
0.25
 50
270.0
 51
360.0
 73
     1
 72
     1
 10
-11.52499950518039
 20
50.75000037182331
 11
-11.52499950518039
 21
51.7500003718233
 72
     2
 10
-11.77499950518039
 20
51.7500003718233
 40
0.25
 50
0.0
 51
90.0
 73
     1
 72
     1
 10
-11.77499950518039
 20
52.00000037182331
 11
-18.97499950517931
 21
52.00000037182331
 72
     2
 10
-18.97499950517931
 20
51.7500003718233
 40
0.25
 50
90.0
 51
180.0
 73
     1
 72
     1
 10
-19.22499950517931
 20
51.7500003718233
 11
-19.22499950517931
 21
50.75000037182331
 72
     2
 10
-18.97499950517931
 20
50.75000037182331
 40
0.25
 50
180.0
 51
270.0
 73
     1
 72
     1
 10
-18.97499950517931
 20
50.5000003718233
 11
-18.47499950518022
 21
50.50000037182339
 72
     2
 10
-18.47499950518022
 20
50.00000037182335
 40
0.5000000000000427
 50
270.0
 51
450.0
 73
     0
 72
     1
 10
-18.47499950518022
 20
49.50000037182331
 11
-20.27499950517949
 21
49.50000037182331
 72
     2
 10
-20.27499950517949
 20
49.7500003718233
 40
0.25
 50
90.0
 51
180.0
 73
     0
 72
     1
 10
-20.52499950517949
 20
49.7500003718233
 11
-20.52499950517949
 21
51.20000037182403
 72
     1
 10
-20.52499950517949
 20
51.20000037182403
 11
-22.2749995051795
 21
51.20000037182403
 72
     2
 10
-22.2749995051795
 20
51.45000037182403
 40
0.25
 50
90.0
 51
180.0
 73
     0
 72
     1
 10
-22.52499950517949
 20
51.45000037182403
 11
-22.52499950517949
 21
54.55000037182348
 72
     2
 10
-22.2749995051795
 20
54.55000037182348
 40
0.25
 50
180.0
 51
270.0
 73
     0
 72
     1
 10
-22.2749995051795
 20
54.80000037182349
 11
-20.52499950517949
 21
54.80000037182349
 72
     1
 10
-20.52499950517949
 20
54.80000037182349
 11
-20.52499950517949
 21
56.2500003718233
 72
     2
 10
-20.27499950517949
 20
56.2500003718233
 40
0.25
 50
180.0
 51
270.0
 73
     0
 72
     1
 10
-20.27499950517949
 20
56.5000003718233
 11
-18.47499950518022
 21
56.50000037182339
 72
     2
 10
-18.47499950518022
 20
56.00000037182335
 40
0.5000000000000427
 50
270.0
 51
450.0
 73
     0
 72
     1
 10
-18.47499950518022
 20
55.5000003718233
 11
-18.97499950517931
 21
55.5000003718233
 72
     2
 10
-18.97499950517931
 20
55.2500003718233
 40
0.25
 50
90.0
 51
180.0
 73
     1
 72
     1
 10
-19.22499950517931
 20
55.2500003718233
 11
-19.22499950517931
 21
54.2500003718233
 72
     2
 10
-18.97499950517931
 20
54.2500003718233
 40
0.25
 50
180.0
 51
270.0
 73
     1
 72
     1
 10
-18.97499950517931
 20
54.0000003718233
 11
-11.77499950518039
 21
54.0000003718233
 72
     2
 10
-11.77499950518039
 20
54.2500003718233
 40
0.25
 50
270.0
 51
360.0
 73
     1
 72
     1
 10
-11.52499950518039
 20
54.2500003718233
 11
-11.52499950518039
 21
55.2500003718233
 72
     2
 10
-11.77499950518039
 20
55.2500003718233
 40
0.25
 50
0.0
 51
90.0
 73
     1
 72
     1
 10
-11.77499950518039
 20
55.5000003718233
 11
-12.97499950517839
 21
55.5000003718233
 72
     2
 10
-12.97499950517839
 20
56.0000003718233
 40
0.5
 50
90.0
 51
270.0
 73
     0
 72
     1
 10
-12.97499950517839
 20
56.5000003718233
 11
-10.07499950518058
 21
56.5000003718233
 72
     2
 10
-10.07499950518058
 20
56.2500003718233
 40
0.25
 50
270.0
 51
360.0
 73
     0
 72
     1
 10
-9.824999505180578
 20
56.2500003718233
 11
-9.824999505180578
 21
54.50000037182512
 72
     2
 10
-9.324999505179668
 20
54.50000037182421
 40
0.5000000000009095
 50
179.9999999998957
 51
269.9999999998958
 73
     1
 72
     1
 10
-9.324999505180578
 20
54.0000003718233
 11
4.475000494820513
 21
54.0000003718233
 72
     2
 10
4.475000494820513
 20
55.0000003718233
 40
1.0
 50
270.0
 51
360.0
 73
     1
 72
     1
 10
5.475000494820513
 20
55.0000003718233
 11
5.475000494820562
 21
78.6000003718215
 72
     1
 10
5.475000494820562
 20
78.6000003718215
 11
5.875000494820199
 21
79.00000037182147
 72
     1
 10
5.875000494820199
 20
79.00000037182147
 11
5.475000494820513
 21
79.40000037182151
 97
        1
330
1DB5
 75
     0
 76
     1
 98
        1
 10
0.0
 20
0.0
  0
ENDBLK
  5
661
330
65F
100
AcDbEntity
  8
0
100
AcDbBlockEnd
  0
BLOCK
  5
666
330
665
100
AcDbEntity
  8
0
100
AcDbBlockBegin
  2
08753
 70
     0
 10
0.0
 20
0.0
 30
0.0
  3
08753
  1
08753.dwg
  0
LWPOLYLINE
  5
1DB9
102
{ACAD_REACTORS
330
1DBA
102
}
330
665
100
AcDbEntity
  8
APL Joinery
100
AcDbPolyline
 90
       26
 70
     1
 43
0.0
 10
1.5
 20
1.389897948556605
 10
1.5
 20
1.450000000000269
 42
-0.4142135623730951
 10
1.75
 20
1.700000000000269
 10
12.94999999999891
 20
1.700000000000269
 10
12.94999999999891
 20
1.200000000000269
 42
0.5773502691896307
 10
13.32499999999891
 20
0.9834936490542499
 10
15.83647367097353
 20
2.433493649053912
 42
0.767326987979169
 10
15.71147367097364
 20
2.900000000000087
 10
3.0
 20
2.900000000000087
 42
-0.4142135623730951
 10
2.0
 20
3.900000000000087
 10
2.0
 20
44.5
 42
-0.4142135623730951
 10
3.0
 20
45.49999999999999
 10
15.71147367097365
 20
45.49999999999999
 42
0.7673269879791686
 10
15.83647367097365
 20
45.96650635094602
 10
13.32499999999892
 20
47.41650635094592
 42
0.5773502691896307
 10
12.94999999999891
 20
47.19999999999981
 10
12.94999999999891
 20
46.69999999999982
 10
1.75
 20
46.69999999999982
 42
-0.4142135623730951
 10
1.5
 20
46.94999999999981
 10
1.500000000000113
 20
47.01010205144382
 42
0.9040691056184169
 10
1.40000000000009
 20
48.00000000000046
 10
0.25
 20
48.00000000000046
 42
0.4142135623730951
 10
0.0
 20
47.75000000000045
 10
0.0
 20
0.6500000000000879
 42
0.4142135623730951
 10
0.25
 20
0.4000000000000879
 10
1.399999999999636
 20
0.4000000000000689
 42
0.9040691056184169
  0
HATCH
  5
1DBA
330
665
100
AcDbEntity
  8
APL Hatch
100
AcDbHatch
 10
0.0
 20
0.0
 30
0.0
210
0.0
220
0.0
230
1.0
  2
SOLID
 70
     1
 71
     1
 91
        1
 92
        1
 93
       26
 72
     1
 10
1.5
 20
1.389897948556605
 11
1.5
 21
1.450000000000269
 72
     2
 10
1.75
 20
1.450000000000269
 40
0.25
 50
180.0
 51
270.0
 73
     0
 72
     1
 10
1.75
 20
1.700000000000269
 11
12.94999999999891
 21
1.700000000000269
 72
     1
 10
12.94999999999891
 20
1.700000000000269
 11
12.94999999999891
 21
1.200000000000269
 72
     2
 10
13.19999999999888
 20
1.200000000000312
 40
0.2499999999999733
 50
180.0000000000098
 51
300.0000000000107
 73
     1
 72
     1
 10
13.32499999999891
 20
0.9834936490542499
 11
15.83647367097353
 21
2.433493649053912
 72
     2
 10
15.71147367097364
 20
2.650000000000087
 40
0.2499999999999998
 50
299.9999999999699
 51
450.0
 73
     1
 72
     1
 10
15.71147367097364
 20
2.900000000000087
 11
3.0
 21
2.900000000000087
 72
     2
 10
3.0
 20
3.900000000000087
 40
0.9999999999999996
 50
90.0
 51
180.0
 73
     0
 72
     1
 10
2.0
 20
3.900000000000087
 11
2.0
 21
44.5
 72
     2
 10
3.0
 20
44.5
 40
1.0
 50
180.0
 51
270.0
 73
     0
 72
     1
 10
3.0
 20
45.49999999999999
 11
15.71147367097365
 21
45.49999999999999
 72
     2
 10
15.71147367097373
 20
45.74999999999993
 40
0.249999999999936
 50
269.9999999999821
 51
420.0000000000125
 73
     1
 72
     1
 10
15.83647367097365
 20
45.96650635094602
 11
13.32499999999892
 21
47.41650635094592
 72
     2
 10
13.19999999999891
 20
47.19999999999981
 40
0.2499999999999977
 50
59.99999999999875
 51
180.0
 73
     1
 72
     1
 10
12.94999999999891
 20
47.19999999999981
 11
12.94999999999891
 21
46.69999999999982
 72
     1
 10
12.94999999999891
 20
46.69999999999982
 11
1.75
 21
46.69999999999982
 72
     2
 10
1.75
 20
46.94999999999981
 40
0.25
 50
90.0
 51
180.0
 73
     0
 72
     1
 10
1.5
 20
46.94999999999981
 11
1.500000000000113
 21
47.01010205144382
 72
     2
 10
1.40000000000009
 20
47.50000000000045
 40
0.5000000000000005
 50
281.5369590328181
 51
450.0
 73
     1
 72
     1
 10
1.40000000000009
 20
48.00000000000046
 11
0.25
 21
48.00000000000046
 72
     2
 10
0.25
 20
47.75000000000045
 40
0.25
 50
90.0
 51
180.0
 73
     1
 72
     1
 10
0.0
 20
47.75000000000045
 11
0.0
 21
0.650000000000091
 72
     2
 10
0.25
 20
0.6500000000000879
 40
0.25
 50
180.0
 51
270.0
 73
     1
 72
     1
 10
0.25
 20
0.4000000000000879
 11
1.399999999999636
 21
0.4000000000000689
 72
     2
 10
1.399999999999811
 20
0.900000000000039
 40
0.4999999999999702
 50
269.9999999999799
 51
438.4630409671617
 73
     1
 97
        1
330
1DB9
 75
     0
 76
     1
 98
        1
 10
0.0
 20
0.0
  0
ENDBLK
  5
667
330
665
100
AcDbEntity
  8
0
100
AcDbBlockEnd
  0
BLOCK
  5
674
330
673
100
AcDbEntity
  8
0
100
AcDbBlockBegin
  2
08747
 70
     0
 10
0.0
 20
0.0
 30
0.0
  3
08747
  1
08747.dwg
  0
LWPOLYLINE
  5
1DBD
102
{ACAD_REACTORS
330
1DBF
102
}
330
673
100
AcDbEntity
  8
APL Joinery
  6
Continuous
100
AcDbPolyline
 90
       75
 70
     1
 43
0.0
 10
1.739487046148482
 20
-47.53452964785275
 10
6.499999999999985
 20
-46.14999999999996
 10
11.49999999999998
 20
-46.14999999999996
 10
13.76270380200457
 20
-46.8080762469409
 10
19.0
 20
-46.5
 10
19.0
 20
-45.49999999999999
 42
-0.9999999999999998
 10
20.0
 20
-45.49999999999999
 10
20.0
 20
-46.25
 10
21.5
 20
-46.25
 10
21.5
 20
-40.75
 10
20.0
 20
-40.75
 10
20.0
 20
-41.5
 42
-0.9999999999999998
 10
19.0
 20
-41.5
 10
19.0
 20
-40.0
 10
11.875
 20
-40.0
 42
-0.9999999999999998
 10
11.875
 20
-38.75
 10
12.84999999999991
 20
-38.75
 10
12.84999999999991
 20
-37.25
 10
5.149999999999863
 20
-37.25
 10
5.149999999999863
 20
-38.75
 10
6.125
 20
-38.75
 42
-0.9999999999999998
 10
6.125
 20
-40.0
 10
-21.75
 20
-40.0
 42
-0.4142135623730951
 10
-22.0
 20
-39.75
 10
-21.99999999999995
 20
-37.90000000000055
 42
-0.4142135623731573
 10
-21.79999999999996
 20
-37.70000000000027
 10
-20.0
 20
-37.70000000000027
 10
-20.0
 20
-36.5
 42
-0.4142135623730951
 10
-19.5
 20
-36.0
 10
-17.95000000000004
 20
-36.0
 42
-0.9999999999999998
 10
-17.95000000000004
 20
-37.0
 10
-18.70000000000004
 20
-37.0
 10
-18.70000000000004
 20
-38.5
 10
-13.20000000000004
 20
-38.5
 10
-13.20000000000004
 20
-37.0
 10
-13.95000000000004
 20
-37.0
 42
-0.9999999999999998
 10
-13.95000000000004
 20
-36.0
 10
-12.14999999999986
 20
-36.0
 42
-0.4142135623730951
 10
-11.89999999999986
 20
-36.25
 10
-11.89999999999986
 20
-38.0
 10
-1.0
 20
-38.0
 42
0.4142135623730951
 10
0.0
 20
-37.0
 10
0.0
 20
-18.0
 42
-0.9999999999999998
 10
1.0
 20
-18.00000000000045
 10
1.000000000000227
 20
-20.5
 42
0.4142135623730951
 10
1.500000000000227
 20
-21.0
 10
3.300000000000181
 20
-21.0
 42
0.4142135623730951
 10
3.800000000000181
 20
-20.5
 10
3.799999999999964
 20
-14.45000000000028
 42
-0.4142135623731054
 10
4.049999999999964
 20
-14.20000000000027
 10
4.5
 20
-14.20000000000027
 10
4.499999999999772
 20
-1.5
 10
1.499999999999772
 20
-1.5
 10
1.5
 20
-2.25
 42
-0.4744978678080938
 10
1.199999999999931
 20
-2.49494897427837
 42
-0.3563939586925875
 10
0.0
 20
-1.025255128608477
 10
0.0
 20
-0.25
 42
-0.4142135623730951
 10
0.25
 20
0.0
 10
39.0
 20
0.0
 42
-0.4142135623730951
 10
40.0
 20
-1.0
 10
40.0
 20
-49.25
 42
-0.4142135623730951
 10
39.75
 20
-49.5
 10
36.75
 20
-49.5
 42
-0.4142135623730951
 10
36.5
 20
-49.25
 10
36.5
 20
-48.25
 42
-0.4142135623730951
 10
36.75
 20
-48.0
 10
38.0
 20
-48.0
 10
38.0
 20
-40.0
 10
24.0
 20
-40.0
 10
24.0
 20
-48.0
 10
25.25
 20
-48.0
 42
-0.4142135623730951
 10
25.5
 20
-48.25
 10
25.5
 20
-49.25
 42
-0.4142135623730951
 10
25.25
 20
-49.5
 10
1.999999999999999
 20
-49.5
 42
-0.8762009823798386
  0
LWPOLYLINE
  5
1DBE
102
{ACAD_REACTORS
330
1DBF
102
}
330
673
100
AcDbEntity
  8
APL Joinery
  6
Continuous
100
AcDbPolyline
 90
       23
 70
     1
 43
0.0
 10
6.299999999999957
 20
-15.39644660940673
 10
6.300000000000181
 20
-2.0
 10
37.0
 20
-2.0
 42
-0.4142135623730951
 10
38.0
 20
-3.0
 10
38.0
 20
-37.0
 42
-0.4142135623730951
 10
37.0
 20
-38.0
 10
14.84999999999991
 20
-38.0
 10
14.84999999999991
 20
-37.25
 42
0.4142135623730951
 10
12.84999999999991
 20
-35.25
 10
5.15000000000009
 20
-35.25
 42
0.320048333991128
 10
3.259090909090952
 20
-36.5984918957393
 42
-0.8464781119044108
 10
1.799999999999954
 20
-36.3541763566418
 10
1.799999999999954
 20
-23.80000000000018
 42
-0.4142135623730951
 10
2.799999999999954
 20
-22.80000000000018
 10
3.300000000000411
 20
-22.8
 42
0.1169703784940663
 10
4.332944819436534
 20
-22.55500000000029
 10
6.049999999999953
 20
-22.55500000000029
 42
0.4142135623730951
 10
6.299999999999953
 20
-22.30500000000029
 10
6.299999999999953
 20
-21.00355339059336
 42
0.198912367379658
 10
6.22677669529659
 20
-20.82677669529672
 10
5.600000000000136
 20
-20.20000000000027
 10
5.600000000000136
 20
-16.19999999999982
 10
6.226776695296593
 20
-15.57322330470336
 42
0.1989123673796531
  0
HATCH
  5
1DBF
330
673
100
AcDbEntity
  8
APL Hatch
100
AcDbHatch
 10
0.0
 20
0.0
 30
0.0
210
0.0
220
0.0
230
1.0
  2
SOLID
 70
     1
 71
     1
 91
        2
 92
       16
 93
       23
 72
     1
 10
6.299999999999957
 20
-15.39644660940673
 11
6.300000000000181
 21
-2.0
 72
     1
 10
6.300000000000181
 20
-2.0
 11
37.0
 21
-2.0
 72
     2
 10
37.0
 20
-3.0
 40
1.0
 50
270.0
 51
360.0
 73
     0
 72
     1
 10
38.0
 20
-3.0
 11
38.0
 21
-37.0
 72
     2
 10
37.0
 20
-37.0
 40
1.0
 50
360.0
 51
450.0
 73
     0
 72
     1
 10
37.0
 20
-38.0
 11
14.84999999999991
 21
-38.0
 72
     1
 10
14.84999999999991
 20
-38.0
 11
14.84999999999991
 21
-37.25
 72
     2
 10
12.84999999999991
 20
-37.25
 40
2.0
 50
0.0
 51
90.0
 73
     1
 72
     1
 10
12.84999999999991
 20
-35.25
 11
5.15000000000009
 21
-35.25
 72
     2
 10
5.150000000000074
 20
-37.25000000000005
 40
2.000000000000049
 50
89.99999999999955
 51
160.9887347398614
 73
     1
 72
     2
 10
2.549999999999954
 20
-36.3541763566418
 40
0.7499999999999997
 50
19.01126526011637
 51
180.0
 73
     0
 72
     1
 10
1.799999999999954
 20
-36.3541763566418
 11
1.799999999999954
 21
-23.80000000000018
 72
     2
 10
2.799999999999954
 20
-23.80000000000018
 40
1.0
 50
180.0
 51
270.0
 73
     0
 72
     1
 10
2.799999999999954
 20
-22.80000000000018
 11
3.300000000000411
 21
-22.8
 72
     2
 10
3.300000000000793
 20
-20.49999999999933
 40
2.300000000000668
 50
269.9999999999905
 51
296.6863687173543
 73
     1
 72
     1
 10
4.332944819436534
 20
-22.55500000000029
 11
6.049999999999953
 21
-22.55500000000029
 72
     2
 10
6.049999999999953
 20
-22.30500000000029
 40
0.25
 50
270.0
 51
360.0
 73
     1
 72
     1
 10
6.299999999999953
 20
-22.30500000000029
 11
6.299999999999953
 21
-21.00355339059336
 72
     2
 10
6.049999999999951
 20
-21.00355339059336
 40
0.2500000000000018
 50
0.0
 51
45.0
 73
     1
 72
     1
 10
6.22677669529659
 20
-20.82677669529672
 11
5.600000000000136
 21
-20.20000000000027
 72
     1
 10
5.600000000000136
 20
-20.20000000000027
 11
5.600000000000136
 21
-16.19999999999982
 72
     1
 10
5.600000000000136
 20
-16.19999999999982
 11
6.226776695296593
 21
-15.57322330470336
 72
     2
 10
6.049999999999956
 20
-15.39644660940673
 40
0.2500000000000014
 50
314.9999999999999
 51
359.9999999999988
 73
     1
 97
        1
330
1DBE
 92
        1
 93
       75
 72
     1
 10
1.739487046148482
 20
-47.53452964785275
 11
6.499999999999985
 21
-46.14999999999996
 72
     1
 10
6.499999999999985
 20
-46.14999999999996
 11
11.49999999999998
 21
-46.14999999999996
 72
     1
 10
11.49999999999998
 20
-46.14999999999996
 11
13.76270380200457
 21
-46.8080762469409
 72
     1
 10
13.76270380200457
 20
-46.8080762469409
 11
19.0
 21
-46.5
 72
     1
 10
19.0
 20
-46.5
 11
19.0
 21
-45.49999999999999
 72
     2
 10
19.5
 20
-45.49999999999999
 40
0.5
 50
180.0
 51
360.0
 73
     0
 72
     1
 10
20.0
 20
-45.49999999999999
 11
20.0
 21
-46.25
 72
     1
 10
20.0
 20
-46.25
 11
21.5
 21
-46.25
 72
     1
 10
21.5
 20
-46.25
 11
21.5
 21
-40.75
 72
     1
 10
21.5
 20
-40.75
 11
20.0
 21
-40.75
 72
     1
 10
20.0
 20
-40.75
 11
20.0
 21
-41.5
 72
     2
 10
19.5
 20
-41.5
 40
0.5
 50
360.0
 51
540.0
 73
     0
 72
     1
 10
19.0
 20
-41.5
 11
19.0
 21
-40.0
 72
     1
 10
19.0
 20
-40.0
 11
11.875
 21
-40.0
 72
     2
 10
11.875
 20
-39.375
 40
0.625
 50
90.0
 51
270.0
 73
     0
 72
     1
 10
11.875
 20
-38.75
 11
12.84999999999991
 21
-38.75
 72
     1
 10
12.84999999999991
 20
-38.75
 11
12.84999999999991
 21
-37.25
 72
     1
 10
12.84999999999991
 20
-37.25
 11
5.149999999999863
 21
-37.25
 72
     1
 10
5.149999999999863
 20
-37.25
 11
5.149999999999863
 21
-38.75
 72
     1
 10
5.149999999999863
 20
-38.75
 11
6.125
 21
-38.75
 72
     2
 10
6.125
 20
-39.375
 40
0.625
 50
270.0
 51
450.0
 73
     0
 72
     1
 10
6.125
 20
-40.0
 11
-21.75
 21
-40.0
 72
     2
 10
-21.75
 20
-39.75
 40
0.25
 50
90.0
 51
180.0
 73
     0
 72
     1
 10
-22.0
 20
-39.75
 11
-21.99999999999995
 21
-37.90000000000055
 72
     2
 10
-21.79999999999984
 20
-37.90000000000039
 40
0.200000000000113
 50
179.9999999999552
 51
269.9999999999674
 73
     0
 72
     1
 10
-21.79999999999996
 20
-37.70000000000027
 11
-20.0
 21
-37.70000000000027
 72
     1
 10
-20.0
 20
-37.70000000000027
 11
-20.0
 21
-36.5
 72
     2
 10
-19.5
 20
-36.5
 40
0.5
 50
180.0
 51
270.0
 73
     0
 72
     1
 10
-19.5
 20
-36.0
 11
-17.95000000000004
 21
-36.0
 72
     2
 10
-17.95000000000004
 20
-36.5
 40
0.5
 50
270.0
 51
450.0
 73
     0
 72
     1
 10
-17.95000000000004
 20
-37.0
 11
-18.70000000000004
 21
-37.0
 72
     1
 10
-18.70000000000004
 20
-37.0
 11
-18.70000000000004
 21
-38.5
 72
     1
 10
-18.70000000000004
 20
-38.5
 11
-13.20000000000004
 21
-38.5
 72
     1
 10
-13.20000000000004
 20
-38.5
 11
-13.20000000000004
 21
-37.0
 72
     1
 10
-13.20000000000004
 20
-37.0
 11
-13.95000000000004
 21
-37.0
 72
     2
 10
-13.95000000000004
 20
-36.5
 40
0.5
 50
90.0
 51
270.0
 73
     0
 72
     1
 10
-13.95000000000004
 20
-36.0
 11
-12.14999999999986
 21
-36.0
 72
     2
 10
-12.14999999999986
 20
-36.25
 40
0.25
 50
270.0
 51
360.0
 73
     0
 72
     1
 10
-11.89999999999986
 20
-36.25
 11
-11.89999999999986
 21
-38.0
 72
     1
 10
-11.89999999999986
 20
-38.0
 11
-1.0
 21
-38.0
 72
     2
 10
-1.0
 20
-37.0
 40
1.0
 50
270.0
 51
360.0
 73
     1
 72
     1
 10
0.0
 20
-37.0
 11
0.0
 21
-18.0
 72
     2
 10
0.5
 20
-18.00000000000023
 40
0.5
 50
180.000000000026
 51
360.000000000026
 73
     0
 72
     1
 10
1.0
 20
-18.00000000000045
 11
1.000000000000227
 21
-20.5
 72
     2
 10
1.500000000000227
 20
-20.5
 40
0.5
 50
180.0
 51
270.0
 73
     1
 72
     1
 10
1.500000000000227
 20
-21.0
 11
3.300000000000181
 21
-21.0
 72
     2
 10
3.300000000000181
 20
-20.5
 40
0.5
 50
270.0
 51
360.0
 73
     1
 72
     1
 10
3.800000000000181
 20
-20.5
 11
3.799999999999964
 21
-14.45000000000028
 72
     2
 10
4.049999999999964
 20
-14.45000000000027
 40
0.25
 50
179.9999999999979
 51
270.0
 73
     0
 72
     1
 10
4.049999999999964
 20
-14.20000000000027
 11
4.5
 21
-14.20000000000027
 72
     1
 10
4.5
 20
-14.20000000000027
 11
4.499999999999772
 21
-1.5
 72
     1
 10
4.499999999999772
 20
-1.5
 11
1.499999999999772
 21
-1.5
 72
     1
 10
1.499999999999772
 20
-1.5
 11
1.5
 21
-2.25
 72
     2
 10
1.249999999999948
 20
-2.250000000000004
 40
0.2500000000000511
 50
359.999999999999
 51
461.536959032817
 73
     0
 72
     2
 10
1.5
 20
-1.025255128608478
 40
1.499999999999999
 50
101.5369590328181
 51
180.0
 73
     0
 72
     1
 10
0.0
 20
-1.025255128608477
 11
0.0
 21
-0.25
 72
     2
 10
0.25
 20
-0.25
 40
0.25
 50
180.0
 51
270.0
 73
     0
 72
     1
 10
0.25
 20
0.0
 11
39.0
 21
0.0
 72
     2
 10
39.0
 20
-1.0
 40
1.0
 50
270.0
 51
360.0
 73
     0
 72
     1
 10
40.0
 20
-1.0
 11
40.0
 21
-49.25
 72
     2
 10
39.75
 20
-49.25
 40
0.25
 50
360.0
 51
450.0
 73
     0
 72
     1
 10
39.75
 20
-49.5
 11
36.75
 21
-49.5
 72
     2
 10
36.75
 20
-49.25
 40
0.25
 50
90.0
 51
180.0
 73
     0
 72
     1
 10
36.5
 20
-49.25
 11
36.5
 21
-48.25
 72
     2
 10
36.75
 20
-48.25
 40
0.25
 50
180.0
 51
270.0
 73
     0
 72
     1
 10
36.75
 20
-48.0
 11
38.0
 21
-48.0
 72
     1
 10
38.0
 20
-48.0
 11
38.0
 21
-40.0
 72
     1
 10
38.0
 20
-40.0
 11
24.0
 21
-40.0
 72
     1
 10
24.0
 20
-40.0
 11
24.0
 21
-48.0
 72
     1
 10
24.0
 20
-48.0
 11
25.25
 21
-48.0
 72
     2
 10
25.25
 20
-48.25
 40
0.25
 50
270.0
 51
360.0
 73
     0
 72
     1
 10
25.5
 20
-48.25
 11
25.5
 21
-49.25
 72
     2
 10
25.25
 20
-49.25
 40
0.25
 50
360.0
 51
450.0
 73
     0
 72
     1
 10
25.25
 20
-49.5
 11
2.0
 21
-49.5
 72
     2
 10
1.999999999997077
 20
-48.50000000000044
 40
0.9999999999995594
 50
89.99999999983257
 51
254.8994988203497
 73
     0
 97
        1
330
1DBD
 75
     0
 76
     1
 98
        1
 10
0.0
 20
0.0
  0
ENDBLK
  5
675
330
673
100
AcDbEntity
  8
0
100
AcDbBlockEnd
  0
BLOCK
  5
67A
330
679
100
AcDbEntity
  8
0
100
AcDbBlockBegin
  2
08773
 70
     0
 10
0.0
 20
0.0
 30
0.0
  3
08773
  1
08773.dwg
  0
LWPOLYLINE
  5
1DC2
102
{ACAD_REACTORS
330
1DC4
102
}
330
679
100
AcDbEntity
  8
APL Joinery
  6
Continuous
100
AcDbPolyline
 90
       77
 70
     1
 43
0.0
 10
-30.00000000000183
 20
-40.0
 10
-48.00000000000001
 20
-39.99999999999999
 42
0.4142135623730951
 10
-49.50000000000001
 20
-41.49999999999998
 10
-49.50000000000002
 20
-51.19999999999889
 42
0.4142135623730951
 10
-49.00000000000002
 20
-51.69999999999889
 10
-48.50000000000002
 20
-51.69999999999889
 42
-0.4142135623730951
 10
-48.00000000000002
 20
-52.19999999999799
 10
-48.00000000000002
 20
-53.94999999999889
 42
-0.9999999999999998
 10
-49.00000000000002
 20
-53.94999999999798
 10
-49.00000000000002
 20
-53.1999999999989
 10
-50.50000000000002
 20
-53.1999999999989
 10
-50.50000000000002
 20
-58.69999999999889
 10
-49.00000000000002
 20
-58.69999999999798
 10
-49.00000000000002
 20
-57.94999999999889
 42
-0.9999999999999998
 10
-48.00000000000002
 20
-57.94999999999889
 10
-48.00000000000002
 20
-59.49999999999999
 42
-0.4142135623730951
 10
-48.50000000000002
 20
-59.99999999999907
 10
-49.70000000000075
 20
-59.99999999999999
 10
-49.70000000000052
 20
-61.79999999999921
 42
-0.4142135623731617
 10
-49.90000000000147
 20
-61.99999999999907
 10
-51.75000000000002
 20
-61.99999999999907
 42
-0.4142135623730951
 10
-52.00000000000002
 20
-61.74999999999908
 10
-52.0
 20
-0.9999999999999857
 42
-0.4142135623730951
 10
-51.0
 20
0.0000000000000142
 10
-2.750000000000001
 20
0.0000000000000001
 42
-0.414213562373095
 10
-2.500000000000001
 20
-0.2499999999999999
 10
-2.500000000000001
 20
-3.249999999999241
 42
-0.4142135623729174
 10
-2.74999999999985
 20
-3.499999999999241
 10
-3.74999999999985
 20
-3.499999999999848
 42
-0.4142135623732725
 10
-4.000000000000001
 20
-3.249999999999848
 10
-4.000000000000001
 20
-2.0
 10
-12.0
 20
-2.0
 10
-12.00000000000001
 20
-15.99999999999909
 10
-4.000000000000007
 20
-16.0
 10
-4.000000000000007
 20
-14.74999999999925
 42
-0.4142135623732732
 10
-3.749999999999855
 20
-14.49999999999924
 10
-2.749999999999856
 20
-14.49999999999985
 42
-0.4142135623729175
 10
-2.500000000000007
 20
-14.74999999999985
 10
-2.500000000000015
 20
-37.99999999999909
 42
-0.8762009823776544
 10
-4.465470352148273
 20
-38.26051295384877
 10
-5.850000000000376
 20
-33.49999999999909
 10
-5.850000000000374
 20
-28.5
 10
-5.191923753059209
 20
-26.23729619799451
 10
-5.500000000000007
 20
-21.0
 10
-6.500000000000007
 20
-21.0
 42
-0.9999999999999998
 10
-6.500000000000007
 20
-19.99999999999909
 10
-5.750000000000007
 20
-20.0
 10
-5.750000000000007
 20
-18.5
 10
-11.25
 20
-18.49999999999909
 10
-11.25
 20
-20.0
 10
-10.5
 20
-20.0
 42
-0.9999999999999998
 10
-10.50000000000001
 20
-20.99999999999909
 10
-12.00000000000001
 20
-21.0
 10
-12.00000000000001
 20
-26.77499999999964
 42
-0.9999999999999998
 10
-13.25000000000001
 20
-26.77499999999964
 10
-13.25000000000001
 20
-25.79999999999927
 10
-14.75000000000001
 20
-25.79999999999927
 10
-14.75000000000001
 20
-33.49999999999909
 10
-13.25000000000001
 20
-33.5
 10
-13.25000000000001
 20
-32.52499999999964
 42
-0.9999999999999998
 10
-12.00000000000001
 20
-32.52499999999873
 10
-12.00000000000001
 20
-39.75
 42
-0.4142135623730951
 10
-12.25000000000001
 20
-40.0
 10
-13.02525512860849
 20
-40.0
 42
-0.3563939586925746
 10
-14.49494897427827
 20
-38.80000000000001
 42
-0.4744978678081079
 10
-14.25000000000092
 20
-38.5
 10
-13.50000000000092
 20
-38.49999999999909
 10
-13.50000000000001
 20
-36.0
 42
0.4142135623730951
 10
-14.00000000000001
 20
-35.49999999999909
 10
-26.19999999999983
 20
-35.49999999999999
 10
-26.20000000000042
 20
-35.94999999999835
 42
-0.4142135623726724
 10
-26.45000000000039
 20
-36.19999999999803
 10
-32.50000000000002
 20
-36.1999999999989
 42
0.4142135623730951
 10
-33.00000000000002
 20
-36.69999999999799
 10
-33.00000000000002
 20
-38.49999999999909
 42
0.4142135623730951
 10
-32.50000000000002
 20
-38.99999999999908
 10
-30.00000000000002
 20
-38.99999999999908
 42
-0.9999999999999998
  0
LWPOLYLINE
  5
1DC3
102
{ACAD_REACTORS
330
1DC4
102
}
330
679
100
AcDbEntity
  8
APL Joinery
  6
Continuous
100
AcDbPolyline
 90
       19
 70
     1
 43
0.0
 10
-48.5
 20
-1.999999999999985
 42
0.4142135623730951
 10
-49.5
 20
-2.999999999999985
 10
-49.50000000000001
 20
-36.99999999999999
 42
0.4142135623730951
 10
-48.50000000000092
 20
-37.99999999999999
 10
-35.00000000000002
 20
-37.99999999999999
 10
-35.00000000000002
 20
-36.6999999999989
 42
-0.1526397006685981
 10
-34.55500000000031
 20
-35.27628127777916
 10
-34.55500000000031
 20
-33.74999999999909
 42
-0.4142135623730951
 10
-34.3050000000003
 20
-33.49999999999909
 10
-32.90000000000056
 20
-33.49999999999909
 10
-32.20000000000074
 20
-34.1999999999989
 10
-28.19999999999983
 20
-34.1999999999989
 10
-27.50000000000002
 20
-33.5
 10
-16.75000000000001
 20
-33.49999999999909
 10
-16.75000000000001
 20
-25.79999999999927
 42
-0.4142135623730951
 10
-14.75000000000001
 20
-23.79999999999927
 10
-14.00000000000001
 20
-23.79999999999927
 10
-14.0
 20
-2.99999999999909
 42
0.4142135623730951
 10
-15.0
 20
-2.0
  0
HATCH
  5
1DC4
330
679
100
AcDbEntity
  8
APL Hatch
  6
DASHED
 62
   253
 48
10.0
100
AcDbHatch
 10
0.0
 20
0.0
 30
0.0
210
0.0
220
0.0
230
1.0
  2
SOLID
 70
     1
 71
     1
 91
        2
 92
       16
 93
       19
 72
     2
 10
-48.5
 20
-2.999999999999985
 40
1.0
 50
90.0
 51
180.0
 73
     1
 72
     1
 10
-49.5
 20
-2.999999999999985
 11
-49.50000000000001
 21
-36.99999999999999
 72
     2
 10
-48.50000000000047
 20
-37.00000000000044
 40
0.9999999999995452
 50
179.9999999999739
 51
269.9999999999739
 73
     1
 72
     1
 10
-48.50000000000092
 20
-37.99999999999999
 11
-35.00000000000002
 21
-37.99999999999999
 72
     1
 10
-35.00000000000002
 20
-37.99999999999999
 11
-35.00000000000002
 21
-36.6999999999989
 72
     2
 10
-32.50000000000016
 20
-36.69999999999878
 40
2.499999999999857
 50
179.9999999999972
 51
214.7144945243383
 73
     0
 72
     1
 10
-34.55500000000031
 20
-35.27628127777916
 11
-34.55500000000031
 21
-33.74999999999909
 72
     2
 10
-34.3050000000003
 20
-33.74999999999909
 40
0.25
 50
180.0
 51
270.0
 73
     0
 72
     1
 10
-34.3050000000003
 20
-33.49999999999909
 11
-32.90000000000056
 21
-33.49999999999909
 72
     1
 10
-32.90000000000056
 20
-33.49999999999909
 11
-32.20000000000074
 21
-34.1999999999989
 72
     1
 10
-32.20000000000074
 20
-34.1999999999989
 11
-28.19999999999983
 21
-34.1999999999989
 72
     1
 10
-28.19999999999983
 20
-34.1999999999989
 11
-27.50000000000002
 21
-33.5
 72
     1
 10
-27.50000000000002
 20
-33.5
 11
-16.75000000000001
 21
-33.49999999999909
 72
     1
 10
-16.75000000000001
 20
-33.49999999999909
 11
-16.75000000000001
 21
-25.79999999999927
 72
     2
 10
-14.75000000000001
 20
-25.79999999999927
 40
2.0
 50
180.0
 51
270.0000000000001
 73
     0
 72
     1
 10
-14.75000000000001
 20
-23.79999999999927
 11
-14.00000000000001
 21
-23.79999999999927
 72
     1
 10
-14.00000000000001
 20
-23.79999999999927
 11
-14.0
 21
-2.99999999999909
 72
     2
 10
-14.99999999999954
 20
-2.999999999999545
 40
0.9999999999995452
 50
0.0000000000260551
 51
90.00000000002605
 73
     1
 72
     1
 10
-15.0
 20
-2.0
 11
-48.5
 21
-1.999999999999985
 97
        1
330
1DC3
 92
        1
 93
       77
 72
     1
 10
-30.00000000000183
 20
-40.0
 11
-48.00000000000001
 21
-39.99999999999999
 72
     2
 10
-48.00000000000001
 20
-41.49999999999998
 40
1.5
 50
90.0
 51
180.0
 73
     1
 72
     1
 10
-49.50000000000001
 20
-41.49999999999998
 11
-49.50000000000002
 21
-51.19999999999889
 72
     2
 10
-49.00000000000002
 20
-51.19999999999889
 40
0.5
 50
180.0
 51
270.0
 73
     1
 72
     1
 10
-49.00000000000002
 20
-51.69999999999889
 11
-48.50000000000002
 21
-51.69999999999889
 72
     2
 10
-48.49999999999957
 20
-52.19999999999844
 40
0.4999999999995453
 50
269.9999999999479
 51
359.9999999999479
 73
     0
 72
     1
 10
-48.00000000000002
 20
-52.19999999999799
 11
-48.00000000000002
 21
-53.94999999999889
 72
     2
 10
-48.50000000000002
 20
-53.94999999999844
 40
0.5
 50
0.0000000000521102
 51
180.0000000000521
 73
     0
 72
     1
 10
-49.00000000000002
 20
-53.94999999999798
 11
-49.00000000000002
 21
-53.1999999999989
 72
     1
 10
-49.00000000000002
 20
-53.1999999999989
 11
-50.50000000000002
 21
-53.1999999999989
 72
     1
 10
-50.50000000000002
 20
-53.1999999999989
 11
-50.50000000000002
 21
-58.69999999999889
 72
     1
 10
-50.50000000000002
 20
-58.69999999999889
 11
-49.00000000000002
 21
-58.69999999999798
 72
     1
 10
-49.00000000000002
 20
-58.69999999999798
 11
-49.00000000000002
 21
-57.94999999999889
 72
     2
 10
-48.50000000000002
 20
-57.94999999999889
 40
0.5
 50
180.0
 51
360.0
 73
     0
 72
     1
 10
-48.00000000000002
 20
-57.94999999999889
 11
-48.00000000000002
 21
-59.49999999999999
 72
     2
 10
-48.49999999999957
 20
-59.49999999999953
 40
0.4999999999995453
 50
0.0000000000521102
 51
90.00000000005211
 73
     0
 72
     1
 10
-48.50000000000002
 20
-59.99999999999907
 11
-49.70000000000075
 21
-59.99999999999999
 72
     1
 10
-49.70000000000075
 20
-59.99999999999999
 11
-49.70000000000052
 21
-61.79999999999921
 72
     2
 10
-49.9000000000009
 20
-61.79999999999869
 40
0.2000000000003865
 50
0.0000000001506311
 51
90.00000000016283
 73
     0
 72
     1
 10
-49.90000000000147
 20
-61.99999999999907
 11
-51.75000000000002
 21
-61.99999999999907
 72
     2
 10
-51.75000000000002
 20
-61.74999999999908
 40
0.25
 50
90.0
 51
180.0
 73
     0
 72
     1
 10
-52.00000000000002
 20
-61.74999999999908
 11
-52.0
 21
-0.9999999999999857
 72
     2
 10
-51.0
 20
-0.9999999999999857
 40
1.0
 50
180.0
 51
270.0
 73
     0
 72
     1
 10
-51.0
 20
0.0000000000000142
 11
-2.75
 21
0.0000000000000001
 72
     2
 10
-2.750000000000001
 20
-0.25
 40
0.25
 50
270.0
 51
360.0
 73
     0
 72
     1
 10
-2.500000000000001
 20
-0.2499999999999999
 11
-2.500000000000001
 21
-3.249999999999241
 72
     2
 10
-2.750000000000002
 20
-3.249999999999241
 40
0.2500000000000004
 50
0.0000000000001018
 51
89.9999999999652
 73
     0
 72
     1
 10
-2.74999999999985
 20
-3.499999999999241
 11
-3.74999999999985
 21
-3.499999999999848
 72
     2
 10
-3.750000000000001
 20
-3.249999999999848
 40
0.25
 50
89.9999999999653
 51
180.0
 73
     0
 72
     1
 10
-4.000000000000001
 20
-3.249999999999848
 11
-4.000000000000001
 21
-2.0
 72
     1
 10
-4.000000000000001
 20
-2.0
 11
-12.0
 21
-2.0
 72
     1
 10
-12.0
 20
-2.0
 11
-12.00000000000001
 21
-15.99999999999909
 72
     1
 10
-12.00000000000001
 20
-15.99999999999909
 11
-4.000000000000007
 21
-16.0
 72
     1
 10
-4.000000000000007
 20
-16.0
 11
-4.000000000000007
 21
-14.74999999999925
 72
     2
 10
-3.750000000000007
 20
-14.74999999999925
 40
0.25
 50
180.0
 51
270.0000000000348
 73
     0
 72
     1
 10
-3.749999999999855
 20
-14.49999999999924
 11
-2.749999999999856
 21
-14.49999999999985
 72
     2
 10
-2.750000000000007
 20
-14.74999999999985
 40
0.25
 50
270.0000000000347
 51
360.0
 73
     0
 72
     1
 10
-2.500000000000007
 20
-14.74999999999985
 11
-2.500000000000015
 21
-37.99999999999909
 72
     2
 10
-3.500000000000281
 20
-37.99999999999856
 40
1.000000000000265
 50
0.0000000000305333
 51
164.8994988202644
 73
     0
 72
     1
 10
-4.465470352148273
 20
-38.26051295384877
 11
-5.850000000000376
 21
-33.49999999999909
 72
     1
 10
-5.850000000000376
 20
-33.49999999999909
 11
-5.850000000000374
 21
-28.5
 72
     1
 10
-5.850000000000374
 20
-28.5
 11
-5.191923753059209
 21
-26.23729619799451
 72
     1
 10
-5.191923753059209
 20
-26.23729619799451
 11
-5.500000000000007
 21
-21.0
 72
     1
 10
-5.500000000000007
 20
-21.0
 11
-6.500000000000007
 21
-21.0
 72
     2
 10
-6.500000000000007
 20
-20.49999999999955
 40
0.5000000000004548
 50
90.0
 51
270.0
 73
     0
 72
     1
 10
-6.500000000000007
 20
-19.99999999999909
 11
-5.750000000000007
 21
-20.0
 72
     1
 10
-5.750000000000007
 20
-20.0
 11
-5.750000000000007
 21
-18.5
 72
     1
 10
-5.750000000000007
 20
-18.5
 11
-11.25
 21
-18.49999999999909
 72
     1
 10
-11.25
 20
-18.49999999999909
 11
-11.25
 21
-20.0
 72
     1
 10
-11.25
 20
-20.0
 11
-10.5
 21
-20.0
 72
     2
 10
-10.5
 20
-20.49999999999954
 40
0.4999999999995453
 50
270.0
 51
450.0000000000002
 73
     0
 72
     1
 10
-10.50000000000001
 20
-20.99999999999909
 11
-12.00000000000001
 21
-21.0
 72
     1
 10
-12.00000000000001
 20
-21.0
 11
-12.00000000000001
 21
-26.77499999999964
 72
     2
 10
-12.62500000000001
 20
-26.77499999999964
 40
0.625
 50
360.0
 51
540.0
 73
     0
 72
     1
 10
-13.25000000000001
 20
-26.77499999999964
 11
-13.25000000000001
 21
-25.79999999999927
 72
     1
 10
-13.25000000000001
 20
-25.79999999999927
 11
-14.75000000000001
 21
-25.79999999999927
 72
     1
 10
-14.75000000000001
 20
-25.79999999999927
 11
-14.75000000000001
 21
-33.49999999999909
 72
     1
 10
-14.75000000000001
 20
-33.49999999999909
 11
-13.25000000000001
 21
-33.5
 72
     1
 10
-13.25000000000001
 20
-33.5
 11
-13.25000000000001
 21
-32.52499999999964
 72
     2
 10
-12.62500000000001
 20
-32.52499999999918
 40
0.625
 50
179.9999999999583
 51
359.9999999999583
 73
     0
 72
     1
 10
-12.00000000000001
 20
-32.52499999999873
 11
-12.00000000000001
 21
-39.75
 72
     2
 10
-12.25000000000001
 20
-39.75
 40
0.25
 50
360.0
 51
450.0
 73
     0
 72
     1
 10
-12.25000000000001
 20
-40.0
 11
-13.02525512860849
 21
-40.0
 72
     2
 10
-13.02525512860836
 20
-38.5
 40
1.5
 50
90.00000000000483
 51
168.4630409671841
 73
     0
 72
     2
 10
-14.25000000000044
 20
-38.7499999999996
 40
0.2499999999996012
 50
168.4630409670701
 51
269.9999999998905
 73
     0
 72
     1
 10
-14.25000000000092
 20
-38.5
 11
-13.50000000000092
 21
-38.49999999999909
 72
     1
 10
-13.50000000000092
 20
-38.49999999999909
 11
-13.50000000000001
 21
-36.0
 72
     2
 10
-14.00000000000047
 20
-35.99999999999955
 40
0.5000000000004548
 50
359.9999999999479
 51
449.9999999999478
 73
     1
 72
     1
 10
-14.00000000000001
 20
-35.49999999999909
 11
-26.19999999999983
 21
-35.49999999999999
 72
     1
 10
-26.19999999999983
 20
-35.49999999999999
 11
-26.20000000000042
 21
-35.94999999999835
 72
     2
 10
-26.45000000000042
 20
-35.94999999999803
 40
0.25
 50
0.0000000000749084
 51
89.99999999999186
 73
     0
 72
     1
 10
-26.45000000000039
 20
-36.19999999999803
 11
-32.50000000000002
 21
-36.1999999999989
 72
     2
 10
-32.50000000000047
 20
-36.69999999999845
 40
0.4999999999995453
 50
89.99999999994789
 51
179.9999999999479
 73
     1
 72
     1
 10
-33.00000000000002
 20
-36.69999999999799
 11
-33.00000000000002
 21
-38.49999999999909
 72
     2
 10
-32.50000000000002
 20
-38.49999999999909
 40
0.5
 50
180.0
 51
270.0
 73
     1
 72
     1
 10
-32.50000000000002
 20
-38.99999999999908
 11
-30.00000000000002
 21
-38.99999999999908
 72
     2
 10
-30.00000000000092
 20
-39.49999999999954
 40
0.5000000000004548
 50
270.0000000001042
 51
450.0000000001041
 73
     0
 97
        1
330
1DC2
 75
     0
 76
     1
 98
        1
 10
0.0
 20
0.0
  0
ENDBLK
  5
67B
330
679
100
AcDbEntity
  8
0
100
AcDbBlockEnd
  0
BLOCK
  5
CC5
330
CBB
100
AcDbEntity
  8
0
100
AcDbBlockBegin
  2
vantage a4 SM attributes (4)
 70
     2
 10
0.0
 20
0.0
 30
0.0
  3
vantage a4 SM attributes (4)
  1

  0
ATTDEF
  5
CBC
330
CBB
100
AcDbEntity
  8
APL Border
100
AcDbText
 10
41.78979785863008
 20
275.28125
 30
0.0
 40
3.5
  1
DRAWING TITLE LINE 1
  7
Arial-Bold
100
AcDbAttributeDefinition
  3
Drawing Title Line 1
  2
DRAWINGTITLE_1
 70
     0
  0
ATTDEF
  5
CBD
330
CBB
100
AcDbEntity
  8
APL Border
100
AcDbText
 10
41.78979785863008
 20
269.28125
 30
0.0
 40
3.5
  1
DRAWING TITLE LINE 2
  7
Arial-Bold
100
AcDbAttributeDefinition
  3
Drawing Title Line 2
  2
DRAWINGTITLE_2
 70
     0
  0
ATTDEF
  5
CBE
330
CBB
100
AcDbEntity
  8
APL Border
100
AcDbText
 10
41.78979785863008
 20
263.28125
 30
0.0
 40
3.5
  1
DRAWING TITLE LINE 3
  7
Arial-Bold
100
AcDbAttributeDefinition
  3
Drawing Title Line 3
  2
DRAWINGTITLE_3
 70
     0
  0
ATTDEF
  5
CBF
330
CBB
100
AcDbEntity
  8
APL Border
100
AcDbText
 10
41.78979785863008
 20
257.28125
 30
0.0
 40
3.0
  1
DRAWING TITLE LINE 4
  7
Arial-Regular
100
AcDbAttributeDefinition
  3
Drawing Title Line 4
  2
DRAWINGTITLE_4
 70
     0
  0
ATTDEF
  5
CC0
330
CBB
100
AcDbEntity
  8
APL Border
100
AcDbText
 10
165.845
 20
273.69
 30
0.0
 40
2.5
  1
AW123-456
  7
Arial-Regular
100
AcDbAttributeDefinition
  3
CAD Reference
  2
AW123-456
 70
     0
  0
ATTDEF
  5
CC1
330
CBB
100
AcDbEntity
  8
APL Border
100
AcDbText
 10
147.5475920873124
 20
257.1899999999999
 30
0.0
 40
2.5
  1
24.05.02
  7
Arial-Regular
 72
     1
 11
154.345
 21
257.1899999999999
 31
0.0
100
AcDbAttributeDefinition
  3
Date
  2
24.05.02
 70
     0
  0
ATTDEF
  5
CC2
330
CBB
100
AcDbEntity
  8
APL Border
100
AcDbText
 10
175.4174761255116
 20
257.1899999999999
 30
0.0
 40
2.5
  1
1:2
  7
Arial-Regular
 72
     1
 11
177.845
 21
257.1899999999999
 31
0.0
100
AcDbAttributeDefinition
  3
Scale
  2
1:2
 70
     0
  0
ATTDEF
  5
CC3
330
CBB
100
AcDbEntity
  8
APL Border
100
AcDbText
 10
11.59500000000001
 20
1.189999999999997
 30
0.0
 40
3.75
  1
1.2.34
  7
Arial-Bold
100
AcDbAttributeDefinition
  3
Page Number (Left)
  2
1.2.34
 70
     0
  0
ATTDEF
  5
CC4
330
CBB
100
AcDbEntity
  8
APL Border
100
AcDbText
 10
175.0298567530696
 20
1.189999999999997
 30
0.0
 40
3.75
  1
1.2.34
  7
Arial-Bold
 72
     2
 11
189.595
 21
1.189999999999997
 31
0.0
100
AcDbAttributeDefinition
  3
Page Number (Right)
  2
1.2.34
 70
     0
  0
ENDBLK
  5
CC6
330
CBB
100
AcDbEntity
  8
0
100
AcDbBlockEnd
  0
BLOCK
  5
D5D
330
D5C
100
AcDbEntity
  8
0
100
AcDbBlockBegin
  2
9010331
 70
     0
 10
79.78512856672606
 20
151.6303744221887
 30
0.0
  3
9010331
  1
9010331.dwg
  0
LINE
  5
1DC7
330
D5C
100
AcDbEntity
  8
APL Joinery
 62
   252
100
AcDbLine
 10
73.28512856672606
 20
154.9196394371826
 30
0.0
 11
79.03512856672605
 21
153.3789315807037
 31
0.0
  0
LINE
  5
1DC8
330
D5C
100
AcDbEntity
  8
APL Joinery
 62
   252
100
AcDbLine
 10
77.57424399404638
 20
153.7703744221883
 30
0.0
 11
73.28512856672606
 21
153.7703744221883
 31
0.0
  0
LINE
  5
1DC9
330
D5C
100
AcDbEntity
  8
APL Joinery
 62
   252
100
AcDbLine
 10
79.03512856672605
 20
152.9303744221883
 30
0.0
 11
73.28512856672606
 21
152.9303744221883
 31
0.0
  0
LINE
  5
1DCA
330
D5C
100
AcDbEntity
  8
APL Joinery
 62
   252
100
AcDbLine
 10
79.03512856672605
 20
152.0903744221887
 30
0.0
 11
73.28512856672606
 21
152.0903744221883
 31
0.0
  0
LINE
  5
1DCB
330
D5C
100
AcDbEntity
  8
APL Joinery
 62
   252
100
AcDbLine
 10
79.03512856672605
 20
151.1703744221886
 30
0.0
 11
73.28512856672606
 21
151.1703744221883
 31
0.0
  0
LINE
  5
1DCC
330
D5C
100
AcDbEntity
  8
APL Joinery
 62
   252
100
AcDbLine
 10
79.03512856672605
 20
150.3303744221885
 30
0.0
 11
73.28512856672606
 21
150.3303744221885
 31
0.0
  0
LINE
  5
1DCD
330
D5C
100
AcDbEntity
  8
APL Joinery
 62
   252
100
AcDbLine
 10
77.57424399404524
 20
149.4903744221885
 30
0.0
 11
73.28512856672606
 21
149.4903744221885
 31
0.0
  0
LINE
  5
1DCE
330
D5C
100
AcDbEntity
  8
APL Joinery
 62
   252
100
AcDbLine
 10
79.03512856672605
 20
149.8818172636736
 30
0.0
 11
73.28512856672606
 21
148.341109407194
 31
0.0
  0
LINE
  5
1DCF
330
D5C
100
AcDbEntity
  8
APL Joinery
 62
   252
100
AcDbLine
 10
79.03512856672605
 20
155.0803744221887
 30
0.0
 11
79.03512856672605
 21
148.1803744221888
 31
0.0
  0
LINE
  5
1DD0
330
D5C
100
AcDbEntity
  8
APL Joinery
 62
   252
100
AcDbLine
 10
79.28512856672606
 20
155.0803744221887
 30
0.0
 11
79.28512856672606
 21
148.1803744221888
 31
0.0
  0
LINE
  5
1DD1
330
D5C
100
AcDbEntity
  8
APL Joinery
 62
   252
100
AcDbLine
 10
79.53512856672606
 20
155.0803744221887
 30
0.0
 11
79.53512856672606
 21
148.1803744221888
 31
0.0
  0
LINE
  5
1DD2
330
D5C
100
AcDbEntity
  8
APL Joinery
 62
   252
100
AcDbLine
 10
79.53512856672606
 20
148.1803744221888
 30
0.0
 11
79.03512856672605
 21
148.1803744221888
 31
0.0
  0
LINE
  5
1DD3
330
D5C
100
AcDbEntity
  8
APL Joinery
 62
   252
100
AcDbLine
 10
79.03512856672605
 20
155.0803744221887
 30
0.0
 11
79.53512856672606
 21
155.0803744221887
 31
0.0
  0
ENDBLK
  5
D5E
330
D5C
100
AcDbEntity
  8
0
100
AcDbBlockEnd
  0
BLOCK
  5
D7F
330
D7E
100
AcDbEntity
  8
0
100
AcDbBlockBegin
  2
9010100iarch
 70
     0
 10
0.0
 20
0.0
 30
0.0
  3
9010100iarch
  1
9010100iarch.dwg
  0
LWPOLYLINE
  5
1DD6
330
D7E
100
AcDbEntity
  8
APL Joinery
 62
   252
100
AcDbPolyline
 90
       20
 70
     1
 43
0.0
 10
-2.291947286898903
 20
-1.146637379828007
 10
-2.291947286898903
 20
-1.0
 10
-1.0
 20
-1.0
 10
-1.0
 20
-2.25
 10
0.0
 20
-2.25
 10
0.0
 20
2.25
 10
-1.0
 20
2.25
 10
-1.0
 20
1.0
 10
-2.291947286898903
 20
1.0
 10
-2.291947286898903
 20
1.116728945167324
 42
0.353161266586218
 10
-3.080707613706181
 20
2.094163239873978
 10
-6.918914867868127
 20
3.285903910598062
 42
0.9293418001091849
 10
-7.100782010083491
 20
2.821590770245393
 10
-3.49676038718735
 20
1.07922066051924
 10
-4.5
 20
0.5
 10
-4.5
 20
-0.5
 10
-3.474872934163158
 20
-1.09185738741371
 10
-6.982012909347637
 20
-3.018122474418281
 42
0.9293418001092465
 10
-6.778320931001218
 20
-3.473283904769459
 10
-2.951330308989632
 20
-2.086839525305177
 42
0.3157091416597363
  0
ENDBLK
  5
D80
330
D7E
100
AcDbEntity
  8
0
100
AcDbBlockEnd
  0
BLOCK
  5
F74
330
F73
100
AcDbEntity
  8
0
100
AcDbBlockBegin
  2
08900
 70
     0
 10
0.0
 20
0.0
 30
0.0
  3
08900
  1
08900.dwg
  0
LWPOLYLINE
  5
1DD8
102
{ACAD_REACTORS
330
1DDA
102
}
330
F73
100
AcDbEntity
  8
APL Joinery
  6
Continuous
100
AcDbPolyline
 90
       62
 70
     1
 43
0.0
 10
-63.3721042037684
 20
-32.82970858010597
 10
-54.71899131635268
 20
-31.7480694691784
 42
0.3782424518881047
 10
-54.50000000000001
 20
-31.5
 10
-54.5
 20
-20.39999999999964
 10
-54.09999999999991
 20
-20.0
 10
-54.5
 20
-19.59999999999945
 10
-54.5
 20
-18.59999999999991
 10
-54.09999999999991
 20
-18.20000000000027
 10
-54.5
 20
-17.79999999999972
 10
-54.5
 20
-8.5
 42
0.3782424518880794
 10
-54.71899131635291
 20
-8.251930530821915
 10
-63.3721042037684
 20
-7.17029141989402
 42
-0.3782424518880969
 10
-66.00000000000045
 20
-4.193457789753062
 10
-66.00000000000045
 20
-2.999999999999999
 42
-0.4142135623730951
 10
-63.00000000000046
 20
0.0
 10
-0.25
 20
0.0
 42
-0.4142135623730951
 10
0.0
 20
-0.25
 10
0.0
 20
-1.025255128608478
 42
-0.3563939586926501
 10
-1.200000000000045
 20
-2.494948974278315
 42
-0.4744978678080149
 10
-1.5
 20
-2.25
 10
-1.5
 20
-1.5
 10
-4.0
 20
-1.5
 42
0.4142135623730951
 10
-4.5
 20
-2.0
 10
-4.5
 20
-8.599999999999454
 10
-4.90000000000009
 20
-9.0
 10
-4.5
 20
-9.399999999999636
 10
-4.5
 20
-14.19999999999982
 10
-4.000000000000198
 20
-14.19999999999982
 42
-0.4142135623731159
 10
-3.800000000000196
 20
-14.39999999999983
 10
-3.800000000000636
 20
-20.5
 42
0.4142135623730951
 10
-3.300000000000636
 20
-21.0
 10
-1.500000000000454
 20
-21.0
 42
0.4142135623730951
 10
-1.000000000000454
 20
-20.5
 10
-1.000000000000454
 20
-18.0
 42
-0.9999999999999998
 10
0.0
 20
-18.0
 10
0.0
 20
-30.60000000000036
 10
-0.400000000000091
 20
-31.0
 10
0.0
 20
-31.39999999999964
 10
0.0
 20
-36.50000000000001
 42
0.4142135623730951
 10
1.5
 20
-38.00000000000001
 10
11.19999999999982
 20
-38.00000000000001
 42
0.4142135623730951
 10
11.69999999999982
 20
-37.50000000000001
 10
11.69999999999982
 20
-36.50000000000001
 42
-0.4142135623730951
 10
12.19999999999982
 20
-36.00000000000001
 10
13.94999999999982
 20
-36.00000000000001
 42
-0.9999999999999998
 10
13.94999999999982
 20
-37.00000000000001
 10
13.19999999999982
 20
-37.00000000000001
 10
13.19999999999982
 20
-38.50000000000001
 10
18.69999999999982
 20
-38.50000000000001
 10
18.69999999999982
 20
-37.00000000000001
 10
17.94999999999982
 20
-37.00000000000001
 42
-0.9999999999999998
 10
17.94999999999982
 20
-36.00000000000001
 10
19.5
 20
-36.00000000000001
 42
-0.4142135623730951
 10
20.0
 20
-36.50000000000001
 10
20.0
 20
-37.69999999999983
 10
21.79999999999973
 20
-37.69999999999966
 42
-0.4142135623730533
 10
22.0
 20
-37.89999999999964
 10
22.0
 20
-39.75000000000001
 42
-0.4142135623730951
 10
21.75
 20
-40.0
 10
-63.00000000000046
 20
-40.0
 42
-0.4142135623730951
 10
-66.00000000000045
 20
-37.00000000000001
 10
-66.00000000000045
 20
-35.80654221024694
 42
-0.3782424518880978
  0
LWPOLYLINE
  5
1DD9
102
{ACAD_REACTORS
330
1DDA
102
}
330
F73
100
AcDbEntity
  8
APL Joinery
  6
Continuous
100
AcDbPolyline
 90
       33
 70
     1
 43
0.0
 10
-63.12103473458948
 20
-34.81388933353324
 10
-54.47092184717413
 20
-33.73262522260572
 42
0.378242451888105
 10
-52.5
 20
-31.50000000000006
 10
-52.50000000000001
 20
-20.4799999999995
 10
-52.1614213562373
 20
-20.14142135623739
 42
0.4142135623730951
 10
-52.16142135623714
 20
-19.85857864376277
 10
-52.5
 20
-19.5199999999993
 10
-52.5
 20
-18.67999999999976
 10
-52.1614213562373
 20
-18.34142135623766
 42
0.4142135623730951
 10
-52.16142135623714
 20
-18.05857864376304
 10
-52.5
 20
-17.71999999999958
 10
-52.50000000000001
 20
-8.500000000000358
 42
0.3782424518880797
 10
-54.47092184717428
 20
-6.267374777394607
 10
-63.1210347345895
 20
-5.186110666466745
 42
-0.3782424518880969
 10
-63.99700000000019
 20
-4.19383278975309
 10
-63.9970000000002
 20
-3.0
 42
-0.4142135623730951
 10
-62.9970000000002
 20
-2.0
 10
-7.497000000000191
 20
-2.0
 42
-0.4142135623730951
 10
-6.497000000000191
 20
-3.0
 10
-6.497000000000191
 20
-15.5
 10
-5.797000000000373
 20
-16.19999999999982
 10
-5.797000000000373
 20
-20.19999999999982
 10
-6.497000000000191
 20
-20.89999999999964
 10
-6.497000000000191
 20
-22.35499999999943
 42
0.4142135623730287
 10
-6.297000000000238
 20
-22.55499999999942
 10
-4.720718722220745
 20
-22.55499999999978
 42
0.1526397006686704
 10
-3.297000000000373
 20
-23.0
 10
-1.997000000000191
 20
-23.0
 10
-1.997000000000191
 20
-37.00000000000001
 42
-0.4142135623730951
 10
-2.997000000000191
 20
-38.00000000000001
 10
-62.99700000000064
 20
-38.00000000000001
 42
-0.4142135623732054
 10
-63.99700000000064
 20
-36.99999999999963
 10
-63.9970000000002
 20
-35.80616721024652
 42
-0.3782424518880017
  0
HATCH
  5
1DDA
330
F73
100
AcDbEntity
  8
APL Hatch
100
AcDbHatch
 10
0.0
 20
0.0
 30
0.0
210
0.0
220
0.0
230
1.0
  2
SOLID
 70
     1
 71
     1
 91
        2
 92
        1
 93
       62
 72
     1
 10
-63.3721042037684
 20
-32.82970858010597
 11
-54.71899131635268
 21
-31.7480694691784
 72
     2
 10
-54.75
 20
-31.49999999999999
 40
0.2499999999999956
 50
277.1250163489048
 51
359.9999999999984
 73
     1
 72
     1
 10
-54.50000000000001
 20
-31.5
 11
-54.5
 21
-20.39999999999964
 72
     1
 10
-54.5
 20
-20.39999999999964
 11
-54.09999999999991
 21
-20.0
 72
     1
 10
-54.09999999999991
 20
-20.0
 11
-54.5
 21
-19.59999999999945
 72
     1
 10
-54.5
 20
-19.59999999999945
 11
-54.5
 21
-18.59999999999991
 72
     1
 10
-54.5
 20
-18.59999999999991
 11
-54.09999999999991
 21
-18.20000000000027
 72
     1
 10
-54.09999999999991
 20
-18.20000000000027
 11
-54.5
 21
-17.79999999999972
 72
     1
 10
-54.5
 20
-17.79999999999972
 11
-54.5
 21
-8.5
 72
     2
 10
-54.74999999999994
 20
-8.500000000000309
 40
0.2499999999999432
 50
0.0000000000708373
 51
82.87498365115931
 73
     1
 72
     1
 10
-54.71899131635291
 20
-8.251930530821915
 11
-63.3721042037684
 21
-7.17029141989402
 72
     2
 10
-63.00000000000046
 20
-4.193457789753058
 40
2.999999999999998
 50
97.12501634890797
 51
179.9999999999999
 73
     0
 72
     1
 10
-66.00000000000045
 20
-4.193457789753062
 11
-66.00000000000045
 21
-2.999999999999999
 72
     2
 10
-63.00000000000046
 20
-3.0
 40
3.0
 50
180.0
 51
270.0
 73
     0
 72
     1
 10
-63.00000000000046
 20
0.0
 11
-0.25
 21
0.0
 72
     2
 10
-0.25
 20
-0.25
 40
0.25
 50
270.0
 51
360.0
 73
     0
 72
     1
 10
0.0
 20
-0.25
 11
0.0
 21
-1.025255128608478
 72
     2
 10
-1.499999999999818
 20
-1.025255128608547
 40
1.499999999999818
 50
359.9999999999973
 51
438.4630409671919
 73
     0
 72
     2
 10
-1.250000000000001
 20
-2.249999999999991
 40
0.249999999999998
 50
78.46304096719459
 51
179.9999999999979
 73
     0
 72
     1
 10
-1.5
 20
-2.25
 11
-1.5
 21
-1.5
 72
     1
 10
-1.5
 20
-1.5
 11
-4.0
 21
-1.5
 72
     2
 10
-4.0
 20
-2.0
 40
0.5
 50
90.0
 51
180.0
 73
     1
 72
     1
 10
-4.5
 20
-2.0
 11
-4.5
 21
-8.599999999999454
 72
     1
 10
-4.5
 20
-8.599999999999454
 11
-4.90000000000009
 21
-9.0
 72
     1
 10
-4.90000000000009
 20
-9.0
 11
-4.5
 21
-9.399999999999636
 72
     1
 10
-4.5
 20
-9.399999999999636
 11
-4.5
 21
-14.19999999999982
 72
     1
 10
-4.5
 20
-14.19999999999982
 11
-4.000000000000198
 21
-14.19999999999982
 72
     2
 10
-4.000000000000197
 20
-14.39999999999982
 40
0.2000000000000011
 50
269.9999999999995
 51
360.0000000000036
 73
     0
 72
     1
 10
-3.800000000000196
 20
-14.39999999999983
 11
-3.800000000000636
 21
-20.5
 72
     2
 10
-3.300000000000636
 20
-20.5
 40
0.5
 50
180.0
 51
270.0
 73
     1
 72
     1
 10
-3.300000000000636
 20
-21.0
 11
-1.500000000000454
 21
-21.0
 72
     2
 10
-1.500000000000454
 20
-20.5
 40
0.5
 50
270.0
 51
360.0
 73
     1
 72
     1
 10
-1.000000000000454
 20
-20.5
 11
-1.000000000000454
 21
-18.0
 72
     2
 10
-0.5000000000002274
 20
-18.0
 40
0.5000000000002274
 50
180.0
 51
360.0
 73
     0
 72
     1
 10
0.0
 20
-18.0
 11
0.0
 21
-30.60000000000036
 72
     1
 10
0.0
 20
-30.60000000000036
 11
-0.400000000000091
 21
-31.0
 72
     1
 10
-0.400000000000091
 20
-31.0
 11
0.0
 21
-31.39999999999964
 72
     1
 10
0.0
 20
-31.39999999999964
 11
0.0
 21
-36.50000000000001
 72
     2
 10
1.5
 20
-36.50000000000001
 40
1.5
 50
180.0
 51
270.0
 73
     1
 72
     1
 10
1.5
 20
-38.00000000000001
 11
11.19999999999982
 21
-38.00000000000001
 72
     2
 10
11.19999999999982
 20
-37.50000000000001
 40
0.5
 50
270.0
 51
360.0
 73
     1
 72
     1
 10
11.69999999999982
 20
-37.50000000000001
 11
11.69999999999982
 21
-36.50000000000001
 72
     2
 10
12.19999999999982
 20
-36.50000000000001
 40
0.5
 50
180.0
 51
270.0
 73
     0
 72
     1
 10
12.19999999999982
 20
-36.00000000000001
 11
13.94999999999982
 21
-36.00000000000001
 72
     2
 10
13.94999999999982
 20
-36.50000000000001
 40
0.5
 50
270.0
 51
450.0
 73
     0
 72
     1
 10
13.94999999999982
 20
-37.00000000000001
 11
13.19999999999982
 21
-37.00000000000001
 72
     1
 10
13.19999999999982
 20
-37.00000000000001
 11
13.19999999999982
 21
-38.50000000000001
 72
     1
 10
13.19999999999982
 20
-38.50000000000001
 11
18.69999999999982
 21
-38.50000000000001
 72
     1
 10
18.69999999999982
 20
-38.50000000000001
 11
18.69999999999982
 21
-37.00000000000001
 72
     1
 10
18.69999999999982
 20
-37.00000000000001
 11
17.94999999999982
 21
-37.00000000000001
 72
     2
 10
17.94999999999982
 20
-36.50000000000001
 40
0.5
 50
90.0
 51
270.0
 73
     0
 72
     1
 10
17.94999999999982
 20
-36.00000000000001
 11
19.5
 21
-36.00000000000001
 72
     2
 10
19.5
 20
-36.50000000000001
 40
0.5
 50
270.0
 51
360.0
 73
     0
 72
     1
 10
20.0
 20
-36.50000000000001
 11
20.0
 21
-37.69999999999983
 72
     1
 10
20.0
 20
-37.69999999999983
 11
21.79999999999973
 21
-37.69999999999966
 72
     2
 10
21.79999999999985
 20
-37.8999999999998
 40
0.2000000000001449
 50
269.9999999999633
 51
359.9999999999552
 73
     0
 72
     1
 10
22.0
 20
-37.89999999999964
 11
22.0
 21
-39.75000000000001
 72
     2
 10
21.75
 20
-39.75000000000001
 40
0.25
 50
360.0
 51
450.0
 73
     0
 72
     1
 10
21.75
 20
-40.0
 11
-63.00000000000046
 21
-40.0
 72
     2
 10
-63.00000000000046
 20
-37.00000000000001
 40
3.0
 50
90.0
 51
180.0
 73
     0
 72
     1
 10
-66.00000000000045
 20
-37.00000000000001
 11
-66.00000000000045
 21
-35.80654221024694
 72
     2
 10
-63.00000000000046
 20
-35.80654221024693
 40
3.0
 50
179.9999999999998
 51
262.874983651092
 73
     0
 97
        1
330
1DD8
 92
       16
 93
       33
 72
     1
 10
-63.12103473458948
 20
-34.81388933353324
 11
-54.47092184717413
 21
-33.73262522260572
 72
     2
 10
-54.74999999999997
 20
-31.50000000000001
 40
2.249999999999972
 50
277.1250163489051
 51
359.9999999999988
 73
     1
 72
     1
 10
-52.5
 20
-31.50000000000006
 11
-52.50000000000001
 21
-20.4799999999995
 72
     1
 10
-52.50000000000001
 20
-20.4799999999995
 11
-52.1614213562373
 21
-20.14142135623739
 72
     2
 10
-52.30284271247453
 20
-20.0
 40
0.1999999999999996
 50
314.9999999999683
 51
404.9999999999683
 73
     1
 72
     1
 10
-52.16142135623714
 20
-19.85857864376277
 11
-52.5
 21
-19.5199999999993
 72
     1
 10
-52.5
 20
-19.5199999999993
 11
-52.5
 21
-18.67999999999976
 72
     1
 10
-52.5
 20
-18.67999999999976
 11
-52.1614213562373
 21
-18.34142135623766
 72
     2
 10
-52.30284271247453
 20
-18.20000000000027
 40
0.1999999999999996
 50
314.9999999999683
 51
404.9999999999683
 73
     1
 72
     1
 10
-52.16142135623714
 20
-18.05857864376304
 11
-52.5
 21
-17.71999999999958
 72
     1
 10
-52.5
 20
-17.71999999999958
 11
-52.50000000000001
 21
-8.500000000000358
 72
     2
 10
-54.75000000000022
 20
-8.500000000000541
 40
2.250000000000206
 50
0.0000000000046592
 51
82.87498365109323
 73
     1
 72
     1
 10
-54.47092184717428
 20
-6.267374777394607
 11
-63.1210347345895
 21
-5.186110666466745
 72
     2
 10
-62.99700000000019
 20
-4.19383278975309
 40
1.0
 50
97.12501634890797
 51
179.9999999999999
 73
     0
 72
     1
 10
-63.99700000000019
 20
-4.19383278975309
 11
-63.9970000000002
 21
-3.0
 72
     2
 10
-62.9970000000002
 20
-3.0
 40
1.0
 50
180.0
 51
270.0
 73
     0
 72
     1
 10
-62.9970000000002
 20
-2.0
 11
-7.497000000000191
 21
-2.0
 72
     2
 10
-7.497000000000191
 20
-3.0
 40
1.0
 50
270.0
 51
360.0
 73
     0
 72
     1
 10
-6.497000000000191
 20
-3.0
 11
-6.497000000000191
 21
-15.5
 72
     1
 10
-6.497000000000191
 20
-15.5
 11
-5.797000000000373
 21
-16.19999999999982
 72
     1
 10
-5.797000000000373
 20
-16.19999999999982
 11
-5.797000000000373
 21
-20.19999999999982
 72
     1
 10
-5.797000000000373
 20
-20.19999999999982
 11
-6.497000000000191
 21
-20.89999999999964
 72
     1
 10
-6.497000000000191
 20
-20.89999999999964
 11
-6.497000000000191
 21
-22.35499999999943
 72
     2
 10
-6.297000000000192
 20
-22.35499999999943
 40
0.1999999999999993
 50
180.0
 51
269.9999999999867
 73
     1
 72
     1
 10
-6.297000000000238
 20
-22.55499999999942
 11
-4.720718722220745
 21
-22.55499999999978
 72
     2
 10
-3.297000000000343
 20
-20.50000000000002
 40
2.499999999999985
 50
235.285505475642
 51
269.9999999999993
 73
     1
 72
     1
 10
-3.297000000000373
 20
-23.0
 11
-1.997000000000191
 21
-23.0
 72
     1
 10
-1.997000000000191
 20
-23.0
 11
-1.997000000000191
 21
-37.00000000000001
 72
     2
 10
-2.997000000000191
 20
-37.00000000000001
 40
1.0
 50
360.0
 51
450.0
 73
     0
 72
     1
 10
-2.997000000000191
 20
-38.00000000000001
 11
-62.99700000000064
 21
-38.00000000000001
 72
     2
 10
-62.99700000000064
 20
-37.00000000000001
 40
1.0
 50
90.0
 51
180.0000000000215
 73
     0
 72
     1
 10
-63.99700000000064
 20
-36.99999999999963
 11
-63.9970000000002
 21
-35.80616721024652
 72
     2
 10
-62.9970000000002
 20
-35.8061672102469
 40
0.9999999999999928
 50
180.0000000000215
 51
262.8749836510944
 73
     0
 97
        1
330
1DD9
 75
     0
 76
     1
 98
        1
 10
0.0
 20
0.0
  0
ENDBLK
  5
F75
330
F73
100
AcDbEntity
  8
0
100
AcDbBlockEnd
  0
BLOCK
  5
1032
330
1031
100
AcDbEntity
  8
0
 48
3.0
100
AcDbBlockBegin
  2
9010312r
 70
     0
 10
399.4634067278245
 20
339.4121540145172
 30
0.0
  3
9010312r
  1
I:\DWG Master Blocks\9010312r.dwg
  0
LWPOLYLINE
  5
1DDE
330
1031
100
AcDbEntity
  8
APL Joinery
  6
Continuous
 62
   252
100
AcDbPolyline
 90
       28
 70
   128
 43
0.0
 10
395.7634067278242
 20
336.2999919725366
 10
395.7634067278242
 20
343.1621540145172
 42
-0.7673269879789622
 10
396.2299130787703
 20
343.2871540145172
 10
396.7850145808851
 20
342.3256900094965
 10
399.2931562636775
 20
341.6536354710895
 42
-0.3626955242591878
 10
399.4775957926651
 20
341.3914870691883
 10
399.3134067278246
 20
339.4121540145172
 10
397.7634067278242
 20
339.4121540145172
 10
397.7634067278242
 20
336.5121540145171
 10
399.0135696498364
 20
336.5121540145171
 10
399.2752560951169
 20
337.3376963843301
 42
-0.6640183420487276
 10
399.7341578851304
 20
337.3798010733406
 42
-0.250000000000001
 10
399.7341578851305
 20
333.1445069556935
 42
-0.6640183420487097
 10
399.2752560951171
 20
333.1866116447042
 10
399.0135696498364
 20
334.0121540145171
 10
397.4635696498362
 20
334.0121540145171
 10
397.1898787608678
 20
334.2858449034854
 42
0.6681785464135807
 10
396.7631020655712
 20
334.1090682714504
 10
396.7631016544432
 20
332.4843569389277
 10
396.2607415896308
 20
329.0715154000631
 42
-0.9294717386060577
 10
395.7634067278242
 20
329.1079223518048
 10
395.7634067278242
 20
334.5749919747145
 42
-0.3563939586926081
 10
396.5634067278242
 20
335.5547878718279
 42
0.3563939586925715
 10
396.7634067278242
 20
335.7997368461061
 10
396.7634067278242
 20
339.3871540145172
 42
0.9999999999999998
 10
396.7134067278242
 20
339.3871540145172
 10
396.7134067278242
 20
336.2999919725366
 42
-0.9999999999999998
 10
395.76340673218
 20
336.2999919725366
  0
ENDBLK
  5
1033
330
1031
100
AcDbEntity
  8
0
 48
3.0
100
AcDbBlockEnd
  0
BLOCK
  5
1035
330
1034
100
AcDbEntity
  8
0
 48
3.0
100
AcDbBlockBegin
  2
6Glass
 70
     0
 10
101.8368839708302
 20
399.4111348733001
 30
0.0
  3
6Glass
  1
6Glass.dwg
  0
LINE
  5
1036
330
1034
100
AcDbEntity
  8
APL Joinery
 62
     7
100
AcDbLine
 10
95.33688397083029
 20
412.4111348732999
 30
0.0
 11
95.33688397083029
 21
392.4111348733
 31
0.0
  0
LINE
  5
1037
330
1034
100
AcDbEntity
  8
APL Joinery
 62
     7
100
AcDbLine
 10
89.33688397083029
 20
412.4111348732999
 30
0.0
 11
95.33688397083029
 21
412.4111348732999
 31
0.0
  0
LINE
  5
1038
330
1034
100
AcDbEntity
  8
APL Joinery
 62
     8
100
AcDbLine
 10
93.33688397083028
 20
412.4111348732999
 30
0.0
 11
93.33688397083028
 21
392.4111348733
 31
0.0
  0
LINE
  5
1039
330
1034
100
AcDbEntity
  8
APL Joinery
 62
     7
100
AcDbLine
 10
89.33688397083029
 20
412.4111348732999
 30
0.0
 11
89.33688397083029
 21
392.4111348733
 31
0.0
  0
LINE
  5
103A
330
1034
100
AcDbEntity
  8
APL Joinery
 62
     8
100
AcDbLine
 10
91.33688397083028
 20
412.4111348732999
 30
0.0
 11
91.33688397083028
 21
392.4111348733
 31
0.0
  0
ENDBLK
  5
103B
330
1034
100
AcDbEntity
  8
0
 48
3.0
100
AcDbBlockEnd
  0
BLOCK
  5
103D
330
103C
100
AcDbEntity
  8
0
 62
     7
 48
3.0
100
AcDbBlockBegin
  2
08638
 70
     0
 10
265.902225526263
 20
627.8565575453155
 30
0.0
  3
08638
  1
I:\DWG Master Blocks\08638.dwg
  0
LWPOLYLINE
  5
1DE1
102
{ACAD_REACTORS
330
1DE2
102
}
330
103C
100
AcDbEntity
  8
APL Joinery
  6
Continuous
100
AcDbPolyline
 90
       48
 70
     1
 43
0.0
 10
282.9022255262626
 20
625.1565575453155
 42
-0.4142135623731117
 10
281.8022255262631
 20
626.2565575453159
 42
0.4142135623730951
 10
281.3022255262631
 20
626.7565575453159
 10
269.5022255262632
 20
626.7565575453161
 10
269.5022255262632
 20
624.799450764122
 42
-0.6681786379193133
 10
269.0754488309663
 20
624.6226740688253
 10
267.9754488309681
 20
625.7226740688241
 42
-0.4142135623730951
 10
267.9754488309663
 20
626.0762274594156
 10
268.402225526263
 20
626.5030041547123
 10
268.4022255262632
 20
627.6065575453156
 42
0.4142135623730951
 10
268.152225526263
 20
627.8565575453153
 10
266.1900934919069
 20
627.8565575453155
 42
-0.4142135623730951
 10
265.902225526263
 20
628.1444255109597
 10
265.9022255262628
 20
649.6065575453155
 42
-0.4142135623730951
 10
266.1522255262628
 20
649.8565575453156
 10
268.7022255262629
 20
649.8565575453156
 42
-0.4142135623730951
 10
269.202225526263
 20
649.3565575453158
 10
269.202225526263
 20
647.8565575453156
 10
270.402225526263
 20
647.8565575453155
 42
-0.4142135623730951
 10
270.902225526263
 20
647.3565575453155
 10
270.902225526263
 20
645.8065575453154
 42
-0.9999999999999998
 10
269.902225526263
 20
645.8065575453154
 10
269.902225526263
 20
646.5565575453156
 10
268.4022255262632
 20
646.5565575453156
 10
268.402225526263
 20
645.5565575453154
 42
-0.4142135623730617
 10
268.152225526263
 20
645.3065575453154
 10
267.6522255262628
 20
645.3065575453154
 42
0.4142135623730951
 10
267.4022255262628
 20
645.0565575453154
 10
267.4022255262627
 20
642.5565575453155
 42
0.4142135623730951
 10
267.6522255262628
 20
642.3065575453153
 10
268.152225526263
 20
642.3065575453155
 42
-0.4142135623730951
 10
268.402225526263
 20
642.0565575453155
 10
268.402225526263
 20
641.0565575453156
 10
269.902225526263
 20
641.0565575453155
 10
269.902225526263
 20
641.8065575453155
 42
-0.9999999999999998
 10
270.902225526263
 20
641.8065575453157
 10
270.9022255262632
 20
640.2565575453157
 42
-0.4142135623730951
 10
270.4022255262632
 20
639.7565575453157
 10
268.1422839132624
 20
639.7565575453154
 42
0.4216277665658041
 10
267.6424432595641
 20
639.2439353065858
 10
267.852995449367
 20
630.9060685903965
 42
0.3742242816206427
 10
269.6264661042266
 20
628.9693552852431
 42
-0.3814371313443093
 10
270.602225526263
 20
627.8763940422031
 10
270.602225526263
 20
627.856557545316
 10
281.3022255262634
 20
627.8565575453154
 42
-0.4142135623730284
 10
282.9022255262632
 20
626.2565575453156
 10
284.0422750324269
 20
626.2565575453156
 42
-3.927182716064489
 10
284.0422750324274
 20
625.1565575453152
  0
HATCH
  5
1DE2
330
103C
100
AcDbEntity
  8
APL Hatch
100
AcDbHatch
 10
0.0
 20
0.0
 30
0.0
210
0.0
220
0.0
230
1.0
  2
SOLID
 70
     1
 71
     1
 91
        1
 92
        1
 93
       48
 72
     2
 10
282.9022255262629
 20
626.2565575453154
 40
1.099999999999909
 50
90.00000000001776
 51
180.0000000000236
 73
     0
 72
     2
 10
281.3022255262631
 20
626.2565575453159
 40
0.5
 50
0.0
 51
90.0
 73
     1
 72
     1
 10
281.3022255262631
 20
626.7565575453159
 11
269.5022255262632
 21
626.7565575453161
 72
     1
 10
269.5022255262632
 20
626.7565575453161
 11
269.5022255262632
 21
624.799450764122
 72
     2
 10
269.252225526263
 20
624.799450764122
 40
0.2500000000001705
 50
360.0
 51
494.9999999999907
 73
     0
 72
     1
 10
269.0754488309663
 20
624.6226740688253
 11
267.9754488309681
 21
625.7226740688241
 72
     2
 10
268.152225526263
 20
625.8994507641208
 40
0.249999999998756
 50
134.9999999997052
 51
224.9999999997053
 73
     0
 72
     1
 10
267.9754488309663
 20
626.0762274594156
 11
268.402225526263
 21
626.5030041547123
 72
     1
 10
268.402225526263
 20
626.5030041547123
 11
268.4022255262632
 21
627.6065575453156
 72
     2
 10
268.1522255262632
 20
627.6065575453153
 40
0.25
 50
0.0000000000521102
 51
90.00000000005213
 73
     1
 72
     1
 10
268.152225526263
 20
627.8565575453153
 11
266.1900934919069
 21
627.8565575453155
 72
     2
 10
266.190093491907
 20
628.1444255109595
 40
0.2878679656439544
 50
90.00000000002259
 51
180.0000000000226
 73
     0
 72
     1
 10
265.902225526263
 20
628.1444255109597
 11
265.9022255262628
 21
649.6065575453155
 72
     2
 10
266.1522255262628
 20
649.6065575453155
 40
0.25
 50
180.0
 51
270.0
 73
     0
 72
     1
 10
266.1522255262628
 20
649.8565575453156
 11
268.7022255262629
 21
649.8565575453156
 72
     2
 10
268.7022255262631
 20
649.3565575453157
 40
0.4999999999998864
 50
269.999999999987
 51
359.999999999987
 73
     0
 72
     1
 10
269.202225526263
 20
649.3565575453158
 11
269.202225526263
 21
647.8565575453156
 72
     1
 10
269.202225526263
 20
647.8565575453156
 11
270.402225526263
 21
647.8565575453155
 72
     2
 10
270.402225526263
 20
647.3565575453155
 40
0.5
 50
270.0
 51
360.0
 73
     0
 72
     1
 10
270.902225526263
 20
647.3565575453155
 11
270.902225526263
 21
645.8065575453154
 72
     2
 10
270.402225526263
 20
645.8065575453154
 40
0.5
 50
360.0
 51
540.0
 73
     0
 72
     1
 10
269.902225526263
 20
645.8065575453154
 11
269.902225526263
 21
646.5565575453156
 72
     1
 10
269.902225526263
 20
646.5565575453156
 11
268.4022255262632
 21
646.5565575453156
 72
     1
 10
268.4022255262632
 20
646.5565575453156
 11
268.402225526263
 21
645.5565575453154
 72
     2
 10
268.152225526263
 20
645.5565575453154
 40
0.25
 50
360.0
 51
450.0
 73
     0
 72
     1
 10
268.152225526263
 20
645.3065575453154
 11
267.6522255262628
 21
645.3065575453154
 72
     2
 10
267.6522255262628
 20
645.0565575453154
 40
0.25
 50
90.0
 51
180.0
 73
     1
 72
     1
 10
267.4022255262628
 20
645.0565575453154
 11
267.4022255262627
 21
642.5565575453155
 72
     2
 10
267.6522255262629
 20
642.5565575453154
 40
0.2500000000001137
 50
179.9999999999739
 51
269.999999999987
 73
     1
 72
     1
 10
267.6522255262628
 20
642.3065575453153
 11
268.152225526263
 21
642.3065575453155
 72
     2
 10
268.152225526263
 20
642.0565575453155
 40
0.25
 50
270.0
 51
360.0
 73
     0
 72
     1
 10
268.402225526263
 20
642.0565575453155
 11
268.402225526263
 21
641.0565575453156
 72
     1
 10
268.402225526263
 20
641.0565575453156
 11
269.902225526263
 21
641.0565575453155
 72
     1
 10
269.902225526263
 20
641.0565575453155
 11
269.902225526263
 21
641.8065575453155
 72
     2
 10
270.402225526263
 20
641.8065575453156
 40
0.5
 50
179.999999999987
 51
359.999999999987
 73
     0
 72
     1
 10
270.902225526263
 20
641.8065575453157
 11
270.9022255262632
 21
640.2565575453157
 72
     2
 10
270.4022255262632
 20
640.2565575453157
 40
0.5
 50
360.0
 51
450.0
 73
     0
 72
     1
 10
270.4022255262632
 20
639.7565575453157
 11
268.1422839132624
 21
639.7565575453154
 72
     2
 10
268.1422839132622
 20
639.2565575453154
 40
0.5
 50
89.99999999998046
 51
181.4465556865554
 73
     1
 72
     1
 10
267.6424432595641
 20
639.2439353065858
 11
267.852995449367
 21
630.9060685903965
 72
     2
 10
269.8523580641601
 20
630.9565575453157
 40
2.000000000000211
 50
181.446555686578
 51
263.5148335461263
 73
     1
 72
     2
 10
269.5022255262632
 20
627.8763940422031
 40
1.099999999999996
 50
276.4851664538729
 51
360.0
 73
     0
 72
     1
 10
270.602225526263
 20
627.8763940422031
 11
270.602225526263
 21
627.856557545316
 72
     1
 10
270.602225526263
 20
627.856557545316
 11
281.3022255262634
 21
627.8565575453154
 72
     2
 10
281.3022255262632
 20
626.2565575453154
 40
1.600000000000022
 50
270.0000000000061
 51
359.9999999999919
 73
     0
 72
     1
 10
282.9022255262632
 20
626.2565575453156
 11
284.0422750324269
 21
626.2565575453156
 72
     2
 10
285.0522255262633
 20
625.7065575453159
 40
1.15
 50
208.5718781422934
 51
511.428121857656
 73
     0
 72
     1
 10
284.0422750324274
 20
625.1565575453152
 11
282.9022255262626
 21
625.1565575453155
 97
        1
330
1DE1
 75
     0
 76
     1
 98
        1
 10
0.0
 20
0.0
  0
ENDBLK
  5
103E
330
103C
100
AcDbEntity
  8
0
 62
     7
 48
3.0
100
AcDbBlockEnd
  0
BLOCK
  5
1040
330
103F
100
AcDbEntity
  8
0
 62
     8
 48
3.0
100
AcDbBlockBegin
  2
A$C3EEB4669
 70
     0
 10
0.0
 20
0.0
 30
0.0
  3
A$C3EEB4669
  1

  0
INSERT
  5
18FC
330
103F
100
AcDbEntity
  8
APL Joinery
 62
     7
 48
3.0
100
AcDbBlockReference
  2
9010250l
 10
23.3067140133108
 20
3.3000002045585
 30
0.0
 41
-1.0
 50
270.0
1001
AcDbBlockRepETag
1070
     1
1071
        0
1005
18FC
  0
INSERT
  5
18FD
330
103F
100
AcDbEntity
  8
APL Joinery
 48
3.0
100
AcDbBlockReference
  2
6Glass
 10
-22.30671401331057
 20
40.49983728254611
 30
0.0
 41
-1.0
 43
-1.0
 50
270.0
210
0.0
220
0.0
230
-1.0
1001
AcDbBlockRepETag
1070
     1
1071
        1
1005
18FD
  0
INSERT
  5
18FE
330
103F
100
AcDbEntity
  8
APL Joinery
 48
3.0
100
AcDbBlockReference
  2
08638
 10
3.30671401331034
 20
0.000000200202777
 30
0.0
 41
-1.0
 50
270.0
1001
AcDbBlockRepETag
1070
     1
1071
        2
1005
18FE
  0
INSERT
  5
18FF
330
103F
100
AcDbEntity
  8
APL Joinery
 48
3.0
100
AcDbBlockReference
  2
6Glass
 10
-22.30671401331068
 20
22.49983728254611
 30
0.0
 41
-1.0
 43
-1.0
 50
270.0
210
0.0
220
0.0
230
-1.0
1001
AcDbBlockRepETag
1070
     1
1071
        3
1005
18FF
  0
LINE
  5
1900
330
103F
100
AcDbEntity
  8
APL Joinery
 62
     7
 48
3.0
100
AcDbLine
 10
9.306714013310738
 20
27.99983728254617
 30
0.0
 11
9.306714013310738
 21
15.99983728254616
 31
0.0
1001
AcDbBlockRepETag
1070
     1
1071
        4
1005
1900
  0
LINE
  5
1901
330
103F
100
AcDbEntity
  8
APL Joinery
 62
     7
 48
3.0
100
AcDbLine
 10
15.30671401331074
 20
27.99983728254617
 30
0.0
 11
15.30671401331074
 21
15.99983728254616
 31
0.0
1001
AcDbBlockRepETag
1070
     1
1071
        5
1005
1901
  0
INSERT
  5
1902
330
103F
100
AcDbEntity
  8
APL Joinery
 48
3.0
100
AcDbBlockReference
  2
9010312r
 10
23.30671401331045
 20
37.69983728254644
 30
0.0
 41
-1.0
 50
270.0
1001
AcDbBlockRepETag
1070
     1
1071
        6
1005
1902
  0
ENDBLK
  5
1048
330
103F
100
AcDbEntity
  8
0
 62
     8
 48
3.0
100
AcDbBlockEnd
  0
BLOCK
  5
19DB
330
19D8
100
AcDbEntity
  8
0
 62
     9
100
AcDbBlockBegin
  2
vantage black & white logo
 70
     0
 10
0.0
 20
0.0
 30
0.0
  3
vantage black & white logo
  1

  0
SPLINE
  5
19DC
102
{ACAD_REACTORS
330
1A0C
102
}
330
19D8
100
AcDbEntity
  8
APL Border
 62
     8
100
AcDbSpline
210
0.0
220
0.0
230
1.0
 70
     8
 71
     3
 72
    16
 73
    12
 74
    10
 42
0.0000000001
 43
0.0000000001
 44
0.0000000001
 40
0.0
 40
0.0
 40
0.0
 40
0.0
 40
0.1978277931646383
 40
0.361463118001824
 40
0.5540499897785108
 40
0.7796220130725381
 40
0.979106605438038
 40
1.222151590302332
 40
1.40748727220097
 40
1.607226525619232
 40
1.815049166761618
 40
1.815049166761618
 40
1.815049166761618
 40
1.815049166761618
 10
-6.679452083611295
 20
24.89125032803118
 30
0.0
 10
-6.685371732996674
 20
24.82559351525051
 30
0.0
 10
-6.696187882184245
 20
24.70562798418881
 30
0.0
 10
-6.721757155054659
 20
24.52229576436942
 30
0.0
 10
-6.768469983285688
 20
24.33480615160983
 30
0.0
 10
-6.86071972339088
 20
24.14153771241002
 30
0.0
 10
-7.051789745146238
 20
24.01851519430105
 30
0.0
 10
-7.233921808197289
 20
23.91285203345822
 30
0.0
 10
-7.443451931375125
 20
23.87675735439051
 30
0.0
 10
-7.641222718647389
 20
23.88093312949101
 30
0.0
 10
-7.776581895343343
 20
23.89281010788354
 30
0.0
 10
-7.845603808282817
 20
23.89886637823479
 30
0.0
 11
-6.679452083611295
 21
24.89125032803118
 31
0.0
 11
-6.698967886443824
 21
24.69438750983487
 31
0.0
 11
-6.7229873764864
 21
24.53252465544059
 31
0.0
 11
-6.771947617386814
 21
24.34626516442952
 31
0.0
 11
-6.880972027936735
 21
24.14879006322128
 31
0.0
 11
-7.039699899396197
 21
24.02796140183178
 31
0.0
 11
-7.25666078222261
 21
23.91842218515177
 31
0.0
 11
-7.438645676318543
 21
23.88333923622035
 31
0.0
 11
-7.638384704687155
 21
23.88303939885124
 31
0.0
 11
-7.845603808282817
 21
23.89886637823479
 31
0.0
1001
AcDbBlockRepETag
1070
     1
1071
      590
1005
19DC
  0
SPLINE
  5
19DD
102
{ACAD_REACTORS
330
1A0C
102
}
330
19D8
100
AcDbEntity
  8
APL Border
 62
     8
100
AcDbSpline
210
0.0
220
0.0
230
1.0
 70
     8
 71
     3
 72
    11
 73
     7
 74
     5
 42
0.0000000001
 43
0.0000000001
 44
0.0000000001
 40
0.0
 40
0.0
 40
0.0
 40
0.0
 40
0.0680840587483313
 40
0.1752723045973904
 40
0.2784233367375334
 40
0.4826852714337078
 40
0.4826852714337078
 40
0.4826852714337078
 40
0.4826852714337078
 10
-7.465264214605014
 20
24.80065518845331
 30
0.0
 10
-7.468646137215252
 20
24.77808681972154
 30
0.0
 10
-7.47735239504952
 20
24.719987903891
 30
0.0
 10
-7.524447891091254
 20
24.63752792323728
 30
0.0
 10
-7.635129760920157
 20
24.54333837224584
 30
0.0
 10
-7.743266182308203
 20
24.55714977626708
 30
0.0
 10
-7.815117916056323
 20
24.56632682606847
 30
0.0
 11
-7.465264214605014
 21
24.80065518845331
 31
0.0
 11
-7.478569823577657
 21
24.73388393846117
 31
0.0
 11
-7.530473398252325
 21
24.64010046985295
 31
0.0
 11
-7.611072397370236
 21
24.57572705319073
 31
0.0
 11
-7.815117916056323
 21
24.56632682606847
 31
0.0
1001
AcDbBlockRepETag
1070
     1
1071
      593
1005
19DD
  0
SPLINE
  5
19DE
102
{ACAD_REACTORS
330
1A0C
102
}
330
19D8
100
AcDbEntity
  8
APL Border
 62
     8
100
AcDbSpline
210
0.0
220
0.0
230
1.0
 70
     8
 71
     3
 72
    20
 73
    16
 74
     0
 42
0.0000000001
 43
0.0000000001
 40
0.0
 40
0.0
 40
0.0
 40
0.0
 40
0.1774120264923274
 40
0.3258093286713144
 40
0.4834060703451958
 40
0.6311237014699663
 40
0.811161917566129
 40
0.9605198197290178
 40
1.289502400757101
 40
1.459697744220917
 40
1.604754171475458
 40
1.794797311213428
 40
2.030760379210173
 40
2.301729078160567
 40
2.393267743077617
 40
2.393267743077617
 40
2.393267743077617
 40
2.393267743077617
 10
5.780015564168593
 20
26.87985997284487
 30
0.0
 10
5.839056126904296
 20
26.87337384475878
 30
0.0
 10
5.947481505327601
 20
26.86146235781404
 30
0.0
 10
6.098807931884806
 20
26.80185114122353
 30
0.0
 10
6.227972759762906
 20
26.72168911843352
 30
0.0
 10
6.347510602881385
 20
26.61140356622764
 30
0.0
 10
6.442310149474394
 20
26.48207375794227
 30
0.0
 10
6.536759215535255
 20
26.28338234239492
 30
0.0
 10
6.578465181725675
 20
26.06469589684353
 30
0.0
 10
6.553150099427256
 20
25.85079503063701
 30
0.0
 10
6.524121382020268
 20
25.68499989147718
 30
0.0
 10
6.464236525716046
 20
25.50199988960434
 30
0.0
 10
6.327150620479812
 20
25.31187331731421
 30
0.0
 10
6.179477266233362
 20
25.17172660684537
 30
0.0
 10
6.072729148555964
 20
25.11631253421805
 30
0.0
 10
6.045077525535504
 20
25.10350570839811
 30
0.0
1001
AcDbBlockRepETag
1070
     1
1071
      594
1005
19DE
  0
SPLINE
  5
19DF
102
{ACAD_REACTORS
330
1A0C
102
}
330
19D8
100
AcDbEntity
  8
APL Border
 62
     8
100
AcDbSpline
210
0.0
220
0.0
230
1.0
 70
     8
 71
     3
 72
    17
 73
    13
 74
    11
 42
0.0000000001
 43
0.0000000001
 44
0.0000000001
 40
0.0
 40
0.0
 40
0.0
 40
0.0
 40
0.0975027714782739
 40
0.2117924486065133
 40
0.317678689712162
 40
0.4843960423119905
 40
0.5983164751676271
 40
0.7475672999664091
 40
0.8854036234346642
 40
1.040732215041493
 40
1.197661337444246
 40
1.243973057737614
 40
1.243973057737614
 40
1.243973057737614
 40
1.243973057737614
 10
5.580769717272147
 20
26.18861664944085
 30
0.0
 10
5.613502616848285
 20
26.1875961553427
 30
0.0
 10
5.684603990133519
 20
26.18537947021098
 30
0.0
 10
5.781919321100519
 20
26.1258482190374
 30
0.0
 10
5.832561030472812
 20
26.0011917111029
 30
0.0
 10
5.820388894698232
 20
25.86817511516085
 30
0.0
 10
5.765298612935113
 20
25.7349784962169
 30
0.0
 10
5.67725421213275
 20
25.62965962372396
 30
0.0
 10
5.546675458142082
 20
25.55725132865025
 30
0.0
 10
5.401760839408257
 20
25.51345804330555
 30
0.0
 10
5.281860155064943
 20
25.50729075876586
 30
0.0
 10
5.21427201805345
 20
25.50302975767877
 30
0.0
 10
5.198870965514487
 20
25.50205881951548
 30
0.0
 11
5.580769717272147
 21
26.18861664944085
 31
0.0
 11
5.67764963039707
 21
26.17761333726443
 31
0.0
 11
5.774085473546278
 21
26.11627608549865
 31
0.0
 11
5.81791994770495
 21
26.01988918322082
 31
0.0
 11
5.809153052873227
 21
25.85340249542595
 31
0.0
 11
5.765318578714499
 21
25.74825305939683
 31
0.0
 11
5.668882735565347
 21
25.63434108961652
 31
0.0
 11
5.55010046754208
 21
25.56441523695462
 31
0.0
 11
5.401316428353624
 21
25.51980267086244
 31
0.0
 11
5.245093480229996
 21
25.50493189624708
 31
0.0
 11
5.198870965514487
 21
25.50205881951548
 31
0.0
1001
AcDbBlockRepETag
1070
     1
1071
      595
1005
19DF
  0
SPLINE
  5
19E0
102
{ACAD_REACTORS
330
1A16
330
1A17
102
}
330
19D8
100
AcDbEntity
  8
APL Border
 62
     8
100
AcDbSpline
210
0.0
220
0.0
230
1.0
 70
     8
 71
     3
 72
    25
 73
    21
 74
     0
 42
0.0000000001
 43
0.0000000001
 40
0.0289432764998855
 40
0.0289432764998855
 40
0.0289432764998855
 40
0.0289432764998855
 40
0.7134165119202287
 40
1.411731005087882
 40
2.041147618059464
 40
3.036171077105474
 40
3.957911241576911
 40
4.83592253147705
 40
5.676684481733094
 40
6.271141751551381
 40
6.974058201941041
 40
7.825808739104269
 40
8.5265481701528
 40
9.125733480364379
 40
9.891766509798275
 40
10.6767880070383
 40
11.66821110410527
 40
12.42950909475574
 40
13.09855121203093
 40
13.70132750762923
 40
13.70132750762923
 40
13.70132750762923
 40
13.70132750762923
 10
13.141643811855
 20
43.40554077871886
 30
0.0
 10
12.91988216430481
 20
43.459256627421
 30
0.0
 10
12.47168844867874
 20
43.5669624691983
 30
0.0
 10
11.80600758681791
 20
43.66484839798013
 30
0.0
 10
11.02988777388427
 20
43.6649333207477
 30
0.0
 10
10.1361516270939
 20
43.55263717791944
 30
0.0
 10
9.306733533720876
 20
43.19741938393827
 30
0.0
 10
8.599762003673276
 20
42.45478219212527
 30
0.0
 10
8.236440109363229
 20
41.77191325718488
 30
0.0
 10
8.073464067873601
 20
41.07996170309042
 30
0.0
 10
8.007035995439764
 20
40.3638923215899
 30
0.0
 10
7.98103501985804
 20
39.60493317412716
 30
0.0
 10
8.107710769833204
 20
38.92055182387923
 30
0.0
 10
8.442098079777224
 20
38.21445924826959
 30
0.0
 10
9.036296716232907
 20
37.66873436641545
 30
0.0
 10
9.909689132144507
 20
37.42421376773082
 30
0.0
 10
10.75775873959412
 20
37.35554609345542
 30
0.0
 10
11.56487972715851
 20
37.38454149767491
 30
0.0
 10
12.23983007222788
 20
37.44815687239099
 30
0.0
 10
12.66077873273661
 20
37.49837935861893
 30
0.0
 10
12.86026661033734
 20
37.52234731786496
 30
0.0
1001
AcDbBlockRepETag
1070
     1
1071
      596
1005
19E0
  0
SPLINE
  5
19E1
102
{ACAD_REACTORS
330
1A16
330
1A17
102
}
330
19D8
100
AcDbEntity
  8
APL Border
 62
     8
100
AcDbSpline
210
0.0
220
0.0
230
1.0
 70
     8
 71
     3
 72
    19
 73
    15
 74
     0
 42
0.0000000001
 43
0.0000000001
 40
1.529304964685563
 40
1.529304964685563
 40
1.529304964685563
 40
1.529304965389289
 40
2.032016958536417
 40
2.556791262130423
 40
2.964493033520332
 40
3.465275586793771
 40
4.160836826595903
 40
4.71800698457321
 40
5.304510401169525
 40
5.733359288828643
 40
6.099728421126306
 40
6.422629926283571
 40
6.722447272622213
 40
6.957123473755099
 40
6.957123473755099
 40
6.957123473755099
 40
6.957123473755099
 10
11.64369617822672
 20
42.03297741382947
 30
0.0
 10
11.47589856643677
 20
42.04574754506741
 30
0.0
 10
11.13485165915975
 20
42.01473204050012
 30
0.0
 10
10.65553906793815
 20
41.91613810684326
 30
0.0
 10
10.23036575101369
 20
41.67654609785123
 30
0.0
 10
9.854221329784113
 20
41.27113304911427
 30
0.0
 10
9.717431528044755
 20
40.66388266631498
 30
0.0
 10
9.641062203095145
 20
40.05806431643046
 30
0.0
 10
9.716968816830743
 20
39.48770259248511
 30
0.0
 10
10.00680770225198
 20
39.09661486818469
 30
0.0
 10
10.3797311442331
 20
38.98358798973799
 30
0.0
 10
10.70216182646531
 20
38.92661434152812
 30
0.0
 10
10.99026249243499
 20
38.92783484269152
 30
0.0
 10
11.24302802126629
 20
38.95177692242413
 30
0.0
 10
11.33360452536307
 20
38.96406177273881
 30
0.0
1001
AcDbBlockRepETag
1070
     1
1071
      597
1005
19E1
  0
LWPOLYLINE
  5
19E2
102
{ACAD_REACTORS
330
1A13
102
}
330
19D8
100
AcDbEntity
  8
APL Border
 62
     8
100
AcDbPolyline
 90
       12
 70
     1
 43
0.0
 10
14.13627631352983
 20
43.61979184908029
 10
18.38986203356285
 20
43.61979184908029
 10
18.21321428445671
 20
41.9726305274507
 10
15.84058876400877
 20
41.9726305274507
 10
15.75340373709809
 20
41.15966911198297
 10
17.71732334684157
 20
41.15966911198297
 10
17.56969663746741
 20
39.57967635988449
 10
15.58395939694927
 20
39.57967635988449
 10
15.5052467299167
 20
38.84571591422678
 10
17.87787225036464
 20
38.84571591422678
 10
17.72077299807506
 20
37.38083558975206
 10
13.46718727804204
 20
37.38083558975206
1001
AcDbBlockRepETag
1070
     1
1071
      599
1005
19E2
  0
LWPOLYLINE
  5
19E3
102
{ACAD_REACTORS
330
1A16
330
1A17
102
}
330
19D8
100
AcDbEntity
  8
APL Border
 62
     8
100
AcDbPolyline
 90
        2
 70
     0
 43
0.0
 10
13.141643811855
 20
43.40554077871887
 10
13.141643811855
 20
41.76981947766621
1001
AcDbBlockRepETag
1070
     1
1071
      600
1005
19E3
  0
LWPOLYLINE
  5
19E4
102
{ACAD_REACTORS
330
1A16
330
1A17
102
}
330
19D8
100
AcDbEntity
  8
APL Border
 62
     8
100
AcDbPolyline
 90
        6
 70
     0
 43
0.0
 10
11.33358781659778
 20
38.96390597096916
 10
11.39962533929804
 20
39.57967635988449
 10
10.96889270630695
 20
39.57967635988449
 10
11.12639005748273
 20
41.04826877857415
 10
13.23839963312048
 20
41.04826877857415
 10
12.86026661033734
 20
37.52234731786496
1001
AcDbBlockRepETag
1070
     1
1071
      601
1005
19E4
  0
LWPOLYLINE
  5
19E5
102
{ACAD_REACTORS
330
1A10
102
}
330
19D8
100
AcDbEntity
  8
APL Border
 62
     8
100
AcDbPolyline
 90
        8
 70
     1
 43
0.0
 10
3.105743226874893
 20
43.61998313276061
 10
2.929095477768755
 20
41.97282181113101
 10
1.466301152475638
 20
41.97282181113101
 10
0.9741138955425029
 20
37.38339558452146
 10
-0.867968570535281
 20
37.38102687343238
 10
-0.3755272841536326
 20
41.97282181113101
 10
-1.891167362926863
 20
41.97282181113101
 10
-1.725754035154749
 20
43.61998313276061
1001
AcDbBlockRepETag
1070
     1
1071
      604
1005
19E5
  0
LWPOLYLINE
  5
19E6
102
{ACAD_REACTORS
330
1A0F
102
}
330
19D8
100
AcDbEntity
  8
APL Border
 62
     8
100
AcDbPolyline
 90
       10
 70
     1
 43
0.0
 10
-4.228474015381578
 20
40.14164596649268
 10
-3.855464624526035
 20
43.61979184908029
 10
-2.181839912298443
 20
43.61979184908029
 10
-2.850928947786229
 20
37.38083558975206
 10
-5.032306754624556
 20
37.38083558975206
 10
-6.131920885667284
 20
40.6246666384634
 10
-6.479801476178323
 20
37.38083558975206
 10
-8.135186891292875
 20
37.38083558975206
 10
-7.466097855805088
 20
43.61979184908029
 10
-5.40751765387219
 20
43.61979184908029
1001
AcDbBlockRepETag
1070
     1
1071
      605
1005
19E6
  0
LWPOLYLINE
  5
19E7
102
{ACAD_REACTORS
330
1A16
102
}
330
19D8
100
AcDbEntity
  8
APL Border
  6
Continuous
 62
     8
100
AcDbPolyline
 90
        8
 70
     1
 43
0.0
 10
-8.449177928734428
 20
37.38083558975206
 10
-9.847253547555595
 20
43.61979184908029
 10
-12.02298966350147
 20
43.61979184908029
 10
-14.82679588919473
 20
37.38083558975206
 10
-12.95240022532295
 20
37.38083558975206
 10
-12.35252874042399
 20
38.71565392391761
 10
-10.64639685172309
 20
38.71565392391761
 10
-10.34727999772013
 20
37.38083558975206
1001
AcDbBlockRepETag
1070
     1
1071
      606
1005
19E7
  0
LWPOLYLINE
  5
19E8
330
19D8
100
AcDbEntity
  8
APL Border
  6
Continuous
 62
     8
100
AcDbPolyline
 90
        7
 70
     1
 43
0.0
 10
-18.99614352503855
 20
43.61979184908029
 10
-17.7875751270476
 20
37.38083558975206
 10
-15.77022638070494
 20
37.38083558975206
 10
-12.96642015501169
 20
43.61979184908029
 10
-14.7664201550117
 20
43.61979184908029
 10
-16.54136876356097
 20
39.42215966960597
 10
-17.19614352503853
 20
43.61979184908029
1001
AcDbBlockRepETag
1070
     1
1071
      608
1005
19E8
  0
LWPOLYLINE
  5
19E9
102
{ACAD_REACTORS
330
1A19
102
}
330
19D8
100
AcDbEntity
  8
APL Border
  6
Continuous
 62
     8
100
AcDbPolyline
 90
        4
 70
     1
 43
0.0
 10
16.33779773177886
 20
35.29789574745093
 10
-16.33747952551644
 20
35.29789574745093
 10
-12.98884796421711
 20
29.49789574745094
 10
12.98916617047902
 20
29.49789574745094
1001
AcDbBlockRepETag
1070
     1
1071
      609
1005
19E9
  0
LWPOLYLINE
  5
19EA
102
{ACAD_REACTORS
330
1A0C
102
}
330
19D8
100
AcDbEntity
  8
APL Border
 62
     8
100
AcDbPolyline
 90
        9
 70
     1
 43
0.0
 10
7.455500104221528
 20
25.00957443408062
 10
6.800478684667126
 20
26.87985997284487
 10
7.607536311785906
 20
26.87985997284487
 10
7.963471882016364
 20
25.86355557445326
 10
8.538893993587493
 20
26.87985997284487
 10
9.414203966725494
 20
26.87985997284487
 10
8.232331174709315
 20
25.00957443408062
 10
8.120338037129926
 20
23.87985997284487
 10
7.343506966642138
 20
23.87985997284487
1001
AcDbBlockRepETag
1070
     1
1071
      611
1005
19EA
  0
LWPOLYLINE
  5
19EB
102
{ACAD_REACTORS
330
1A0C
102
}
330
19D8
100
AcDbEntity
  8
APL Border
 62
     8
100
AcDbPolyline
 90
        4
 70
     1
 43
0.0
 10
12.20974330707307
 20
28.14789574745094
 10
8.850698786449385
 20
22.32985997284487
 10
-8.850380580188158
 20
22.32985997284487
 10
-12.20942510081127
 20
28.14789574745094
1001
AcDbBlockRepETag
1070
     1
1071
      613
1005
19EB
  0
LWPOLYLINE
  5
19EC
102
{ACAD_REACTORS
330
1A0C
102
}
330
19D8
100
AcDbEntity
  8
APL Border
 62
     8
100
AcDbPolyline
 90
        6
 70
     0
 43
0.0
 10
5.580769717272147
 20
26.18861664944085
 10
5.137953374950967
 20
26.18861664944085
 10
4.909077041159065
 20
23.87985997284487
 10
4.132245970671277
 20
23.87985997284487
 10
4.429648034880159
 20
26.87985997284487
 10
5.793677369303878
 20
26.87985997284487
1001
AcDbBlockRepETag
1070
     1
1071
      614
1005
19EC
  0
LWPOLYLINE
  5
19ED
102
{ACAD_REACTORS
330
1A19
102
}
330
19D8
100
AcDbEntity
  8
APL Border
  6
Continuous
 62
     8
100
AcDbPolyline
 90
        4
 70
     1
 43
0.0
 10
1.119422795136273
 20
34.02289574745092
 10
0.3425917246484857
 20
34.02289574745092
 10
0.0451896604396041
 20
31.02289574745093
 10
0.8220207309273916
 20
31.02289574745093
1001
AcDbBlockRepETag
1070
     1
1071
      620
1005
19ED
  0
LWPOLYLINE
  5
19EE
102
{ACAD_REACTORS
330
1A0C
102
}
330
19D8
100
AcDbEntity
  8
APL Border
 62
     8
100
AcDbPolyline
 90
        4
 70
     0
 43
0.0
 10
6.045077525535504
 20
25.1035057083981
 10
6.339444173005233
 20
23.87985997284487
 10
5.532386545886623
 20
23.87985997284487
 10
5.142141867913778
 20
25.50205881951548
1001
AcDbBlockRepETag
1070
     1
1071
      621
1005
19EE
  0
LWPOLYLINE
  5
19EF
102
{ACAD_REACTORS
330
1A0D
102
}
330
19D8
100
AcDbEntity
  8
APL Border
 62
     8
100
AcDbPolyline
 90
        4
 70
     1
 43
0.0
 10
0.0001591031300165
 20
7.000275566930961
 10
3.563095122801513
 20
13.17146177711931
 10
-0.9450856774407441
 20
20.97985997284487
 10
-8.070957716782203
 20
20.97985997284487
1001
AcDbBlockRepETag
1070
     1
1071
      622
1005
19EF
  0
LWPOLYLINE
  5
19F0
102
{ACAD_REACTORS
330
1A11
102
}
330
19D8
100
AcDbEntity
  8
APL Border
 62
     8
100
AcDbPolyline
 90
        3
 70
     1
 43
0.0
 10
0.8484489512626112
 20
20.97985997284487
 10
4.459862437153191
 20
14.72470832814346
 10
8.071275923043373
 20
20.97985997284487
1001
AcDbBlockRepETag
1070
     1
1071
      623
1005
19F0
  0
LWPOLYLINE
  5
19F1
102
{ACAD_REACTORS
330
1A0C
102
}
330
19D8
100
AcDbEntity
  8
APL Border
 62
     8
100
AcDbPolyline
 90
        4
 70
     0
 43
0.0
 10
-7.465264214605014
 20
24.80065518845331
 10
-7.259144283007998
 20
26.87985997284487
 10
-6.48231321252021
 20
26.87985997284487
 10
-6.679452083611295
 20
24.89125032803118
1001
AcDbBlockRepETag
1070
     1
1071
      626
1005
19F1
  0
LWPOLYLINE
  5
19F2
102
{ACAD_REACTORS
330
1A0C
102
}
330
19D8
100
AcDbEntity
  8
APL Border
 62
     8
100
AcDbPolyline
 90
        4
 70
     0
 43
0.0
 10
-7.845603808282817
 20
23.89886637823479
 10
-8.399876560405061
 20
23.98304774476413
 10
-8.399876560405061
 20
24.64579492155148
 10
-7.81511791605564
 20
24.56632682606838
1001
AcDbBlockRepETag
1070
     1
1071
      627
1005
19F2
  0
LWPOLYLINE
  5
19F3
102
{ACAD_REACTORS
330
1A19
102
}
330
19D8
100
AcDbEntity
  8
APL Border
  6
Continuous
 62
     8
100
AcDbPolyline
 90
        6
 70
     1
 43
0.0
 10
-7.549934049473819
 20
34.02289574745092
 10
-8.326765119961606
 20
34.02289574745092
 10
-8.624167184170488
 20
31.02289574745093
 10
-6.770246795158442
 20
31.02289574745093
 10
-6.700109532938455
 20
31.73039516316516
 10
-7.777198851462713
 20
31.73039516316516
1001
AcDbBlockRepETag
1070
     1
1071
      628
1005
19F3
  0
LWPOLYLINE
  5
19F4
102
{ACAD_REACTORS
330
1A19
102
}
330
19D8
100
AcDbEntity
  8
APL Border
  6
Continuous
 62
     8
100
AcDbPolyline
 90
        3
 70
     1
 43
0.0
 10
-10.14693849009504
 20
33.12550842600547
 10
-10.00044093617224
 20
32.51653621849665
 10
-10.45444607654239
 20
32.51653621849665
1001
AcDbBlockRepETag
1070
     1
1071
      629
1005
19F4
  0
LWPOLYLINE
  5
19F5
102
{ACAD_REACTORS
330
1A19
102
}
330
19D8
100
AcDbEntity
  8
APL Border
  6
Continuous
 62
     8
100
AcDbPolyline
 90
        8
 70
     1
 43
0.0
 10
-8.834065309397374
 20
31.02289574745093
 10
-9.555761072109191
 20
34.02289574745092
 10
-10.50084997043805
 20
34.02289574745092
 10
-12.01573480092304
 20
31.02289574745093
 10
-11.20867717380426
 20
31.02289574745093
 10
-10.74455961985978
 20
31.94201027933759
 10
-9.862229957552528
 20
31.94201027933759
 10
-9.641122936515984
 20
31.02289574745093
1001
AcDbBlockRepETag
1070
     1
1071
      630
1005
19F5
  0
LWPOLYLINE
  5
19F6
102
{ACAD_REACTORS
330
1A12
102
}
330
19D8
100
AcDbEntity
  8
APL Border
 62
     8
100
AcDbPolyline
 90
        3
 70
     1
 43
0.0
 10
0.0000000003145431
 20
4.000000000000009
 10
23.60256143704041
 20
44.88083558975217
 10
-23.60256142783933
 20
44.88083558975206
1001
AcDbBlockRepETag
1070
     1
1071
      631
1005
19F6
  0
LWPOLYLINE
  5
19F7
102
{ACAD_REACTORS
330
1A12
102
}
330
19D8
100
AcDbEntity
  8
APL Border
 62
     8
100
AcDbPolyline
 90
        3
 70
     1
 43
0.0
 10
27.06666305249243
 20
46.88083558975206
 10
-27.06666304266244
 20
46.88083558975206
 10
-0.0000000000000284
 20
0.0000000000000238
1001
AcDbBlockRepETag
1070
     1
1071
      703
1005
19F7
  0
LWPOLYLINE
  5
19F8
102
{ACAD_REACTORS
330
1A16
330
1A18
102
}
330
19D8
100
AcDbEntity
  8
APL Border
  6
Continuous
 62
     8
100
AcDbPolyline
 90
        8
 70
     1
 43
0.0
 10
7.980630193374565
 20
37.38083558975206
 10
6.582554574553398
 20
43.61979184908029
 10
4.406818458607517
 20
43.61979184908029
 10
1.603012232914267
 20
37.38083558975206
 10
3.477407896786047
 20
37.38083558975206
 10
4.077279381685002
 20
38.71565392391761
 10
5.783411270385897
 20
38.71565392391761
 10
6.082528124388858
 20
37.38083558975206
1001
AcDbBlockRepETag
1070
     1
1071
      760
1005
19F8
  0
LWPOLYLINE
  5
19F9
102
{ACAD_REACTORS
330
1A16
330
1A18
102
}
330
19D8
100
AcDbEntity
  8
APL Border
  6
Continuous
 62
     8
100
AcDbPolyline
 90
        3
 70
     1
 43
0.0
 10
5.206046831612667
 20
41.69367581194667
 10
5.552066120962537
 20
40.14955389030274
 10
4.512113667606024
 20
40.14955389030274
1001
AcDbBlockRepETag
1070
     1
1071
      761
1005
19F9
  0
LWPOLYLINE
  5
19FA
102
{ACAD_REACTORS
330
1A19
102
}
330
19D8
100
AcDbEntity
  8
APL Border
  6
Continuous
 62
     8
100
AcDbPolyline
 90
        4
 70
     1
 43
0.0
 10
5.615530392135354
 20
34.02289574745092
 10
4.838699321647567
 20
34.02289574745092
 10
4.541297257438685
 20
31.02289574745093
 10
5.318128327926473
 20
31.02289574745093
1001
AcDbBlockRepETag
1070
     1
1071
      785
1005
19FA
  0
LWPOLYLINE
  5
19FB
102
{ACAD_REACTORS
330
1A19
102
}
330
19D8
100
AcDbEntity
  8
APL Border
 62
     8
100
AcDbPolyline
 90
       13
 70
     0
 43
0.0
 10
-5.535628094882099
 20
32.1870929174454
 10
-5.353790768486447
 20
34.02289574745092
 10
-6.130425112774389
 20
34.0248801943346
 10
-6.333826921263238
 20
31.9730940808461
 42
0.1695250701542156
 10
-6.106840682758871
 20
31.39301551086222
 42
0.0826087127293405
 10
-5.813961912619959
 20
31.13108995311734
 42
0.1017056431856583
 10
-5.510404689928634
 20
31.02488019433462
 10
-4.760057203160528
 20
31.0248801943346
 42
0.1918846087154957
 10
-4.136172756560569
 20
31.41919793838074
 42
0.1021851328841131
 10
-3.889225876952792
 20
31.97309408084612
 10
-3.685824068463887
 20
34.0248801943346
 10
-4.462655138951674
 20
34.0248801943346
 10
-4.65073703420694
 20
32.12763147393075
1001
AcDbBlockRepETag
1070
     1
1071
      866
1005
19FB
  0
SPLINE
  5
19FC
102
{ACAD_REACTORS
330
1A19
102
}
330
19D8
100
AcDbEntity
  8
APL Border
 62
     8
100
AcDbSpline
210
0.0
220
0.0
230
1.0
 70
     8
 71
     3
 72
    24
 73
    20
 74
    18
 42
0.0000000001
 43
0.0000000001
 44
0.0000000001
 40
0.0
 40
0.0
 40
0.0
 40
0.0
 40
0.1612668085855933
 40
0.2532303870616441
 40
0.3214574742553387
 40
0.4101806452459026
 40
0.5031588697521256
 40
0.5664511009171887
 40
0.624871878778038
 40
0.6731644290699905
 40
0.7797386132933425
 40
0.9206747739903356
 40
1.025058962643435
 40
1.116412352300609
 40
1.212929457806147
 40
1.276240530363035
 40
1.339961572016457
 40
1.386280507025952
 40
1.435584820291647
 40
1.435584820291647
 40
1.435584820291647
 40
1.435584820291647
 10
-5.535628094882099
 20
32.1870929174454
 30
0.0
 10
-5.53213414748617
 20
32.13312332644234
 30
0.0
 10
-5.526647751003197
 20
32.04837718097616
 30
0.0
 10
-5.488860432547518
 20
31.94683424540268
 30
0.0
 10
-5.447171648840961
 20
31.8753242559261
 30
0.0
 10
-5.395818187958767
 20
31.80737001333622
 30
0.0
 10
-5.320761662408248
 20
31.77062767698265
 30
0.0
 10
-5.254477128417399
 20
31.74466351916423
 30
0.0
 10
-5.200112096792143
 20
31.72723210184819
 30
0.0
 10
-5.128888988289486
 20
31.72198763189771
 30
0.0
 10
-5.030042811850907
 20
31.72786870372271
 30
0.0
 10
-4.915707066470194
 20
31.75812586881066
 30
0.0
 10
-4.815771266393483
 20
31.81405298527761
 30
0.0
 10
-4.754740567305573
 20
31.89193427605802
 30
0.0
 10
-4.714673995441981
 20
31.96546823314959
 30
0.0
 10
-4.683526695854578
 20
32.03313813212702
 30
0.0
 10
-4.662006183068958
 20
32.08703079743258
 30
0.0
 10
-4.651792807669443
 20
32.13930455656534
 30
0.0
 10
-4.647206914869654
 20
32.17083533130903
 30
0.0
 10
-4.644842382192905
 20
32.1870929174454
 30
0.0
 11
-5.535628094882099
 21
32.1870929174454
 31
0.0
 11
-5.515298846223288
 21
32.02711258990369
 31
0.0
 11
-5.483433995220536
 21
31.94084596230824
 31
0.0
 11
-5.44947766231354
 21
31.88166908437061
 31
0.0
 11
-5.392321718875223
 21
31.8138089399536
 31
0.0
 11
-5.311535231450477
 21
31.76778184269665
 31
0.0
 11
-5.252609732475718
 21
31.74468006578604
 31
0.0
 11
-5.196420818688864
 21
31.72868652792477
 31
0.0
 11
-5.148347479287053
 21
31.72409039341204
 31
0.0
 11
-5.041949649235618
 21
31.73021889267523
 31
0.0
 11
-4.906104524581394
 21
31.76775692005663
 31
0.0
 11
-4.816802280674096
 21
31.82180475140893
 31
0.0
 11
-4.758009512288197
 21
31.89172507883507
 31
0.0
 11
-4.710553499371997
 21
31.97576958188711
 31
0.0
 11
-4.684063009443377
 21
32.03327215445256
 31
0.0
 11
-4.662061522518769
 21
32.09307437617135
 31
0.0
 11
-4.652346246099511
 21
32.13836297456555
 31
0.0
 11
-4.644842382192905
 21
32.1870929174454
 31
0.0
1001
AcDbBlockRepETag
1070
     1
1071
      827
1005
19FC
  0
LWPOLYLINE
  5
19FD
102
{ACAD_REACTORS
330
1A19
102
}
330
19D8
100
AcDbEntity
  8
APL Border
 62
     8
100
AcDbPolyline
 90
       13
 70
     0
 43
0.0
 10
6.787553510813182
 20
32.18510847056172
 10
6.969390837208834
 20
34.02091130056725
 10
6.192756492920892
 20
34.02289574745092
 10
5.989354684432043
 20
31.97110963396243
 42
0.1695250701542156
 10
6.21634092293641
 20
31.39103106397854
 42
0.0826087127293405
 10
6.509219693075323
 20
31.12910550623367
 42
0.1017056431856583
 10
6.812776915766647
 20
31.02289574745094
 10
7.563124402534754
 20
31.02289574745093
 42
0.1918846087154957
 10
8.187008849134713
 20
31.41721349149707
 42
0.1021851328841131
 10
8.433955728742489
 20
31.97110963396244
 10
8.637357537231395
 20
34.02289574745092
 10
7.860526466743607
 20
34.02289574745092
 10
7.672444571488341
 20
32.12564702704707
1001
AcDbBlockRepETag
1070
     1
1071
      837
1005
19FD
  0
LWPOLYLINE
  5
19FE
102
{ACAD_REACTORS
330
1A19
102
}
330
19D8
100
AcDbEntity
  8
APL Border
  6
Continuous
 62
     8
100
AcDbPolyline
 90
       13
 70
     1
 43
0.0
 10
-1.295012624591635
 20
34.02807364104484
 10
-0.1975458970834154
 20
34.0280551402308
 10
-0.4949479612922972
 20
31.0280551402308
 10
-1.115886909891884
 20
31.0280551402308
 10
-0.9222174129992311
 20
32.98166797820307
 10
-1.611942464131544
 20
31.0280551402308
 10
-2.344230471214956
 20
31.0280551402308
 10
-2.63016252924163
 20
32.98166797820306
 10
-2.823832026134283
 20
31.0280551402308
 10
-3.44477097473387
 20
31.0280551402308
 10
-3.147349004861581
 20
34.02825593571061
 10
-2.047349004861558
 20
34.02825593571061
 10
-1.8272453185659
 20
32.52441131541936
1001
AcDbBlockRepETag
1070
     1
1071
      867
1005
19FE
  0
LWPOLYLINE
  5
19FF
102
{ACAD_REACTORS
330
1A19
102
}
330
19D8
100
AcDbEntity
  8
APL Border
  6
Continuous
 62
     8
100
AcDbPolyline
 90
       10
 70
     1
 43
0.0
 10
1.724974710806094
 20
34.02289574745092
 10
1.427552740933805
 20
31.02269495197112
 10
2.048491689533392
 20
31.02269495197112
 10
2.231899581960561
 20
32.87279534971117
 10
3.051434648859952
 20
31.02269495197112
 10
3.902826396438257
 20
31.02269495197112
 10
4.200228460647139
 20
34.02269495197112
 10
3.580266230192904
 20
34.02269495197112
 10
3.395920304875374
 20
32.17298478610545
 10
2.576558098165463
 20
34.02269495197112
1001
AcDbBlockRepETag
1070
     1
1071
      616
1005
19FF
  0
LWPOLYLINE
  5
1A00
102
{ACAD_REACTORS
330
1A19
102
}
330
19D8
100
AcDbEntity
  8
APL Border
  6
Continuous
 62
     8
100
AcDbPolyline
 90
       13
 70
     1
 43
0.0
 10
11.01183437133605
 20
34.02271345278515
 10
12.10930109884427
 20
34.02269495197111
 10
11.81189903463539
 20
31.02269495197111
 10
11.1909600860358
 20
31.02269495197111
 10
11.38462958292845
 20
32.97630778994339
 10
10.69490453179614
 20
31.02269495197111
 10
9.962616524712728
 20
31.02269495197111
 10
9.676684466686054
 20
32.97630778994338
 10
9.483014969793401
 20
31.02269495197111
 10
8.862076021193814
 20
31.02269495197111
 10
9.159497991066103
 20
34.02289574745092
 10
10.25949799106612
 20
34.02289574745092
 10
10.47960167736178
 20
32.51905112715967
1001
AcDbBlockRepETag
1070
     1
1071
      847
1005
1A00
  0
SPLINE
  5
1A01
102
{ACAD_REACTORS
330
1A19
102
}
330
19D8
100
AcDbEntity
  8
APL Border
 62
     8
100
AcDbSpline
210
0.0
220
0.0
230
1.0
 70
     8
 71
     3
 72
    24
 73
    20
 74
    18
 42
0.0000000001
 43
0.0000000001
 44
0.0000000001
 40
0.0
 40
0.0
 40
0.0
 40
0.0
 40
0.1612668085856004
 40
0.2532303870616512
 40
0.3214574742553458
 40
0.4101806452458731
 40
0.5031588697521455
 40
0.5664511009172086
 40
0.6248718787780579
 40
0.6731644290699537
 40
0.7797386132933625
 40
0.9206747739903555
 40
1.025058962643406
 40
1.116412352300617
 40
1.212929457806155
 40
1.276240530363043
 40
1.339961572016455
 40
1.386280507025956
 40
1.435584820291643
 40
1.435584820291643
 40
1.435584820291643
 40
1.435584820291643
 10
6.787553510813182
 20
32.18510847056172
 30
0.0
 10
6.791047458209138
 20
32.13113887955867
 30
0.0
 10
6.796533854692151
 20
32.04639273409249
 30
0.0
 10
6.834321173147815
 20
31.94484979851901
 30
0.0
 10
6.876009956854381
 20
31.87333980904243
 30
0.0
 10
6.927363417736518
 20
31.80538556645249
 30
0.0
 10
7.002419943287081
 20
31.76864323009899
 30
0.0
 10
7.068704477277941
 20
31.74267907228054
 30
0.0
 10
7.123069508903178
 20
31.72524765496453
 30
0.0
 10
7.194292617405833
 20
31.72000318501402
 30
0.0
 10
7.293138793844411
 20
31.72588425683905
 30
0.0
 10
7.407474539225143
 20
31.75614142192696
 30
0.0
 10
7.507410339301799
 20
31.81206853839397
 30
0.0
 10
7.568441038389779
 20
31.88994982917432
 30
0.0
 10
7.608507610253345
 20
31.96348378626594
 30
0.0
 10
7.639654909840773
 20
32.03115368524333
 30
0.0
 10
7.661175422626328
 20
32.08504635054892
 30
0.0
 10
7.671388798025919
 20
32.13732010968165
 30
0.0
 10
7.675974690825655
 20
32.16885088442535
 30
0.0
 10
7.678339223502376
 20
32.18510847056172
 30
0.0
 11
6.787553510813182
 21
32.18510847056172
 31
0.0
 11
6.80788275947205
 21
32.02512814302002
 31
0.0
 11
6.839747610474802
 21
31.93886151542456
 31
0.0
 11
6.873703943381798
 21
31.87968463748693
 31
0.0
 11
6.930859886820059
 21
31.81182449306993
 31
0.0
 11
7.011646374244861
 21
31.76579739581298
 31
0.0
 11
7.07057187321962
 21
31.74269561890237
 31
0.0
 11
7.126760787006475
 21
31.72670208104109
 31
0.0
 11
7.174834126408228
 21
31.72210594652836
 31
0.0
 11
7.28123195645972
 21
31.72823444579155
 31
0.0
 11
7.417077081113944
 21
31.76577247317295
 31
0.0
 11
7.506379325021185
 21
31.81982030452526
 31
0.0
 11
7.565172093407142
 21
31.88974063195139
 31
0.0
 11
7.612628106323342
 21
31.97378513500343
 31
0.0
 11
7.639118596251961
 21
32.03128770756889
 31
0.0
 11
7.661120083176541
 21
32.09108992928768
 31
0.0
 11
7.670835359595827
 21
32.13637852768188
 31
0.0
 11
7.678339223502376
 21
32.18510847056172
 31
0.0
1001
AcDbBlockRepETag
1070
     1
1071
      848
1005
1A01
  0
LWPOLYLINE
  5
1A02
102
{ACAD_REACTORS
330
1A0C
102
}
330
19D8
100
AcDbEntity
  8
APL Border
  6
Continuous
 62
     8
100
AcDbPolyline
 90
        4
 70
     1
 43
0.0
 10
-1.87552020613694
 20
26.87985997284487
 10
-2.652351276624727
 20
26.87985997284487
 10
-2.949753340833609
 20
23.87985997284487
 10
-2.172922270345821
 20
23.87985997284487
1001
AcDbBlockRepETag
1070
     1
1071
      851
1005
1A02
  0
LWPOLYLINE
  5
1A03
102
{ACAD_REACTORS
330
1A0C
102
}
330
19D8
100
AcDbEntity
  8
APL Border
  6
Continuous
 62
     8
100
AcDbPolyline
 90
       10
 70
     1
 43
0.0
 10
-1.269968290467119
 20
26.87985997284487
 10
-1.567390260339408
 20
23.87965917736506
 10
-0.9464513117398212
 20
23.87965917736506
 10
-0.7630434193126519
 20
25.72975957510511
 10
0.0564916475867392
 20
23.87965917736506
 10
0.9078833951650437
 20
23.87965917736506
 10
1.205285459373925
 20
26.87965917736506
 10
0.5853232289196911
 20
26.87965917736506
 10
0.4009773036021614
 20
25.0299490114994
 10
-0.41838490310775
 20
26.87965917736506
1001
AcDbBlockRepETag
1070
     1
1071
      852
1005
1A03
  0
LWPOLYLINE
  5
1A04
102
{ACAD_REACTORS
330
1A0C
102
}
330
19D8
100
AcDbEntity
  8
APL Border
 62
     8
100
AcDbPolyline
 90
       13
 70
     0
 43
0.0
 10
1.882971499788112
 20
26.87985997284487
 10
3.847979515363789
 20
26.87985997284487
 10
3.788499102522024
 20
26.27985997284487
 10
2.600322157434135
 20
26.27985997284487
 10
2.540562294183217
 20
25.67704105755032
 10
3.542578834455781
 20
25.67704105755032
 10
3.476410183919
 20
25.07985997284487
 10
2.474393643646379
 20
25.07985997284487
 10
2.421932428393546
 20
24.48037956726917
 10
3.610109373481435
 20
24.48037956726917
 10
3.550577451154907
 20
23.87985997284487
 10
1.58556943557923
 20
23.87985997284487
 10
1.882971499788112
 20
26.87985997284487
1001
AcDbBlockRepETag
1070
     1
1071
      864
1005
1A04
  0
LINE
  5
1A05
102
{ACAD_REACTORS
330
1A0C
102
}
330
19D8
100
AcDbEntity
  8
APL Border
 62
     8
100
AcDbLine
 10
5.198870965514487
 20
25.50205881951548
 30
0.0
 11
5.142141867913778
 21
25.50205881951548
 31
0.0
1001
AcDbBlockRepETag
1070
     1
1071
      865
1005
1A05
  0
SPLINE
  5
1A06
102
{ACAD_REACTORS
330
1A0C
102
}
330
19D8
100
AcDbEntity
  8
APL Border
 62
     8
100
AcDbSpline
210
0.0
220
0.0
230
1.0
 70
     8
 71
     3
 72
    25
 73
    21
 74
     0
 42
0.0000000001
 43
0.0000000001
 40
0.0
 40
0.0
 40
0.0
 40
0.0
 40
0.3463130802699203
 40
0.6043703055549736
 40
0.8524756959462802
 40
1.099102870182333
 40
1.318598063912852
 40
1.521064627602771
 40
1.694788988362445
 40
1.912615757663666
 40
2.142780600046976
 40
2.483378398179008
 40
2.873129106540456
 40
3.09179617846886
 40
3.322387155839943
 40
3.509181810940893
 40
3.69147909649244
 40
3.927844502409028
 40
4.143063657146388
 40
4.406491840702669
 40
4.406491840702669
 40
4.406491840702669
 40
4.406491840702669
 10
-5.114032196843737
 20
23.8798599728377
 30
0.0
 10
-5.228982970363915
 20
23.89503832123493
 30
0.0
 10
-5.429589987754155
 20
23.92152690506636
 30
0.0
 10
-5.693675021857103
 20
24.03567408988205
 30
0.0
 10
-5.892941488864977
 20
24.19306688135278
 30
0.0
 10
-6.036314150572081
 20
24.38541826526996
 30
0.0
 10
-6.137502326421099
 20
24.58575647986304
 30
0.0
 10
-6.184089306330008
 20
24.77995730666768
 30
0.0
 10
-6.209030826709039
 20
24.97670983726675
 30
0.0
 10
-6.206060891535827
 20
25.18442176502657
 30
0.0
 10
-6.186178297010457
 20
25.44676950423098
 30
0.0
 10
-6.128537036390639
 20
25.76177491648128
 30
0.0
 10
-6.024273636684796
 20
26.06592307272473
 30
0.0
 10
-5.858617591962229
 20
26.29271170654482
 30
0.0
 10
-5.725334295882049
 20
26.45803039682342
 30
0.0
 10
-5.575727893531166
 20
26.59168695454355
 30
0.0
 10
-5.409633372236157
 20
26.70740493083671
 30
0.0
 10
-5.217340570729675
 20
26.79721770551459
 30
0.0
 10
-4.988026372094168
 20
26.86731869684436
 30
0.0
 10
-4.849424991220388
 20
26.87777876054341
 30
0.0
 10
-4.7645039250757
 20
26.87985997283595
 30
0.0
1001
AcDbBlockRepETag
1070
     1
1071
      875
1005
1A06
  0
ELLIPSE
  5
1A07
102
{ACAD_REACTORS
330
1A0B
330
1A0C
102
}
330
19D8
100
AcDbEntity
  8
APL Border
 62
     8
100
AcDbEllipse
 10
-4.728528852722632
 20
25.3825150979867
 30
0.0
 11
-0.2732326585474372
 21
-0.8283682112856686
 31
0.0
210
0.0
220
0.0
230
-1.0
 40
0.767138872147242
 41
0.0
 42
6.283185307179586
1001
AcDbBlockRepETag
1070
     1
1071
      876
1005
1A07
  0
SPLINE
  5
1A08
102
{ACAD_REACTORS
330
1A0C
102
}
330
19D8
100
AcDbEntity
  8
APL Border
 62
     8
100
AcDbSpline
210
0.0
220
0.0
230
1.0
 70
     8
 71
     3
 72
    26
 73
    22
 74
     0
 42
0.0000000001
 43
0.0000000001
 40
4.60284491300692
 40
4.60284491300692
 40
4.60284491300692
 40
4.60284491300692
 40
4.695921259854779
 40
4.963507654731998
 40
5.182979392648435
 40
5.397234555269768
 40
5.619529682274728
 40
5.869260387557257
 40
6.093250787730498
 40
6.263427758207029
 40
6.582064557968705
 40
6.800458868269094
 40
7.179401531729983
 40
7.575889850719137
 40
7.787844664578662
 40
8.01909420716162
 40
8.205730502580088
 40
8.387453763945252
 40
8.621856230932909
 40
8.833419194479944
 40
8.988019761194074
 40
8.988019761194074
 40
8.988019761194074
 40
8.988019761194074
 10
-4.486699891621668
 20
26.8798599728377
 30
0.0
 10
-4.440001835107608
 20
26.87954742494388
 30
0.0
 10
-4.335540249228728
 20
26.87475925711838
 30
0.0
 10
-4.164200665084621
 20
26.85307202884131
 30
0.0
 10
-3.96932086400659
 20
26.77880589501945
 30
0.0
 10
-3.766465201232762
 20
26.6658847706859
 30
0.0
 10
-3.60114437794968
 20
26.50570040783856
 30
0.0
 10
-3.471205788265336
 20
26.31143584383913
 30
0.0
 10
-3.381388817883674
 20
26.11392472080339
 30
0.0
 10
-3.317144182132551
 20
25.88552622199355
 30
0.0
 10
-3.281793375658168
 20
25.65006475492956
 30
0.0
 10
-3.30137826591374
 20
25.34538614523087
 30
0.0
 10
-3.327064239225308
 20
25.0112478652753
 30
0.0
 10
-3.471288581215731
 20
24.71021445059323
 30
0.0
 10
-3.60460091530777
 20
24.4641890220082
 30
0.0
 10
-3.737092402415015
 20
24.29954990084814
 30
0.0
 10
-3.882945983371143
 20
24.16225529150343
 30
0.0
 10
-4.046861838463826
 20
24.04508050911121
 30
0.0
 10
-4.233796525969012
 20
23.94884265716423
 30
0.0
 10
-4.427631511903911
 20
23.89220734010023
 30
0.0
 10
-4.549580407823555
 20
23.882511578974
 30
0.0
 10
-4.601116794093542
 20
23.87985997285202
 30
0.0
1001
AcDbBlockRepETag
1070
     1
1071
      877
1005
1A08
  0
LWPOLYLINE
  5
1A09
102
{ACAD_REACTORS
330
1A0C
102
}
330
19D8
100
AcDbEntity
  8
APL Border
 62
     8
100
AcDbPolyline
 90
        2
 70
     0
 43
0.0
 10
-4.764503925211641
 20
26.8798599728377
 10
-4.486699891621924
 20
26.8798599728377
1001
AcDbBlockRepETag
1070
     1
1071
      878
1005
1A09
  0
LWPOLYLINE
  5
1A0A
102
{ACAD_REACTORS
330
1A0C
102
}
330
19D8
100
AcDbEntity
  8
APL Border
 62
     8
100
AcDbPolyline
 90
        2
 70
     0
 43
0.0
 10
-5.114032196843737
 20
23.8798599728377
 10
-4.601116794093513
 20
23.87985997285202
1001
AcDbBlockRepETag
1070
     1
1071
      879
1005
1A0A
  0
HATCH
  5
1A0B
330
19D8
100
AcDbEntity
  8
APL Border
 62
     8
100
AcDbHatch
 10
0.0
 20
0.0
 30
0.0
210
0.0
220
0.0
230
1.0
  2
SOLID
 70
     1
 71
     1
 91
        1
 92
        5
 93
        1
 72
     3
 10
-4.728528852722632
 20
25.3825150979867
 11
-0.2732326585474372
 21
-0.8283682112856686
 40
0.767138872147242
 50
0.0
 51
360.0
 73
     0
 97
        1
330
1A07
 75
     0
 76
     1
 47
0.0172809346375552
 98
        1
 10
-4.520972790815363
 20
25.15086651129009
1001
ACAD
1010
0.0
1020
0.0
1030
0.0
1001
AcDbBlockRepETag
1070
     1
1071
      880
1005
1A0B
  0
HATCH
  5
1A0C
330
19D8
100
AcDbEntity
  8
APL Border
 62
     8
100
AcDbHatch
 10
0.0
 20
0.0
 30
0.0
210
0.0
220
0.0
230
1.0
  2
SOLID
 70
     1
 71
     1
 91
        9
 92
        7
 72
     0
 73
     1
 93
        4
 10
-12.20942510081127
 20
28.14789574745095
 10
-8.85038058018816
 20
22.32985997284487
 10
8.850698786449385
 20
22.32985997284487
 10
12.20974330707306
 20
28.14789574745094
 97
        1
330
19EB
 92
       20
 93
        4
 72
     4
 94
        3
 73
     0
 74
     0
 95
       25
 96
       21
 40
0.0
 40
0.0
 40
0.0
 40
0.0
 40
0.3463130802699203
 40
0.6043703055549736
 40
0.8524756959462802
 40
1.099102870182333
 40
1.318598063912852
 40
1.521064627602771
 40
1.694788988362445
 40
1.912615757663666
 40
2.142780600046976
 40
2.483378398179008
 40
2.873129106540456
 40
3.09179617846886
 40
3.322387155839943
 40
3.509181810940893
 40
3.69147909649244
 40
3.927844502409028
 40
4.143063657146388
 40
4.406491840702669
 40
4.406491840702669
 40
4.406491840702669
 40
4.406491840702669
 10
-5.114032196843737
 20
23.8798599728377
 10
-5.228982970363915
 20
23.89503832123493
 10
-5.429589987754155
 20
23.92152690506636
 10
-5.693675021857103
 20
24.03567408988205
 10
-5.892941488864977
 20
24.19306688135278
 10
-6.036314150572081
 20
24.38541826526996
 10
-6.137502326421099
 20
24.58575647986304
 10
-6.184089306330008
 20
24.77995730666768
 10
-6.209030826709039
 20
24.97670983726675
 10
-6.206060891535827
 20
25.18442176502657
 10
-6.186178297010457
 20
25.44676950423098
 10
-6.128537036390639
 20
25.76177491648128
 10
-6.024273636684796
 20
26.06592307272473
 10
-5.858617591962229
 20
26.29271170654482
 10
-5.725334295882049
 20
26.45803039682342
 10
-5.575727893531166
 20
26.59168695454355
 10
-5.409633372236157
 20
26.70740493083671
 10
-5.217340570729675
 20
26.79721770551459
 10
-4.988026372094168
 20
26.86731869684436
 10
-4.849424991220388
 20
26.87777876054341
 10
-4.7645039250757
 20
26.87985997283595
 72
     1
 10
-4.764503925020689
 20
26.87985997283771
 11
-4.486699891621347
 21
26.8798599728377
 72
     4
 94
        3
 73
     0
 74
     0
 95
       26
 96
       22
 40
4.60284491300692
 40
4.60284491300692
 40
4.60284491300692
 40
4.60284491300692
 40
4.695921259854779
 40
4.963507654731998
 40
5.182979392648435
 40
5.397234555269768
 40
5.619529682274728
 40
5.869260387557257
 40
6.093250787730498
 40
6.263427758207029
 40
6.582064557968705
 40
6.800458868269094
 40
7.179401531729983
 40
7.575889850719137
 40
7.787844664578662
 40
8.01909420716162
 40
8.205730502580088
 40
8.387453763945252
 40
8.621856230932909
 40
8.833419194479944
 40
8.988019761194074
 40
8.988019761194074
 40
8.988019761194074
 40
8.988019761194074
 10
-4.486699891621668
 20
26.8798599728377
 10
-4.440001835107608
 20
26.87954742494388
 10
-4.335540249228728
 20
26.87475925711838
 10
-4.164200665084621
 20
26.85307202884131
 10
-3.96932086400659
 20
26.77880589501945
 10
-3.766465201232762
 20
26.6658847706859
 10
-3.60114437794968
 20
26.50570040783856
 10
-3.471205788265336
 20
26.31143584383913
 10
-3.381388817883674
 20
26.11392472080339
 10
-3.317144182132551
 20
25.88552622199355
 10
-3.281793375658168
 20
25.65006475492956
 10
-3.30137826591374
 20
25.34538614523087
 10
-3.327064239225308
 20
25.0112478652753
 10
-3.471288581215731
 20
24.71021445059323
 10
-3.60460091530777
 20
24.4641890220082
 10
-3.737092402415015
 20
24.29954990084814
 10
-3.882945983371143
 20
24.16225529150343
 10
-4.046861838463826
 20
24.04508050911121
 10
-4.233796525969012
 20
23.94884265716423
 10
-4.427631511903911
 20
23.89220734010023
 10
-4.549580407823555
 20
23.882511578974
 10
-4.601116794093542
 20
23.87985997285202
 72
     1
 10
-4.601116794093525
 20
23.87985997285202
 11
-5.114032196843729
 21
23.8798599728377
 97
        4
330
1A06
330
1A09
330
1A08
330
1A0A
 92
        4
 93
        1
 72
     3
 10
-4.728528852722632
 20
25.3825150979867
 11
-0.2732326585474372
 21
-0.8283682112856686
 40
0.767138872147242
 50
0.0
 51
360.0
 73
     0
 97
        1
330
1A07
 92
       20
 93
        8
 72
     1
 10
-6.482313212520211
 20
26.87985997284487
 11
-6.679452083611267
 21
24.89125032803125
 72
     4
 94
        3
 73
     0
 74
     0
 95
       16
 96
       12
 40
0.0
 40
0.0
 40
0.0
 40
0.0
 40
0.1978277931646383
 40
0.361463118001824
 40
0.5540499897785108
 40
0.7796220130725381
 40
0.979106605438038
 40
1.222151590302332
 40
1.40748727220097
 40
1.607226525619232
 40
1.815049166761618
 40
1.815049166761618
 40
1.815049166761618
 40
1.815049166761618
 10
-6.679452083611295
 20
24.89125032803118
 10
-6.685371732996685
 20
24.82559351525052
 10
-6.696187882184318
 20
24.70562798418881
 10
-6.721757155054632
 20
24.52229576436942
 10
-6.768469983285655
 20
24.33480615160982
 10
-6.860719723390843
 20
24.14153771241002
 10
-7.051789745146265
 20
24.01851519430106
 10
-7.233921808197266
 20
23.91285203345821
 10
-7.443451931375136
 20
23.87675735439051
 10
-7.641222718647384
 20
23.88093312949101
 10
-7.776581895343355
 20
23.89281010788354
 10
-7.845603808282817
 20
23.89886637823479
 72
     1
 10
-7.845603808282787
 20
23.89886637823479
 11
-8.399876560405061
 21
23.98304774476413
 72
     1
 10
-8.399876560405061
 20
23.98304774476413
 11
-8.399876560405061
 21
24.64579492155148
 72
     1
 10
-8.399876560405061
 20
24.64579492155148
 11
-7.815117916056302
 21
24.56632682606845
 72
     4
 94
        3
 73
     0
 74
     0
 95
       11
 96
        7
 40
0.0
 40
0.0
 40
0.0
 40
0.0
 40
0.2042619346961744
 40
0.3074129668363174
 40
0.4146012126853764
 40
0.4826852714337078
 40
0.4826852714337078
 40
0.4826852714337078
 40
0.4826852714337078
 10
-7.815117916056323
 20
24.56632682606847
 10
-7.743266182308218
 20
24.55714977626708
 10
-7.635129760920136
 20
24.54333837224583
 10
-7.524447891091284
 20
24.63752792323729
 10
-7.477352395049535
 20
24.71998790389099
 10
-7.468646137215245
 20
24.77808681972154
 10
-7.465264214605014
 20
24.80065518845331
 72
     1
 10
-7.465264214605014
 20
24.80065518845333
 11
-7.259144283007996
 21
26.87985997284487
 72
     1
 10
-7.259144283007996
 20
26.87985997284487
 11
-6.482313212520211
 21
26.87985997284487
 97
        4
330
19F1
330
19DC
330
19F2
330
19DD
 92
       22
 72
     0
 73
     1
 93
        4
 10
-2.652351276624725
 20
26.87985997284486
 10
-1.87552020613694
 20
26.87985997284486
 10
-2.172922270345821
 20
23.87985997284487
 10
-2.949753340833609
 20
23.87985997284487
 97
        1
330
1A02
 92
       22
 72
     0
 73
     1
 93
       10
 10
-1.269968290467114
 20
26.87985997284487
 10
-0.4183849031077484
 20
26.87965917736506
 10
0.4009773036021615
 20
25.0299490114994
 10
0.5853232289196909
 20
26.87965917736506
 10
1.205285459373925
 20
26.87965917736506
 10
0.9078833951650439
 20
23.87965917736506
 10
0.056491647586738
 20
23.87965917736506
 10
-0.7630434193126518
 20
25.72975957510511
 10
-0.946451311739821
 20
23.87965917736506
 10
-1.567390260339408
 20
23.87965917736506
 97
        1
330
1A03
 92
       22
 72
     0
 73
     1
 93
       12
 10
1.882971499788112
 20
26.87985997284486
 10
3.847979515363789
 20
26.87985997284486
 10
3.788499102522024
 20
26.27985997284486
 10
2.600322157434135
 20
26.27985997284487
 10
2.540562294183218
 20
25.67704105755032
 10
3.542578834455781
 20
25.67704105755032
 10
3.476410183919
 20
25.07985997284487
 10
2.47439364364638
 20
25.07985997284487
 10
2.421932428393546
 20
24.48037956726917
 10
3.610109373481436
 20
24.48037956726917
 10
3.550577451154907
 20
23.87985997284487
 10
1.585569435579231
 20
23.87985997284487
 97
        1
330
1A04
 92
       20
 93
       11
 72
     1
 10
4.429648034880159
 20
26.87985997284486
 11
5.780015564168562
 21
26.87985997284487
 72
     4
 94
        3
 73
     0
 74
     0
 95
       20
 96
       16
 40
0.0
 40
0.0
 40
0.0
 40
0.0
 40
0.1774120264923274
 40
0.3258093286713144
 40
0.4834060703451958
 40
0.6311237014699663
 40
0.811161917566129
 40
0.9605198197290178
 40
1.289502400757101
 40
1.459697744220917
 40
1.604754171475458
 40
1.794797311213428
 40
2.030760379210173
 40
2.301729078160567
 40
2.393267743077617
 40
2.393267743077617
 40
2.393267743077617
 40
2.393267743077617
 10
5.780015564168593
 20
26.87985997284487
 10
5.839056126904296
 20
26.87337384475878
 10
5.947481505327601
 20
26.86146235781404
 10
6.098807931884806
 20
26.80185114122353
 10
6.227972759762906
 20
26.72168911843352
 10
6.347510602881385
 20
26.61140356622764
 10
6.442310149474394
 20
26.48207375794227
 10
6.536759215535255
 20
26.28338234239492
 10
6.578465181725675
 20
26.06469589684353
 10
6.553150099427256
 20
25.85079503063701
 10
6.524121382020268
 20
25.68499989147718
 10
6.464236525716046
 20
25.50199988960434
 10
6.327150620479812
 20
25.31187331731421
 10
6.179477266233362
 20
25.17172660684537
 10
6.072729148555964
 20
25.11631253421805
 10
6.045077525535504
 20
25.10350570839811
 72
     1
 10
6.045077525535502
 20
25.1035057083981
 11
6.339444173005232
 21
23.87985997284487
 72
     1
 10
6.339444173005232
 20
23.87985997284487
 11
5.532386545886621
 21
23.87985997284487
 72
     1
 10
5.532386545886621
 20
23.87985997284487
 11
5.142141867913776
 21
25.50205881951548
 72
     1
 10
5.142141867913776
 20
25.50205881951548
 11
5.19887096551445
 21
25.50205881951548
 72
     4
 94
        3
 73
     0
 74
     0
 95
       17
 96
       13
 40
0.0
 40
0.0
 40
0.0
 40
0.0
 40
0.0463117202933683
 40
0.2032408426961212
 40
0.3585694343029505
 40
0.4964057577712057
 40
0.6456565825699876
 40
0.7595770154256244
 40
0.9262943680254526
 40
1.032180609131101
 40
1.14647028625934
 40
1.243973057737614
 40
1.243973057737614
 40
1.243973057737614
 40
1.243973057737614
 10
5.198870965514487
 20
25.50205881951548
 10
5.214272018053407
 20
25.50302975767877
 10
5.28186015506489
 20
25.50729075876586
 10
5.40176083940824
 20
25.51345804330556
 10
5.546675458142118
 20
25.55725132865025
 10
5.67725421213268
 20
25.62965962372397
 10
5.765298612935083
 20
25.7349784962169
 10
5.820388894698254
 20
25.86817511516085
 10
5.832561030472788
 20
26.0011917111029
 10
5.781919321100474
 20
26.1258482190374
 10
5.684603990133524
 20
26.18537947021099
 10
5.613502616848251
 20
26.1875961553427
 10
5.580769717272147
 20
26.18861664944085
 72
     1
 10
5.580769717272125
 20
26.18861664944085
 11
5.137953374950967
 21
26.18861664944085
 72
     1
 10
5.137953374950967
 20
26.18861664944085
 11
4.909077041159065
 21
23.87985997284487
 72
     1
 10
4.909077041159065
 20
23.87985997284487
 11
4.132245970671278
 21
23.87985997284487
 72
     1
 10
4.132245970671278
 20
23.87985997284487
 11
4.429648034880159
 21
26.87985997284486
 97
        5
330
19EC
330
19DE
330
19EE
330
1A05
330
19DF
 92
       22
 72
     0
 73
     1
 93
        9
 10
6.800478684667179
 20
26.87985997284487
 10
7.607536311785904
 20
26.87985997284487
 10
7.963471882016363
 20
25.86355557445326
 10
8.538893993587493
 20
26.87985997284487
 10
9.414203966725493
 20
26.87985997284487
 10
8.232331174709315
 20
25.00957443408062
 10
8.120338037129924
 20
23.87985997284486
 10
7.343506966642139
 20
23.87985997284486
 10
7.455500104221528
 20
25.00957443408062
 97
        1
330
19EA
 75
     0
 76
     1
 47
0.0276408434878157
 98
        9
 10
-5.110068937762804
 20
27.30829258594788
 10
-5.110068937762804
 20
27.30829258594788
 10
-5.110068937762804
 20
27.30829258594788
 10
-5.110068937762804
 20
27.30829258594788
 10
-5.110068937762804
 20
27.30829258594788
 10
-5.110068937762804
 20
27.30829258594788
 10
-5.110068937762804
 20
27.30829258594788
 10
-5.110068937762804
 20
27.30829258594788
 10
-5.110068937762804
 20
27.30829258594788
1001
ACAD
1010
0.0
1020
0.0
1030
0.0
1001
AcDbBlockRepETag
1070
     1
1071
      881
1005
1A0C
  0
HATCH
  5
1A0D
330
19D8
100
AcDbEntity
  8
APL Border
 62
     8
100
AcDbHatch
 10
0.0
 20
0.0
 30
0.0
210
0.0
220
0.0
230
1.0
  2
SOLID
 70
     1
 71
     1
 91
        1
 92
        7
 72
     0
 73
     1
 93
        4
 10
0.0001591031300169
 20
7.000275566930961
 10
3.563095122801513
 20
13.17146177711931
 10
-0.9450856774407473
 20
20.97985997284487
 10
-8.070957716782199
 20
20.97985997284487
 97
        1
330
19EF
 75
     0
 76
     1
 47
0.0707162833847576
 98
        3
 10
-2.675438732228172
 20
16.47794635472378
 10
6.312751868664321
 20
42.28939048605213
 10
-9.894301834166896
 20
39.60217176706084
1001
ACAD
1010
0.0
1020
0.0
1030
0.0
1001
AcDbBlockRepETag
1070
     1
1071
      883
1005
1A0D
  0
HATCH
  5
1A0E
330
19D8
100
AcDbEntity
  8
APL Border
 62
     8
100
AcDbHatch
 10
0.0
 20
0.0
 30
0.0
210
0.0
220
0.0
230
1.0
  2
SOLID
 70
     1
 71
     0
 91
        1
 92
        7
 72
     0
 73
     1
 93
        7
 10
-12.96642015501169
 20
43.61979184908029
 10
-14.7664201550117
 20
43.61979184908029
 10
-16.54136876356097
 20
39.42215966960598
 10
-17.19614352503853
 20
43.61979184908029
 10
-18.99614352503854
 20
43.61979184908029
 10
-17.7875751270476
 20
37.38083558975206
 10
-15.77022638070493
 20
37.38083558975206
 97
        0
 75
     0
 76
     1
 47
0.0707162833847576
 98
        3
 10
6.249678794057444
 20
42.28939048605213
 10
-9.957374908773772
 20
39.60217176706084
 10
-16.39773218462096
 20
38.68285940442952
1001
ACAD
1010
0.0
1020
0.0
1030
0.0
1001
AcDbBlockRepETag
1070
     1
1071
      884
1005
1A0E
  0
HATCH
  5
1A0F
330
19D8
100
AcDbEntity
  8
APL Border
 62
     8
100
AcDbHatch
 10
0.0
 20
0.0
 30
0.0
210
0.0
220
0.0
230
1.0
  2
SOLID
 70
     1
 71
     1
 91
        1
 92
        7
 72
     0
 73
     1
 93
       10
 10
-2.850928947786229
 20
37.38083558975206
 10
-2.181839912298442
 20
43.6197918490803
 10
-3.855464624526036
 20
43.61979184908029
 10
-4.228474015381578
 20
40.14164596649268
 10
-5.40751765387219
 20
43.61979184908029
 10
-7.466097855805088
 20
43.61979184908029
 10
-8.135186891292875
 20
37.38083558975206
 10
-6.479801476178323
 20
37.38083558975206
 10
-6.131920885667285
 20
40.6246666384634
 10
-5.032306754624555
 20
37.38083558975206
 97
        1
330
19E6
 75
     0
 76
     1
 47
0.0707162833847576
 98
        3
 10
6.312751868664321
 20
42.28939048605213
 10
-5.364819983741796
 20
40.80434854252457
 10
-9.894301834166896
 20
39.60217176706084
1001
ACAD
1010
0.0
1020
0.0
1030
0.0
1001
AcDbBlockRepETag
1070
     1
1071
      886
1005
1A0F
  0
HATCH
  5
1A10
330
19D8
100
AcDbEntity
  8
APL Border
 62
     8
100
AcDbHatch
 10
0.0
 20
0.0
 30
0.0
210
0.0
220
0.0
230
1.0
  2
SOLID
 70
     1
 71
     1
 91
        1
 92
        7
 72
     0
 73
     1
 93
        8
 10
2.929095477768755
 20
41.97282181113101
 10
3.105743226874893
 20
43.6199831327606
 10
-1.725754035154748
 20
43.61998313276061
 10
-1.891167362926863
 20
41.97282181113101
 10
-0.3755272841536335
 20
41.97282181113101
 10
-0.8679685705352806
 20
37.38102687343239
 10
0.9741138955425025
 20
37.38339558452146
 10
1.466301152475638
 20
41.97282181113101
 97
        1
330
19E5
 75
     0
 76
     1
 47
0.0707162833847576
 98
        3
 10
6.461508006627583
 20
42.28958176973246
 10
0.3042431306128051
 20
42.36029787294049
 10
-9.745545696203633
 20
39.60236305074117
1001
ACAD
1010
0.0
1020
0.0
1030
0.0
1001
AcDbBlockRepETag
1070
     1
1071
      887
1005
1A10
  0
HATCH
  5
1A11
330
19D8
100
AcDbEntity
  8
APL Border
 62
     8
100
AcDbHatch
 10
0.0
 20
0.0
 30
0.0
210
0.0
220
0.0
230
1.0
  2
SOLID
 70
     1
 71
     1
 91
        1
 92
        7
 72
     0
 73
     1
 93
        3
 10
8.071275923043375
 20
20.97985997284487
 10
0.8484489512626126
 20
20.97985997284487
 10
4.459862437153192
 20
14.72470832814346
 97
        1
330
19F0
 75
     0
 76
     1
 47
0.0707162833847576
 98
        3
 10
4.897289869501349
 20
18.17513736310713
 10
6.312751868664321
 20
42.28939048605213
 10
-9.894301834166896
 20
39.60217176706084
1001
ACAD
1010
0.0
1020
0.0
1030
0.0
1001
AcDbBlockRepETag
1070
     1
1071
      891
1005
1A11
  0
HATCH
  5
1A12
330
19D8
100
AcDbEntity
  8
APL Border
 62
     8
100
AcDbHatch
 10
0.0
 20
0.0
 30
0.0
210
0.0
220
0.0
230
1.0
  2
SOLID
 70
     1
 71
     1
 91
        2
 92
       16
 93
        3
 72
     1
 10
0.0000000003145431
 20
4.000000000000009
 11
23.60256143704041
 21
44.88083558975217
 72
     1
 10
23.60256143704041
 20
44.88083558975217
 11
-23.60256142783933
 21
44.88083558975206
 72
     1
 10
-23.60256142783933
 20
44.88083558975206
 11
0.0000000003145431
 21
4.000000000000007
 97
        1
330
19F6
 92
        1
 93
        3
 72
     1
 10
27.06666305249243
 20
46.88083558975206
 11
-27.06666304266244
 21
46.88083558975206
 72
     1
 10
-27.06666304266244
 20
46.88083558975206
 11
-0.0000000000000284
 21
0.0000000000000213
 72
     1
 10
-0.0000000000000284
 20
0.0000000000000238
 11
27.06666305249243
 21
46.88083558975206
 97
        1
330
19F7
 75
     0
 76
     1
 98
        1
 10
-236.5641112216887
 20
1.231020082252661
1001
ACAD
1010
0.0
1020
0.0
1030
0.0
1001
AcDbBlockRepETag
1070
     1
1071
      892
1005
1A12
  0
HATCH
  5
1A13
330
19D8
100
AcDbEntity
  8
APL Border
 62
     8
100
AcDbHatch
 10
0.0
 20
0.0
 30
0.0
210
0.0
220
0.0
230
1.0
  2
SOLID
 70
     1
 71
     1
 91
        1
 92
        7
 72
     0
 73
     1
 93
       12
 10
15.84058876400877
 20
41.9726305274507
 10
18.21321428445671
 20
41.9726305274507
 10
18.38986203356285
 20
43.61979184908029
 10
14.13627631352983
 20
43.61979184908029
 10
13.46718727804204
 20
37.38083558975206
 10
17.72077299807506
 20
37.38083558975207
 10
17.87787225036464
 20
38.84571591422678
 10
15.50524672991671
 20
38.84571591422678
 10
15.58395939694927
 20
39.5796763598845
 10
17.56969663746741
 20
39.57967635988449
 10
17.71732334684157
 20
41.15966911198297
 10
15.75340373709809
 20
41.15966911198297
 97
        1
330
19E2
 75
     0
 76
     1
 47
0.0265225354961204
 98
        1
 10
15.74642260871314
 20
42.54140343148856
1001
ACAD
1010
0.0
1020
0.0
1030
0.0
1001
AcDbBlockRepETag
1070
     1
1071
      895
1005
1A13
  0
SPLINE
  5
1A14
102
{ACAD_REACTORS
330
1A16
330
1A17
102
}
330
19D8
100
AcDbEntity
  8
APL Border
 62
     8
100
AcDbSpline
210
0.0
220
0.0
230
1.0
 70
     8
 71
     3
 72
    12
 73
     8
 74
     0
 42
0.0000000001
 43
0.0000000001
 40
0.0
 40
0.0
 40
0.0
 40
0.0
 40
0.6153828260925694
 40
0.6153828260925694
 40
1.184895113366773
 40
1.184895113366773
 40
1.406874102447421
 40
1.406874102447421
 40
1.406874102447421
 40
1.406874102447421
 10
13.141643811855
 20
41.76981947766621
 30
0.0
 10
12.65093549588437
 20
41.90084145687704
 30
0.0
 10
12.40139116615246
 20
41.94113120867605
 30
0.0
 10
12.08548087756223
 20
41.99544455363318
 30
0.0
 10
11.92864742837253
 20
42.01465504085827
 30
0.0
 10
11.75444086026641
 20
42.02973960983341
 30
0.0
 10
11.75444086026641
 20
42.02973960983341
 30
0.0
 10
11.64369617822672
 20
42.03297741382947
 30
0.0
1001
AcDbBlockRepETag
1070
     1
1071
      898
1005
1A14
  0
LWPOLYLINE
  5
1A15
102
{ACAD_REACTORS
330
1A16
102
}
330
19D8
100
AcDbEntity
  8
APL Border
  6
Continuous
 62
     8
100
AcDbPolyline
 90
        3
 70
     1
 43
0.0
 10
-11.22376129049633
 20
41.69367581194667
 10
-10.87774200114645
 20
40.14955389030274
 10
-11.91769445450297
 20
40.14955389030274
1001
AcDbBlockRepETag
1070
     1
1071
      902
1005
1A15
  0
HATCH
  5
1A16
330
19D8
100
AcDbEntity
  8
APL Border
 62
     8
100
AcDbHatch
 10
0.0
 20
0.0
 30
0.0
210
0.0
220
0.0
230
1.0
  2
SOLID
 70
     1
 71
     1
 91
        2
 92
        7
 72
     0
 73
     1
 93
        8
 10
-9.847253547555595
 20
43.61979184908029
 10
-12.02298966350147
 20
43.61979184908029
 10
-14.82679588919472
 20
37.38083558975206
 10
-12.95240022532295
 20
37.38083558975206
 10
-12.352528740424
 20
38.71565392391761
 10
-10.64639685172309
 20
38.71565392391761
 10
-10.34727999772013
 20
37.38083558975206
 10
-8.449177928734428
 20
37.38083558975207
 97
        1
330
19E7
 92
       22
 72
     0
 73
     1
 93
        3
 10
-11.22376129049633
 20
41.69367581194668
 10
-10.87774200114645
 20
40.14955389030274
 10
-11.91769445450297
 20
40.14955389030274
 97
        1
330
1A15
 75
     0
 76
     1
 47
0.0464409783890934
 98
        3
 10
-10.7866676671747
 20
42.18285929720354
 10
-10.7866676671747
 20
42.18285929720354
 10
4.318789658947025
 20
41.34692151769582
1001
ACAD
1010
0.0
1020
0.0
1030
0.0
1001
AcDbBlockRepETag
1070
     1
1071
      903
1005
1A16
  0
HATCH
  5
1A17
330
19D8
100
AcDbEntity
  8
APL Border
 62
     8
100
AcDbHatch
 10
0.0
 20
0.0
 30
0.0
210
0.0
220
0.0
230
1.0
  2
SOLID
 70
     1
 71
     1
 91
        1
 92
        5
 93
        9
 72
     4
 94
        3
 73
     0
 74
     0
 95
       25
 96
       21
 40
0.0289432764998855
 40
0.0289432764998855
 40
0.0289432764998855
 40
0.0289432764998855
 40
0.7134165119202287
 40
1.411731005087882
 40
2.041147618059464
 40
3.036171077105474
 40
3.957911241576911
 40
4.83592253147705
 40
5.676684481733094
 40
6.271141751551381
 40
6.974058201941041
 40
7.825808739104269
 40
8.5265481701528
 40
9.125733480364379
 40
9.891766509798275
 40
10.6767880070383
 40
11.66821110410527
 40
12.42950909475574
 40
13.09855121203093
 40
13.70132750762923
 40
13.70132750762923
 40
13.70132750762923
 40
13.70132750762923
 10
13.141643811855
 20
43.40554077871886
 10
12.91988216430481
 20
43.459256627421
 10
12.47168844867874
 20
43.5669624691983
 10
11.80600758681791
 20
43.66484839798013
 10
11.02988777388427
 20
43.6649333207477
 10
10.1361516270939
 20
43.55263717791944
 10
9.306733533720876
 20
43.19741938393827
 10
8.599762003673276
 20
42.45478219212527
 10
8.236440109363229
 20
41.77191325718488
 10
8.073464067873601
 20
41.07996170309042
 10
8.007035995439764
 20
40.3638923215899
 10
7.98103501985804
 20
39.60493317412716
 10
8.107710769833204
 20
38.92055182387923
 10
8.442098079777224
 20
38.21445924826959
 10
9.036296716232907
 20
37.66873436641545
 10
9.909689132144507
 20
37.42421376773082
 10
10.75775873959412
 20
37.35554609345542
 10
11.56487972715851
 20
37.38454149767491
 10
12.23983007222788
 20
37.44815687239099
 10
12.66077873273661
 20
37.49837935861893
 10
12.86026661033734
 20
37.52234731786496
 72
     1
 10
12.86026661033734
 20
37.52234731786496
 11
13.23839963312048
 21
41.04826877857415
 72
     1
 10
13.23839963312048
 20
41.04826877857415
 11
11.12639005748273
 21
41.04826877857415
 72
     1
 10
11.12639005748273
 20
41.04826877857415
 11
10.96889270630695
 21
39.57967635988449
 72
     1
 10
10.96889270630695
 20
39.57967635988449
 11
11.39962533929804
 21
39.57967635988449
 72
     1
 10
11.39962533929804
 20
39.57967635988449
 11
11.33360452536307
 21
38.96406177273883
 72
     4
 94
        3
 73
     0
 74
     0
 95
       19
 96
       15
 40
1.529304964685562
 40
1.529304964685562
 40
1.529304964685562
 40
1.529304964685562
 40
1.763981165818448
 40
2.06379851215709
 40
2.386700017314354
 40
2.753069149612017
 40
3.181918037271135
 40
3.768421453867451
 40
4.325591611844758
 40
5.021152851646889
 40
5.521935404920329
 40
5.929637176310238
 40
6.454411479904243
 40
6.957123473051371
 40
6.957123473755098
 40
6.957123473755098
 40
6.957123473755098
 10
11.33360452536307
 20
38.96406177273881
 10
11.24302802126629
 20
38.95177692242413
 10
10.99026249243499
 20
38.92783484269152
 10
10.70216182646531
 20
38.92661434152812
 10
10.3797311442331
 20
38.98358798973799
 10
10.00680770225198
 20
39.09661486818469
 10
9.716968816830743
 20
39.48770259248511
 10
9.641062203095145
 20
40.05806431643046
 10
9.717431528044755
 20
40.66388266631498
 10
9.854221329784113
 20
41.27113304911427
 10
10.23036575101369
 20
41.67654609785123
 10
10.65553906793815
 20
41.91613810684326
 10
11.13485165915975
 20
42.01473204050012
 10
11.47589856643677
 20
42.04574754506741
 10
11.64369617822672
 20
42.03297741382947
 72
     4
 94
        3
 73
     0
 74
     0
 95
       12
 96
        8
 40
0.0
 40
0.0
 40
0.0
 40
0.0
 40
0.2219789890806476
 40
0.2219789890806476
 40
0.7914912763548521
 40
0.7914912763548521
 40
1.406874102447421
 40
1.406874102447421
 40
1.406874102447421
 40
1.406874102447421
 10
11.64369617822672
 20
42.03297741382947
 10
11.75444086026641
 20
42.02973960983341
 10
11.75444086026641
 20
42.02973960983341
 10
11.92864742837253
 20
42.01465504085827
 10
12.08548087756223
 20
41.99544455363318
 10
12.40139116615246
 20
41.94113120867605
 10
12.65093549588437
 20
41.90084145687704
 10
13.141643811855
 20
41.76981947766621
 72
     1
 10
13.14164381185501
 20
41.76981947766621
 11
13.141643811855
 21
43.40554077871886
 97
        5
330
19E0
330
19E4
330
19E1
330
1A14
330
19E3
 75
     0
 76
     1
 47
0.0464409783890934
 98
        3
 10
-10.7866676671747
 20
42.18285929720354
 10
4.318789658947025
 20
41.34692151769582
 10
10.26801654887663
 20
42.50794595375691
1001
ACAD
1010
0.0
1020
0.0
1030
0.0
1001
AcDbBlockRepETag
1070
     1
1071
      904
1005
1A17
  0
HATCH
  5
1A18
330
19D8
100
AcDbEntity
  8
APL Border
 62
     8
100
AcDbHatch
 10
0.0
 20
0.0
 30
0.0
210
0.0
220
0.0
230
1.0
  2
SOLID
 70
     1
 71
     1
 91
        2
 92
        7
 72
     0
 73
     1
 93
        8
 10
6.582554574553399
 20
43.61979184908029
 10
4.406818458607519
 20
43.6197918490803
 10
1.603012232914266
 20
37.38083558975206
 10
3.477407896786048
 20
37.38083558975206
 10
4.077279381684999
 20
38.71565392391761
 10
5.783411270385895
 20
38.71565392391761
 10
6.082528124388858
 20
37.38083558975206
 10
7.980630193374566
 20
37.38083558975207
 97
        1
330
19F8
 92
       22
 72
     0
 73
     1
 93
        3
 10
5.206046831612668
 20
41.69367581194667
 10
5.552066120962536
 20
40.14955389030274
 10
4.512113667606024
 20
40.14955389030274
 97
        1
330
19F9
 75
     0
 76
     1
 47
0.0464409783890934
 98
        3
 10
-10.7866676671747
 20
42.18285929720354
 10
4.318789658947025
 20
41.34692151769582
 10
4.318789658947025
 20
41.34692151769582
1001
ACAD
1010
0.0
1020
0.0
1030
0.0
1001
AcDbBlockRepETag
1070
     1
1071
      905
1005
1A18
  0
HATCH
  5
1A19
330
19D8
100
AcDbEntity
  8
APL Border
 62
     8
100
AcDbHatch
 10
0.0
 20
0.0
 30
0.0
210
0.0
220
0.0
230
1.0
  2
SOLID
 70
     1
 71
     1
 91
       11
 92
        7
 72
     0
 73
     1
 93
        4
 10
-16.33747952551644
 20
35.29789574745092
 10
-12.98884796421712
 20
29.49789574745095
 10
12.98916617047902
 20
29.49789574745094
 10
16.33779773177886
 20
35.29789574745093
 97
        1
330
19E9
 92
       22
 72
     0
 73
     1
 93
        8
 10
-10.50084997043805
 20
34.02289574745092
 10
-9.555761072109191
 20
34.02289574745092
 10
-8.834065309397374
 20
31.02289574745093
 10
-9.641122936515984
 20
31.02289574745093
 10
-9.86222995755253
 20
31.94201027933759
 10
-10.74455961985978
 20
31.94201027933758
 10
-11.20867717380426
 20
31.02289574745093
 10
-12.01573480092304
 20
31.02289574745093
 97
        1
330
19F5
 92
        6
 72
     0
 73
     1
 93
        3
 10
-10.14693849009504
 20
33.12550842600547
 10
-10.00044093617224
 20
32.51653621849666
 10
-10.45444607654239
 20
32.51653621849665
 97
        1
330
19F4
 92
       22
 72
     0
 73
     1
 93
        6
 10
-8.326765119961606
 20
34.02289574745092
 10
-7.549934049473819
 20
34.02289574745092
 10
-7.777198851462713
 20
31.73039516316516
 10
-6.700109532938454
 20
31.73039516316516
 10
-6.770246795158442
 20
31.02289574745093
 10
-8.624167184170486
 20
31.02289574745092
 97
        1
330
19F3
 92
       20
 93
       13
 72
     1
 10
-6.13042511277439
 20
34.02488019433461
 11
-5.353790768486449
 21
34.02289574745093
 72
     1
 10
-5.353790768486449
 20
34.02289574745093
 11
-5.5356280948821
 21
32.18709291744541
 72
     4
 94
        3
 73
     0
 74
     0
 95
       24
 96
       20
 40
0.0
 40
0.0
 40
0.0
 40
0.0
 40
0.1612668085855933
 40
0.2532303870616441
 40
0.3214574742553387
 40
0.4101806452459026
 40
0.5031588697521256
 40
0.5664511009171887
 40
0.624871878778038
 40
0.6731644290699905
 40
0.7797386132933425
 40
0.9206747739903356
 40
1.025058962643435
 40
1.116412352300609
 40
1.212929457806147
 40
1.276240530363035
 40
1.339961572016457
 40
1.386280507025952
 40
1.435584820291647
 40
1.435584820291647
 40
1.435584820291647
 40
1.435584820291647
 10
-5.535628094882099
 20
32.1870929174454
 10
-5.53213414748617
 20
32.13312332644234
 10
-5.526647751003197
 20
32.04837718097616
 10
-5.488860432547518
 20
31.94683424540268
 10
-5.447171648840961
 20
31.8753242559261
 10
-5.395818187958767
 20
31.80737001333622
 10
-5.320761662408248
 20
31.77062767698265
 10
-5.254477128417399
 20
31.74466351916423
 10
-5.200112096792143
 20
31.72723210184819
 10
-5.128888988289486
 20
31.72198763189771
 10
-5.030042811850907
 20
31.72786870372271
 10
-4.915707066470194
 20
31.75812586881066
 10
-4.815771266393483
 20
31.81405298527762
 10
-4.754740567305573
 20
31.89193427605802
 10
-4.71467399544198
 20
31.96546823314959
 10
-4.683526695854578
 20
32.03313813212702
 10
-4.662006183068958
 20
32.08703079743258
 10
-4.651792807669443
 20
32.13930455656534
 10
-4.647206914869654
 20
32.17083533130903
 10
-4.644842382192905
 20
32.1870929174454
 72
     1
 10
-4.644842382192908
 20
32.18709291744538
 11
-4.462655138951674
 21
34.0248801943346
 72
     1
 10
-4.462655138951674
 20
34.0248801943346
 11
-3.685824068463886
 21
34.0248801943346
 72
     1
 10
-3.685824068463886
 20
34.0248801943346
 11
-3.889225876952792
 21
31.97309408084612
 72
     2
 10
-5.35367831607159
 20
32.29400281725688
 40
1.499200908332752
 50
12.35998596222624
 51
34.57361697223234
 73
     0
 72
     2
 10
-4.942942423735221
 20
32.00494866311196
 40
0.9969860617863467
 50
34.29038331790704
 51
79.42991665428312
 73
     0
 72
     1
 10
-4.760057203160528
 20
31.0248801943346
 11
-5.510404689928634
 21
31.02488019433462
 72
     2
 10
-5.403812384664131
 20
31.8164328281441
 40
0.7986973717449786
 50
97.66944495435136
 51
120.898786067779
 73
     0
 72
     2
 10
-5.173141343771899
 20
32.14234761068797
 40
1.197202176515717
 50
122.3618931068037
 51
141.2515245137382
 73
     0
 72
     2
 10
-5.389471681131198
 20
32.00817328375058
 40
0.9450065449727091
 50
139.3862736078239
 51
177.8726579657922
 73
     0
 72
     1
 10
-6.333826921263238
 20
31.9730940808461
 11
-6.13042511277439
 21
34.02488019433461
 97
        2
330
19FB
330
19FC
 92
       22
 72
     0
 73
     1
 93
       13
 10
-3.14734900486158
 20
34.02825593571061
 10
-2.047349004861559
 20
34.02825593571061
 10
-1.827245318565901
 20
32.52441131541936
 10
-1.295012624591634
 20
34.02807364104484
 10
-0.1975458970834157
 20
34.0280551402308
 10
-0.4949479612922965
 20
31.0280551402308
 10
-1.115886909891883
 20
31.02805514023081
 10
-0.9222174129992312
 20
32.98166797820307
 10
-1.611942464131546
 20
31.02805514023081
 10
-2.344230471214956
 20
31.0280551402308
 10
-2.630162529241629
 20
32.98166797820306
 10
-2.823832026134283
 20
31.02805514023081
 10
-3.444770974733871
 20
31.0280551402308
 97
        1
330
19FE
 92
       22
 72
     0
 73
     1
 93
        4
 10
0.342591724648486
 20
34.02289574745092
 10
1.119422795136273
 20
34.02289574745092
 10
0.822020730927392
 20
31.02289574745093
 10
0.045189660439604
 20
31.02289574745093
 97
        1
330
19ED
 92
       22
 72
     0
 73
     1
 93
       10
 10
1.724974710806094
 20
34.02289574745093
 10
2.57655809816546
 20
34.02269495197112
 10
3.395920304875375
 20
32.17298478610545
 10
3.580266230192904
 20
34.02269495197112
 10
4.200228460647139
 20
34.02269495197112
 10
3.902826396438257
 20
31.02269495197112
 10
3.051434648859951
 20
31.02269495197112
 10
2.231899581960561
 20
32.87279534971117
 10
2.048491689533392
 20
31.02269495197111
 10
1.427552740933804
 20
31.02269495197111
 97
        1
330
19FF
 92
       22
 72
     0
 73
     1
 93
        4
 10
4.838699321647566
 20
34.02289574745092
 10
5.615530392135354
 20
34.02289574745092
 10
5.318128327926473
 20
31.02289574745093
 10
4.541297257438685
 20
31.02289574745093
 97
        1
330
19FA
 92
       20
 93
       13
 72
     1
 10
6.192756492920892
 20
34.02289574745092
 11
6.969390837208833
 21
34.02091130056725
 72
     1
 10
6.969390837208833
 20
34.02091130056725
 11
6.787553510813181
 21
32.18510847056173
 72
     4
 94
        3
 73
     0
 74
     0
 95
       24
 96
       20
 40
0.0
 40
0.0
 40
0.0
 40
0.0
 40
0.1612668085856004
 40
0.2532303870616512
 40
0.3214574742553458
 40
0.4101806452458731
 40
0.5031588697521455
 40
0.5664511009172086
 40
0.6248718787780579
 40
0.6731644290699537
 40
0.7797386132933625
 40
0.9206747739903555
 40
1.025058962643406
 40
1.116412352300617
 40
1.212929457806155
 40
1.276240530363043
 40
1.339961572016455
 40
1.386280507025956
 40
1.435584820291643
 40
1.435584820291643
 40
1.435584820291643
 40
1.435584820291643
 10
6.787553510813182
 20
32.18510847056172
 10
6.791047458209138
 20
32.13113887955868
 10
6.796533854692151
 20
32.04639273409249
 10
6.834321173147815
 20
31.944849798519
 10
6.876009956854381
 20
31.87333980904244
 10
6.927363417736517
 20
31.80538556645249
 10
7.002419943287081
 20
31.76864323009899
 10
7.068704477277941
 20
31.74267907228055
 10
7.123069508903178
 20
31.72524765496452
 10
7.194292617405833
 20
31.72000318501404
 10
7.293138793844411
 20
31.72588425683904
 10
7.407474539225143
 20
31.75614142192696
 10
7.507410339301799
 20
31.81206853839398
 10
7.568441038389779
 20
31.88994982917431
 10
7.608507610253345
 20
31.96348378626593
 10
7.639654909840775
 20
32.03115368524333
 10
7.661175422626328
 20
32.08504635054892
 10
7.671388798025919
 20
32.13732010968165
 10
7.675974690825655
 20
32.16885088442535
 10
7.678339223502376
 20
32.18510847056172
 72
     1
 10
7.678339223502373
 20
32.1851084705617
 11
7.860526466743608
 21
34.02289574745092
 72
     1
 10
7.860526466743608
 20
34.02289574745092
 11
8.637357537231395
 21
34.02289574745092
 72
     1
 10
8.637357537231395
 20
34.02289574745092
 11
8.433955728742489
 21
31.97110963396244
 72
     2
 10
6.969503289623695
 20
32.29201837037321
 40
1.499200908332751
 50
12.35998596222655
 51
34.57361697220028
 73
     0
 72
     2
 10
7.38023918196006
 20
32.00296421622829
 40
0.9969860617863467
 50
34.2903833178587
 51
79.42991665428322
 73
     0
 72
     1
 10
7.563124402534754
 20
31.02289574745093
 11
6.812776915766647
 21
31.02289574745094
 72
     2
 10
6.919369221031151
 20
31.81444838126043
 40
0.7986973717449786
 50
97.66944495435136
 51
120.898786067779
 73
     0
 72
     2
 10
7.150040261923383
 20
32.14036316380429
 40
1.197202176515717
 50
122.3618931068037
 51
141.2515245137382
 73
     0
 72
     2
 10
6.933709924564084
 20
32.0061888368669
 40
0.9450065449727091
 50
139.3862736078239
 51
177.8726579657922
 73
     0
 72
     1
 10
5.989354684432043
 20
31.97110963396243
 11
6.192756492920892
 21
34.02289574745092
 97
        2
330
19FD
330
1A01
 92
       22
 72
     0
 73
     1
 93
       13
 10
9.159497991066102
 20
34.02289574745092
 10
10.25949799106612
 20
34.02289574745092
 10
10.47960167736178
 20
32.51905112715967
 10
11.01183437133604
 20
34.02271345278515
 10
12.10930109884427
 20
34.02269495197111
 10
11.81189903463539
 20
31.02269495197112
 10
11.1909600860358
 20
31.02269495197111
 10
11.38462958292845
 20
32.97630778994339
 10
10.69490453179614
 20
31.02269495197111
 10
9.962616524712728
 20
31.02269495197112
 10
9.676684466686056
 20
32.97630778994339
 10
9.4830149697934
 20
31.02269495197111
 10
8.862076021193814
 20
31.02269495197111
 97
        1
330
1A00
 75
     0
 76
     1
 47
0.0356978143457059
 98
       11
 10
-12.74387987022192
 20
34.13164800304253
 10
-12.74387987022192
 20
34.13164800304253
 10
-12.74387987022192
 20
34.13164800304253
 10
-12.74387987022192
 20
34.13164800304253
 10
-12.74387987022192
 20
34.13164800304253
 10
-12.74387987022192
 20
34.13164800304253
 10
-12.74387987022192
 20
34.13164800304253
 10
-12.74387987022192
 20
34.13164800304253
 10
-12.74387987022192
 20
34.13164800304253
 10
-12.74387987022192
 20
34.13164800304253
 10
-12.74387987022192
 20
34.13164800304253
1001
ACAD
1010
0.0
1020
0.0
1030
0.0
1001
AcDbBlockRepETag
1070
     1
1071
      906
1005
1A19
  0
ENDBLK
  5
1A1A
330
19D8
100
AcDbEntity
  8
0
 62
     9
100
AcDbBlockEnd
  0
ENDSEC
  0
SECTION
  2
ENTITIES
  0
LWPOLYLINE
  5
65
330
1F
100
AcDbEntity
  8
0
 62
   253
100
AcDbPolyline
 90
        4
 70
     1
 43
0.0
 10
0.0
 20
0.0
 10
0.0
 20
483.9999999999998
 10
356.0
 20
483.9999999999998
 10
356.0
 20
0.0
  0
MTEXT
  5
1B6
330
1F
100
AcDbEntity
  8
APL Joinery
100
AcDbMText
 10
228.3034221982953
 20
376.2185796563134
 30
0.0
 40
2.5
 41
0.0
 71
     1
 72
     1
  1

  7
Arial-Regular
 73
     1
 44
1.0
1001
ACAD
1000
MTEXTBEGIN
1070
    73
1070
     1
1070
    44
1040
1.0
1070
    74
1070
     0
1000
MTEXTEND
  0
TEXT
  5
1BC
102
{ACAD_REACTORS
330
F2A
102
}
330
1F
100
AcDbEntity
  8
APL Notes
100
AcDbText
 10
40.55468463266203
 20
394.2951332911449
 30
0.0
 40
5.0
  1
A
  7
Arial-Bold
100
AcDbText
  0
TEXT
  5
1BD
102
{ACAD_REACTORS
330
F2A
102
}
330
1F
100
AcDbEntity
  8
APL Notes
100
AcDbText
 10
310.5546846326619
 20
394.2951332911449
 30
0.0
 40
5.0
  1
A
  7
Arial-Bold
100
AcDbText
  0
TEXT
  5
A9D
330
1F
100
AcDbEntity
  8
APL Notes
100
AcDbText
 10
155.2987721691677
 20
146.2537445783066
 30
0.0
 40
5.0
  1
SECTION A-A
  7
Arial-Bold
 72
     1
 11
178.0
 21
146.2537445783066
 31
0.0
100
AcDbText
  0
LWPOLYLINE
  5
A9E
330
1F
100
AcDbEntity
  8
APL Notes
100
AcDbPolyline
 90
        4
 70
     1
 43
0.3
 10
203.5
 20
143.2537445783066
 10
203.5
 20
154.2537445783066
 10
152.4999999999999
 20
154.2537445783066
 10
152.4999999999999
 20
143.2537445783066
  0
LWPOLYLINE
  5
AB1
330
1F
100
AcDbEntity
  8
APL Joinery
  6
DASHED
 62
     7
100
AcDbPolyline
 90
        6
 70
     0
 43
0.0
 10
151.0000086621232
 20
267.9990617877008
 10
167.3521787265617
 20
267.9990617877008
 10
167.3521787265617
 20
166.0054355887485
 10
34.00401878805406
 20
166.0054355887486
 10
34.00401878805406
 20
68.00543558874887
 10
52.00200939402714
 20
68.00543558874887
  0
TEXT
  5
B51
330
1F
100
AcDbEntity
  8
APL Notes
100
AcDbText
 10
66.66520857547308
 20
141.0054355887487
 30
0.0
 40
5.0
  1
08747
  7
Arial-Bold
 72
     1
 11
76.37700939402697
 21
141.0054355887487
 31
0.0
100
AcDbText
  0
INSERT
  5
B53
330
1F
100
AcDbEntity
  8
APL Joinery
100
AcDbBlockReference
  2
08773
 10
118.0020093940269
 20
99.00543558874872
 30
0.0
 41
-1.0
 50
270.0
  0
INSERT
  5
B54
330
1F
100
AcDbEntity
  8
APL Joinery
100
AcDbBlockReference
  2
08747
 10
96.00200939402697
 20
139.0054355887487
 30
0.0
 41
-1.0
  0
INSERT
  5
B58
330
1F
100
AcDbEntity
  8
APL Joinery
100
AcDbBlockReference
  2
08730
 10
29.0
 20
239.9999999999982
 30
0.0
 41
-1.0
 50
270.0
  0
INSERT
  5
B59
330
1F
100
AcDbEntity
  8
APL Joinery
100
AcDbBlockReference
  2
08741
 10
51.47500049482061
 20
239.9999996281749
 30
0.0
 41
-1.0
  0
TEXT
  5
B5B
330
1F
100
AcDbEntity
  8
APL Notes
100
AcDbText
 10
5.788199181446112
 20
232.9999999999982
 30
0.0
 40
5.0
  1
08730
  7
Arial-Bold
 72
     1
 11
15.5
 21
237.9999999999982
 31
0.0
100
AcDbText
 73
     3
  0
TEXT
  5
B5C
330
1F
100
AcDbEntity
  8
APL Notes
100
AcDbText
 10
41.76319918144613
 20
232.9999999999983
 30
0.0
 40
5.0
  1
08741
  7
Arial-Bold
 72
     1
 11
51.47500000000002
 21
237.9999999999983
 31
0.0
100
AcDbText
 73
     3
  0
TEXT
  5
B5E
330
1F
100
AcDbEntity
  8
APL Notes
100
AcDbText
 10
128.1586711473051
 20
240.0054355887487
 30
0.0
 40
5.0
  1
08900
  7
Arial-Bold
 72
     1
 11
137.870471965859
 21
245.0054355887487
 31
0.0
100
AcDbText
 73
     3
  0
INSERT
  5
B5F
330
1F
100
AcDbEntity
  8
APL Joinery
100
AcDbBlockReference
  2
08753
 10
74.00000000000011
 20
294.7999999999984
 30
0.0
 41
-1.0
  0
TEXT
  5
B60
330
1F
100
AcDbEntity
  8
APL Notes
100
AcDbText
 10
127.3857268923644
 20
289.0054355887487
 30
0.0
 40
5.0
  1
08638
  7
Arial-Bold
 72
     1
 11
137.0975277109182
 21
289.0054355887487
 31
0.0
100
AcDbText
  0
TEXT
  5
B63
330
1F
100
AcDbEntity
  8
APL Notes
100
AcDbText
 10
76.00000000000012
 20
316.4999999999986
 30
0.0
 40
5.0
  1
08753
  7
Arial-Bold
 11
76.00000000000012
 21
318.9999999999987
 31
0.0
100
AcDbText
 73
     2
  0
TEXT
  5
B6A
330
1F
100
AcDbEntity
  8
APL Notes
100
AcDbText
 10
76.91520857547354
 20
40.00543558874873
 30
0.0
 40
5.0
  1
08773
  7
Arial-Bold
 72
     1
 11
86.62700939402743
 21
45.00543558874873
 31
0.0
100
AcDbText
 73
     3
  0
TEXT
  5
B6E
330
1F
100
AcDbEntity
  8
APL Notes
100
AcDbText
 10
97.3091425582953
 20
141.0054355887487
 30
0.0
 40
5.0
  1
08638
  7
Arial-Bold
 72
     1
 11
107.0209433768491
 21
141.0054355887487
 31
0.0
100
AcDbText
  0
INSERT
  5
B75
330
1F
100
AcDbEntity
  8
APL Joinery
100
AcDbBlockReference
  2
08741
 10
304.5249995051794
 20
239.9999996281749
 30
0.0
  0
INSERT
  5
B76
330
1F
100
AcDbEntity
  8
APL Joinery
100
AcDbBlockReference
  2
08730
 10
327.0
 20
239.9999999999982
 30
0.0
 50
90.0
  0
INSERT
  5
B7A
330
1F
100
AcDbEntity
  8
APL Joinery
100
AcDbBlockReference
  2
08773
 10
237.9979906059729
 20
99.00543558874872
 30
0.0
 50
90.0
  0
TEXT
  5
B7C
330
1F
100
AcDbEntity
  8
APL Notes
100
AcDbText
 10
331.4259890859482
 20
232.9999999999982
 30
0.0
 40
5.0
  1
08730
  7
Arial-Bold
 72
     1
 11
341.1377899045021
 21
237.9999999999982
 31
0.0
100
AcDbText
 73
     3
  0
TEXT
  5
B7E
330
1F
100
AcDbEntity
  8
APL Notes
100
AcDbText
 10
296.2422578444748
 20
232.9999999999982
 30
0.0
 40
5.0
  1
08741
  7
Arial-Bold
 72
     1
 11
305.9540586630287
 21
237.9999999999983
 31
0.0
100
AcDbText
 73
     3
  0
TEXT
  5
B7F
330
1F
100
AcDbEntity
  8
APL Notes
100
AcDbText
 10
209.4166824268661
 20
240.0054355887487
 30
0.0
 40
5.0
  1
08900
  7
Arial-Bold
 72
     1
 11
219.1284832454199
 21
245.0054355887487
 31
0.0
100
AcDbText
 73
     3
  0
TEXT
  5
B80
330
1F
100
AcDbEntity
  8
APL Notes
100
AcDbText
 10
260.2546413563136
 20
40.00543558874873
 30
0.0
 40
5.0
  1
08773
  7
Arial-Bold
 72
     1
 11
269.9664421748675
 21
45.00543558874873
 31
0.0
100
AcDbText
 73
     3
  0
INSERT
  5
B84
330
1F
100
AcDbEntity
  8
APL Joinery
100
AcDbBlockReference
  2
08753
 10
281.9999999999999
 20
294.7999999999984
 30
0.0
  0
TEXT
  5
B86
330
1F
100
AcDbEntity
  8
APL Notes
100
AcDbText
 10
261.1698499317871
 20
316.4999999999986
 30
0.0
 40
5.0
  1
08753
  7
Arial-Bold
 11
261.1698499317871
 21
318.9999999999987
 31
0.0
100
AcDbText
 73
     2
  0
TEXT
  5
B89
330
1F
100
AcDbEntity
  8
APL Notes
100
AcDbText
 10
209.7002245175878
 20
289.0054355887487
 30
0.0
 40
5.0
  1
08638
  7
Arial-Bold
 72
     1
 11
219.4120253361417
 21
289.0054355887487
 31
0.0
100
AcDbText
  0
TEXT
  5
B8D
330
1F
100
AcDbEntity
  8
APL Notes
100
AcDbText
 10
239.7208710842694
 20
141.0054355887487
 30
0.0
 40
5.0
  1
08638
  7
Arial-Bold
 72
     1
 11
249.4326719028233
 21
141.0054355887487
 31
0.0
100
AcDbText
  0
INSERT
  5
B8F
330
1F
100
AcDbEntity
  8
APL Joinery
100
AcDbBlockReference
  2
08747
 10
259.9979906059729
 20
139.0054355887487
 30
0.0
  0
TEXT
  5
B90
330
1F
100
AcDbEntity
  8
APL Notes
100
AcDbText
 10
270.5148732799157
 20
141.0054355887487
 30
0.0
 40
5.0
  1
08747
  7
Arial-Bold
 72
     1
 11
280.2266740984696
 21
141.0054355887487
 31
0.0
100
AcDbText
  0
LWPOLYLINE
  5
B9B
330
1F
100
AcDbEntity
  8
APL Joinery
  6
DASHED
 62
     7
100
AcDbPolyline
 90
        6
 70
     0
 43
0.0
 10
204.9999999999987
 20
267.9990617877008
 10
188.5993332786305
 20
267.9990617877008
 10
188.5993332786305
 20
166.0054355887485
 10
321.9959812119459
 20
166.0054355887486
 10
321.9959812119459
 20
68.00543558874887
 10
303.9979906059727
 20
68.00543558874887
  0
LINE
  5
BAD
330
1F
100
AcDbEntity
  8
APL Joinery
 62
     9
100
AcDbLine
 10
153.0
 20
90.00543558874872
 30
0.0
 11
203.0
 21
90.00543558874872
 31
0.0
  0
LINE
  5
BAE
330
1F
100
AcDbEntity
  8
APL Joinery
 62
     9
100
AcDbLine
 10
153.0
 20
47.00543558874872
 30
0.0
 11
203.0
 21
47.00543558874872
 31
0.0
  0
LWPOLYLINE
  5
BAF
330
1F
100
AcDbEntity
  8
APL Joinery
  6
Continuous
 62
     8
100
AcDbPolyline
 90
        4
 70
     1
 43
0.0
 10
153.0
 20
76.50543558874867
 10
153.0
 20
60.50543558874867
 10
152.5
 20
60.50543558874867
 10
152.5
 20
76.50543558874867
  0
LWPOLYLINE
  5
BB0
330
1F
100
AcDbEntity
  8
APL Joinery
  6
Continuous
 62
     8
100
AcDbPolyline
 90
        2
 70
     0
 43
0.0
 10
152.5
 20
76.00543558874867
 42
0.9999999999999998
 10
152.5
 20
61.00543558874867
  0
LINE
  5
BB1
330
1F
100
AcDbEntity
  8
APL Joinery
  6
DASHED
 62
     9
 48
0.25
100
AcDbLine
 10
156.0
 20
47.00543558874872
 30
0.0
 11
156.0
 21
90.00543558874866
 31
0.0
  0
LINE
  5
BB2
330
1F
100
AcDbEntity
  8
APL Joinery
 62
     9
 48
0.5
100
AcDbLine
 10
153.0
 20
47.00543558874872
 30
0.0
 11
153.0
 21
90.00543558874866
 31
0.0
  0
LWPOLYLINE
  5
BB4
330
1F
100
AcDbEntity
  8
APL Joinery
  6
Continuous
 62
     8
100
AcDbPolyline
 90
        2
 70
     0
 43
0.0
 10
203.5
 20
76.00543558874867
 42
-0.9999999999999998
 10
203.5
 20
61.00543558874867
  0
LWPOLYLINE
  5
BB5
330
1F
100
AcDbEntity
  8
APL Joinery
  6
Continuous
 62
     8
100
AcDbPolyline
 90
        4
 70
     1
 43
0.0
 10
203.0
 20
76.50543558874867
 10
203.0
 20
60.50543558874867
 10
203.5
 20
60.50543558874867
 10
203.5
 20
76.50543558874867
  0
LINE
  5
BB6
330
1F
100
AcDbEntity
  8
APL Joinery
  6
DASHED
 62
     9
 48
0.25
100
AcDbLine
 10
200.0
 20
47.00543558874866
 30
0.0
 11
200.0
 21
90.00543558874872
 31
0.0
  0
LINE
  5
BB7
330
1F
100
AcDbEntity
  8
APL Joinery
 62
     9
 48
0.5
100
AcDbLine
 10
203.0
 20
47.00543558874866
 30
0.0
 11
203.0
 21
90.00543558874872
 31
0.0
  0
TEXT
  5
BB8
330
1F
100
AcDbEntity
  8
APL Notes
100
AcDbText
 10
157.8158253751705
 20
40.00543558874873
 30
0.0
 40
5.0
  1
9070013 (x2)
  7
Arial-Bold
 72
     1
 11
178.593451568895
 21
45.00543558874873
 31
0.0
100
AcDbText
 73
     3
  0
LINE
  5
BED
330
1F
100
AcDbEntity
  8
APL Notes
 62
     2
100
AcDbLine
 10
238.0000000000005
 20
390.2499999999997
 30
0.0
 11
118.0000000000004
 21
390.2499999999997
 31
0.0
  0
LINE
  5
BEE
330
1F
100
AcDbEntity
  8
APL Notes
 62
     2
100
AcDbLine
 10
238.0000000000005
 20
452.7499999999996
 30
0.0
 11
118.0000000000004
 21
452.7499999999996
 31
0.0
  0
LINE
  5
BF3
330
1F
100
AcDbEntity
  8
APL Notes
 62
     2
100
AcDbLine
 10
113.0000000000004
 20
452.7499999999996
 30
0.0
 11
60.50000000000046
 21
452.7499999999996
 31
0.0
  0
LINE
  5
BF4
330
1F
100
AcDbEntity
  8
APL Notes
 62
     2
100
AcDbLine
 10
113.0000000000004
 20
390.2499999999993
 30
0.0
 11
60.50000000000046
 21
390.2499999999997
 31
0.0
  0
LINE
  5
BF9
330
1F
100
AcDbEntity
  8
APL Notes
 62
     2
100
AcDbLine
 10
60.50000000000046
 20
456.4999999999996
 30
0.0
 11
60.50000000000046
 21
386.4999999999993
 31
0.0
  0
LINE
  5
BFA
330
1F
100
AcDbEntity
  8
APL Notes
 62
     2
100
AcDbLine
 10
52.99999999999954
 20
384.0
 30
0.0
 11
55.49999999999954
 21
386.5
 31
0.0
  0
LINE
  5
BFB
330
1F
100
AcDbEntity
  8
APL Notes
 62
     2
100
AcDbLine
 10
53.00000000000046
 20
458.9999999999996
 30
0.0
 11
55.50000000000046
 21
456.4999999999996
 31
0.0
  0
LINE
  5
BFC
330
1F
100
AcDbEntity
  8
APL Notes
 62
     2
100
AcDbLine
 10
113.0000000000004
 20
456.5
 30
0.0
 11
113.0000000000004
 21
386.4999999999997
 31
0.0
  0
LINE
  5
BFD
330
1F
100
AcDbEntity
  8
APL Notes
 62
     2
100
AcDbLine
 10
118.0000000000004
 20
456.5
 30
0.0
 11
118.0000000000004
 21
386.4999999999997
 31
0.0
  0
LINE
  5
C06
330
1F
100
AcDbEntity
  8
APL Notes
 62
     2
100
AcDbLine
 10
295.5000000000005
 20
452.7499999999996
 30
0.0
 11
243.0000000000005
 21
452.7499999999996
 31
0.0
  0
LINE
  5
C07
330
1F
100
AcDbEntity
  8
APL Notes
 62
     2
100
AcDbLine
 10
295.5000000000005
 20
390.2499999999993
 30
0.0
 11
243.0000000000005
 21
390.2499999999997
 31
0.0
  0
LINE
  5
C08
330
1F
100
AcDbEntity
  8
APL Notes
 62
     2
100
AcDbLine
 10
238.0000000000005
 20
456.4999999999996
 30
0.0
 11
238.0000000000005
 21
386.4999999999997
 31
0.0
  0
LINE
  5
C09
330
1F
100
AcDbEntity
  8
APL Notes
 62
     2
100
AcDbLine
 10
243.0000000000005
 20
456.5
 30
0.0
 11
243.0000000000005
 21
386.4999999999997
 31
0.0
  0
LINE
  5
C0A
330
1F
100
AcDbEntity
  8
APL Notes
 62
     2
100
AcDbLine
 10
238.0000000000005
 20
456.4999999999996
 30
0.0
 11
238.0000000000005
 21
386.4999999999997
 31
0.0
  0
LINE
  5
C0B
330
1F
100
AcDbEntity
  8
APL Notes
 62
     2
100
AcDbLine
 10
243.0000000000005
 20
456.4999999999996
 30
0.0
 11
243.0000000000005
 21
386.4999999999997
 31
0.0
  0
LINE
  5
C14
330
1F
100
AcDbEntity
  8
APL Notes
 62
     2
100
AcDbLine
 10
295.5000000000005
 20
456.4999999999996
 30
0.0
 11
295.5000000000005
 21
386.4999999999993
 31
0.0
  0
LINE
  5
C17
330
1F
100
AcDbEntity
  8
APL Notes
 62
     2
100
AcDbLine
 10
303.0000000000009
 20
384.0
 30
0.0
 11
300.5000000000009
 21
386.5
 31
0.0
  0
LINE
  5
C18
330
1F
100
AcDbEntity
  8
APL Notes
 62
     2
100
AcDbLine
 10
303.0000000000005
 20
458.9999999999996
 30
0.0
 11
300.5000000000005
 21
456.4999999999996
 31
0.0
  0
INSERT
  5
D61
330
1F
100
AcDbEntity
  8
APL Joinery
100
AcDbBlockReference
  2
9010331
 10
66.85000000000048
 20
241.9999999999983
 30
0.0
 50
270.0
  0
INSERT
  5
D62
330
1F
100
AcDbEntity
  8
APL Joinery
100
AcDbBlockReference
  2
9010331
 10
66.85000000000048
 20
291.9999999999983
 30
0.0
 41
-1.0
 50
270.0
  0
INSERT
  5
D63
330
1F
100
AcDbEntity
  8
APL Joinery
100
AcDbBlockReference
  2
9010331
 10
289.1499999999995
 20
291.9999999999983
 30
0.0
 41
-1.0
 50
270.0
  0
INSERT
  5
D64
330
1F
100
AcDbEntity
  8
APL Joinery
100
AcDbBlockReference
  2
9010331
 10
289.1499999999995
 20
241.9999999999983
 30
0.0
 50
270.0
  0
INSERT
  5
D82
330
1F
100
AcDbEntity
  8
APL Joinery
100
AcDbBlockReference
  2
9010100iarch
 10
99.50200939402742
 20
90.50543558874872
 30
0.0
  0
INSERT
  5
D83
330
1F
100
AcDbEntity
  8
APL Joinery
100
AcDbBlockReference
  2
9010100iarch
 10
74.50200939402697
 20
95.50543558874872
 30
0.0
 41
-1.0
  0
INSERT
  5
D84
330
1F
100
AcDbEntity
  8
APL Joinery
100
AcDbBlockReference
  2
9010331
 10
88.35200939402779
 20
84.25543558874874
 30
0.0
 50
270.0
  0
INSERT
  5
D85
330
1F
100
AcDbEntity
  8
APL Joinery
100
AcDbBlockReference
  2
9010331
 10
87.00200939402709
 20
101.7554355887487
 30
0.0
 41
-1.0
 50
270.0
  0
INSERT
  5
D86
330
1F
100
AcDbEntity
  8
APL Joinery
100
AcDbBlockReference
  2
9010100iarch
 10
281.4979906059729
 20
95.50543558874872
 30
0.0
  0
INSERT
  5
D87
330
1F
100
AcDbEntity
  8
APL Joinery
100
AcDbBlockReference
  2
9010331
 10
267.6479906059721
 20
84.25543558874871
 30
0.0
 50
270.0
  0
INSERT
  5
D88
330
1F
100
AcDbEntity
  8
APL Joinery
100
AcDbBlockReference
  2
9010331
 10
268.9979906059728
 20
101.7554355887487
 30
0.0
 41
-1.0
 50
270.0
  0
INSERT
  5
D89
330
1F
100
AcDbEntity
  8
APL Joinery
100
AcDbBlockReference
  2
9010100iarch
 10
256.4979906059725
 20
90.50543558874871
 30
0.0
 41
-1.0
  0
SOLID
  5
F26
102
{ACAD_REACTORS
330
F2A
102
}
330
1F
100
AcDbEntity
  8
APL Notes
100
AcDbTrace
 10
-312.1666666666666
 20
406.4999999999997
 30
0.0
 11
-312.9999999999999
 21
401.4999999999997
 31
0.0
 12
-313.8333333333333
 22
406.4999999999997
 32
0.0
 13
-313.8333333333333
 23
406.4999999999997
 33
0.0
210
0.0
220
0.0
230
-1.0
1001
ACAD
1000
DSTYLE
1002
{
1070
   147
1040
0.625
1070
    77
1070
     0
1002
}
  0
LWPOLYLINE
  5
F27
102
{ACAD_REACTORS
330
F2A
102
}
330
1F
100
AcDbEntity
  8
APL Notes
100
AcDbPolyline
 90
        3
 70
     0
 43
0.0
 10
-312.9999999999999
 20
406.4999999999997
 10
-312.9999999999999
 20
421.4999999999998
 10
-287.9999999999999
 20
421.4999999999999
210
0.0
220
0.0
230
-1.0
1001
ACAD
1000
DSTYLE
1002
{
1070
   147
1040
0.625
1070
    77
1070
     0
1002
}
  0
SOLID
  5
F28
102
{ACAD_REACTORS
330
F2A
102
}
330
1F
100
AcDbEntity
  8
APL Notes
100
AcDbTrace
 10
43.83333333333339
 20
406.4999999999997
 30
0.0
 11
43.00000000000006
 21
401.4999999999997
 31
0.0
 12
42.16666666666672
 22
406.4999999999997
 32
0.0
 13
42.16666666666672
 23
406.4999999999997
 33
0.0
1001
ACAD
1000
DSTYLE
1002
{
1070
   147
1040
0.625
1070
    77
1070
     0
1002
}
  0
LWPOLYLINE
  5
F29
102
{ACAD_REACTORS
330
F2A
102
}
330
1F
100
AcDbEntity
  8
APL Notes
100
AcDbPolyline
 90
        3
 70
     0
 43
0.0
 10
43.00000000000006
 20
406.4999999999997
 10
43.00000000000006
 20
421.4999999999998
 10
68.00000000000006
 20
421.4999999999999
1001
ACAD
1000
DSTYLE
1002
{
1070
   147
1040
0.625
1070
    77
1070
     0
1002
}
  0
INSERT
  5
F78
330
1F
100
AcDbEntity
  8
APL Joinery
100
AcDbBlockReference
  2
08900
 10
125.0000086621225
 20
286.9990617877006
 30
0.0
  0
INSERT
  5
F79
330
1F
100
AcDbEntity
  8
APL Joinery
100
AcDbBlockReference
  2
08900
 10
230.9999999999994
 20
287.0054355887487
 30
0.0
 41
-1.0
  0
LWPOLYLINE
  5
102F
330
1F
100
AcDbEntity
  8
APL Notes
  6
Continuous
 62
     7
100
AcDbPolyline
 90
        8
 70
     1
 43
0.0
 10
79.87500000000043
 20
419.4999999999994
 10
87.87500000000042
 20
419.4999999999994
 10
87.87500000000042
 20
416.4999999999994
 10
96.87500000000042
 20
421.4999999999994
 10
87.87500000000042
 20
426.4999999999994
 10
87.87500000000042
 20
423.4999999999994
 10
79.87500000000043
 20
423.4999999999994
 10
79.87500000000043
 20
421.4999999999994
  0
LWPOLYLINE
  5
1030
330
1F
100
AcDbEntity
  8
APL Notes
  6
Continuous
 62
     7
100
AcDbPolyline
 90
        8
 70
     1
 43
0.0
 10
276.1250000000004
 20
419.4999999999994
 10
268.1250000000005
 20
419.4999999999994
 10
268.1250000000005
 20
416.4999999999994
 10
259.1250000000004
 20
421.4999999999994
 10
268.1250000000005
 20
426.4999999999994
 10
268.1250000000005
 20
423.4999999999994
 10
276.1250000000004
 20
423.4999999999994
 10
276.1250000000004
 20
421.4999999999994
  0
INSERT
  5
1053
330
1F
100
AcDbEntity
  8
APL Joinery
 62
     8
 48
3.0
100
AcDbBlockReference
  2
A$C3EEB4669
 10
121.6932946488123
 20
286.9990619879038
 30
0.0
 41
-1.0
 50
180.0
  0
INSERT
  5
10CC
330
1F
100
AcDbEntity
  8
APL Joinery
 62
     8
 48
3.0
100
AcDbBlockReference
  2
A$C3EEB4669
 10
234.3067140133095
 20
286.9990619879038
 30
0.0
 50
180.0
  0
INSERT
  5
10D7
330
1F
100
AcDbEntity
  8
APL Joinery
 62
     8
 48
3.0
100
AcDbBlockReference
  2
A$C3EEB4669
 10
263.3047046192828
 20
138.9990619879038
 30
0.0
 50
180.0
  0
INSERT
  5
10D8
330
1F
100
AcDbEntity
  8
APL Joinery
 62
     8
 48
3.0
100
AcDbBlockReference
  2
A$C3EEB4669
 10
92.69529538071706
 20
139.0054357889519
 30
0.0
 41
-1.0
 50
180.0
  0
INSERT
  5
10D9
330
1F
100
AcDbEntity
  8
APL Joinery
 62
     8
 48
3.0
100
AcDbBlockReference
  2
A$C3EEB4669
 10
81.30872340733802
 20
86.99906198790376
 30
0.0
 50
180.0
  0
INSERT
  5
10DA
330
1F
100
AcDbEntity
  8
APL Joinery
 62
     8
 48
3.0
100
AcDbBlockReference
  2
A$C3EEB4669
 10
274.6912765926619
 20
87.00543578895183
 30
0.0
 41
-1.0
 50
180.0
  0
LWPOLYLINE
  5
13EB
330
1F
100
AcDbEntity
  8
APL Notes
 62
     2
100
AcDbPolyline
 90
        4
 70
     1
 43
0.0
 10
303.0000000000005
 20
384.0000000000006
 10
303.0000000000005
 20
459.0000000000006
 10
53.00000000000046
 20
458.9999999999996
 10
52.99999999999954
 20
384.0
  0
LWPOLYLINE
  5
13ED
330
1F
100
AcDbEntity
  8
APL Notes
 62
     2
100
AcDbPolyline
 90
        4
 70
     0
 43
0.0
 10
118.0000000000004
 20
456.5
 10
55.50000000000046
 20
456.4999999999996
 10
55.50000000000046
 20
386.4999999999997
 10
118.0000000000004
 20
386.4999999999997
  0
LWPOLYLINE
  5
13F2
330
1F
100
AcDbEntity
  8
APL Notes
 62
     2
100
AcDbPolyline
 90
        4
 70
     0
 43
0.0
 10
113.0000000000004
 20
456.5
 10
300.5000000000005
 20
456.4999999999996
 10
300.5000000000009
 20
386.4999999999993
 10
113.0000000000004
 20
386.4999999999997
  0
VIEWPORT
  5
32
102
{ACAD_XDICTIONARY
360
196E
102
}
330
1B
100
AcDbEntity
 67
     1
  8
0
100
AcDbViewport
 10
97.84291410446169
 20
142.3140988349915
 30
0.0
 40
441.1341663144811
 41
299.2853707857964
 68
     1
 69
     1
 12
97.84291410446169
 22
142.3140988349915
 13
0.0
 23
0.0
 14
10.0
 24
10.0
 15
10.0
 25
10.0
 16
0.0
 26
0.0
 36
1.0
 17
0.0
 27
0.0
 37
0.0
 42
50.0
 43
0.0
 44
0.0
 45
299.2853707857964
 50
0.0
 51
0.0
 72
 20000
 90
    32800
  1

281
     0
 71
     1
 74
     0
110
0.0
120
0.0
130
0.0
111
1.0
121
0.0
131
0.0
112
0.0
122
1.0
132
0.0
 79
     0
146
0.0
  0
VIEWPORT
  5
34
102
{ACAD_XDICTIONARY
360
1970
102
}
330
1B
100
AcDbEntity
 67
     1
  8
0
100
AcDbViewport
 10
100.595
 20
131.1899999999999
 30
0.0
 40
178.0
 41
241.9999999999999
 68
     2
 69
     2
 12
177.9985605612619
 22
242.0061960299548
 13
0.0
 23
0.0
 14
10.0
 24
10.0
 15
10.0
 25
10.0
 16
0.0
 26
0.0
 36
1.0
 17
0.0
 27
0.0
 37
0.0
 42
50.0
 43
0.0
 44
0.0
 45
483.9999999999998
 50
0.0
 51
0.0
 72
   100
 90
    32864
  1

281
     0
 71
     1
 74
     0
110
0.0
120
0.0
130
0.0
111
1.0
121
0.0
131
0.0
112
0.0
122
1.0
132
0.0
 79
     0
146
0.0
  0
INSERT
  5
4B
330
1B
100
AcDbEntity
 67
     1
  8
APL Border
100
AcDbBlockReference
  2
vantage a4 SM border
 10
0.0
 20
0.0
 30
0.0
  0
INSERT
  5
CD6
330
1B
100
AcDbEntity
 67
     1
  8
APL Border
100
AcDbBlockReference
 66
     1
  2
vantage a4 SM attributes (4)
 10
0.0
 20
0.0
 30
0.0
  0
ATTRIB
  5
CD7
330
CD6
100
AcDbEntity
 67
     1
  8
APL Border
100
AcDbText
 10
41.78979785863008
 20
275.28125
 30
0.0
 40
3.5
  1
APL ARCHITECTURAL SERIES
  7
Arial-Bold
100
AcDbAttribute
  2
DRAWINGTITLE_1
 70
     0
  0
ATTRIB
  5
CD8
330
CD6
100
AcDbEntity
 67
     1
  8
APL Border
100
AcDbText
 10
41.78979785863008
 20
269.28125
 30
0.0
 40
3.5
  1
SLIDING WINDOW - TWIN TRACK 
  7
Arial-Bold
100
AcDbAttribute
  2
DRAWINGTITLE_2
 70
     0
  0
ATTRIB
  5
CD9
330
CD6
100
AcDbEntity
 67
     1
  8
APL Border
100
AcDbText
 10
41.78979785863008
 20
263.28125
 30
0.0
 40
3.5
  1
THREE PANEL SFS WITH CENTRAL STOP
  7
Arial-Bold
100
AcDbAttribute
  2
DRAWINGTITLE_3
 70
     0
  0
ATTRIB
  5
CDA
330
CD6
100
AcDbEntity
 67
     1
  8
APL Border
100
AcDbText
 10
41.78979785863008
 20
257.28125
 30
0.0
 40
3.0
  1
CROSS SECTION
  7
Arial-Regular
100
AcDbAttribute
  2
DRAWINGTITLE_4
 70
     0
  0
ATTRIB
  5
CDB
330
CD6
100
AcDbEntity
 67
     1
  8
APL Border
100
AcDbText
 10
165.845
 20
273.69
 30
0.0
 40
2.5
  1
VASW05-0
  7
Arial-Regular
100
AcDbAttribute
  2
AW123-456
 70
     0
  0
ATTRIB
  5
CDC
330
CD6
100
AcDbEntity
 67
     1
  8
APL Border
100
AcDbText
 10
147.5475920873124
 20
257.1899999999999
 30
0.0
 40
2.5
  1
01.06.11
  7
Arial-Regular
 72
     1
 11
154.345
 21
257.1899999999999
 31
0.0
100
AcDbAttribute
  2
24.05.02
 70
     0
  0
ATTRIB
  5
CDD
330
CD6
100
AcDbEntity
 67
     1
  8
APL Border
100
AcDbText
 10
175.4174761255116
 20
257.1899999999999
 30
0.0
 40
2.5
  1
1:2
  7
Arial-Regular
 72
     1
 11
177.845
 21
257.1899999999999
 31
0.0
100
AcDbAttribute
  2
1:2
 70
     0
  0
ATTRIB
  5
CDE
330
CD6
100
AcDbEntity
 67
     1
  8
APL Border
100
AcDbText
 10
11.59500000000001
 20
1.189999999999997
 30
0.0
 40
3.75
  1

  7
Arial-Bold
100
AcDbAttribute
  2
1.2.34
 70
     0
  0
ATTRIB
  5
CDF
330
CD6
100
AcDbEntity
 67
     1
  8
APL Border
100
AcDbText
 10
189.595
 20
1.189999999999997
 30
0.0
 40
3.75
  1

  7
Arial-Bold
 72
     2
 11
189.595
 21
1.189999999999997
 31
0.0
100
AcDbAttribute
  2
1.2.34
 70
     0
  0
SEQEND
  5
CE0
330
CD6
100
AcDbEntity
 67
     1
  8
APL Border
  0
ENDSEC
  0
SECTION
  2
OBJECTS
  0
DICTIONARY
  5
C
330
0
100
AcDbDictionary
281
     1
  3
ACAD_COLOR
350
FD7
  3
ACAD_GROUP
350
D
  3
ACAD_LAYOUT
350
1A
  3
ACAD_MATERIAL
350
FAD
  3
ACAD_MLEADERSTYLE
350
FFC
  3
ACAD_MLINESTYLE
350
17
  3
ACAD_PLOTSETTINGS
350
19
  3
ACAD_PLOTSTYLENAME
350
E
  3
ACAD_SCALELIST
350
FDA
  3
ACAD_TABLESTYLE
350
FD8
  3
ACAD_VISUALSTYLE
350
FC6
  3
ACDB_RECOMPOSE_DATA
350
1198
  3
ACDBHEADERROUNDTRIPXREC
350
1E06
  3
AcDbVariableDictionary
350
6D
  3
DWGPROPS
350
1E05
  0
DICTIONARY
  5
119A
330
8
100
AcDbDictionary
280
     1
281
     1
  3
ACAD_XREC_ROUNDTRIP
360
1967
  0
DICTIONARY
  5
1019
330
2
100
AcDbDictionary
280
     1
281
     1
  3
ACAD_LAYERFILTERS
360
1232
  3
ACAD_LAYERSTATES
360
101A
  3
ACLYDICTIONARY
360
1231
  0
DICTIONARY
  5
1055
330
10
100
AcDbDictionary
280
     1
281
     1
  3
ACAD_XREC_ROUNDTRIP
360
1968
  3
ADSK_XREC_LAYER_RECONCILED
360
1056
  0
DICTIONARY
  5
1057
330
41
100
AcDbDictionary
280
     1
281
     1
  3
ACAD_XREC_ROUNDTRIP
360
197A
  3
ADSK_XREC_LAYER_RECONCILED
360
1058
  0
DICTIONARY
  5
1059
330
42
100
AcDbDictionary
280
     1
281
     1
  3
ACAD_XREC_ROUNDTRIP
360
197B
  3
ADSK_XREC_LAYER_RECONCILED
360
105A
  0
DICTIONARY
  5
105F
330
11C
100
AcDbDictionary
280
     1
281
     1
  3
ACAD_XREC_ROUNDTRIP
360
197C
  3
ADSK_XREC_LAYER_RECONCILED
360
1060
  0
DICTIONARY
  5
1065
330
1009
100
AcDbDictionary
280
     1
281
     1
  3
ACAD_XREC_ROUNDTRIP
360
1983
  3
ADSK_XREC_LAYER_RECONCILED
360
1066
  0
DICTIONARY
  5
F49
330
1F
100
AcDbDictionary
280
     1
281
     1
  3
ACAD_SORTENTS
360
F4A
  0
DICTIONARY
  5
1DB3
330
262
100
AcDbDictionary
280
     1
281
     1
  0
DICTIONARY
  5
1DB7
330
65F
100
AcDbDictionary
280
     1
281
     1
  0
DICTIONARY
  5
1DBB
330
665
100
AcDbDictionary
280
     1
281
     1
  0
DICTIONARY
  5
1DC0
330
673
100
AcDbDictionary
280
     1
281
     1
  0
DICTIONARY
  5
1DC5
330
679
100
AcDbDictionary
280
     1
281
     1
  0
DICTIONARY
  5
1DDB
330
F73
100
AcDbDictionary
280
     1
281
     1
  3
ACAD_SORTENTS
360
1DDC
  0
DICTIONARY
  5
1903
330
103F
100
AcDbDictionary
280
     1
281
     1
  0
DICTIONARY
  5
19D9
330
19D8
100
AcDbDictionary
280
     1
281
     1
  3
ACAD_SORTENTS
360
19DA
  0
DICTIONARY
  5
19D7
330
19D6
100
AcDbDictionary
280
     1
281
     1
  0
DICTIONARY
  5
196E
330
32
100
AcDbDictionary
280
     1
281
     1
  3
ACAD_XREC_ROUNDTRIP
360
196F
  0
DICTIONARY
  5
1970
330
34
100
AcDbDictionary
280
     1
281
     1
  3
ACAD_XREC_ROUNDTRIP
360
1971
  0
DICTIONARY
  5
FD7
102
{ACAD_REACTORS
330
C
102
}
330
C
100
AcDbDictionary
281
     1
  0
DICTIONARY
  5
D
102
{ACAD_REACTORS
330
C
102
}
330
C
100
AcDbDictionary
281
     1
  3
*A1
350
C3
  3
*A2
350
C79
  3
*A3
350
C7C
  3
*A4
350
F2A
  0
DICTIONARY
  5
1A
102
{ACAD_REACTORS
330
C
102
}
330
C
100
AcDbDictionary
281
     1
  3
Model
350
22
  3
Vantage A4
350
1E
  0
DICTIONARY
  5
FAD
102
{ACAD_REACTORS
330
C
102
}
330
C
100
AcDbDictionary
281
     1
  3
ByBlock
350
FB6
  3
ByLayer
350
FAE
  3
Global
350
FBE
  0
DICTIONARY
  5
FFC
102
{ACAD_REACTORS
330
C
102
}
330
C
100
AcDbDictionary
281
     1
  3
Standard
350
FFD
  0
DICTIONARY
  5
17
102
{ACAD_REACTORS
330
C
102
}
330
C
100
AcDbDictionary
281
     1
  3
Standard
350
18
  0
DICTIONARY
  5
19
102
{ACAD_REACTORS
330
C
102
}
330
C
100
AcDbDictionary
281
     1
  0
ACDBDICTIONARYWDFLT
  5
E
102
{ACAD_REACTORS
330
C
102
}
330
C
100
AcDbDictionary
281
     1
  3
Normal
350
F
100
AcDbDictionaryWithDefault
340
F
  0
DICTIONARY
  5
FDA
102
{ACAD_REACTORS
330
C
102
}
330
C
100
AcDbDictionary
281
     1
  3
A0
350
FDB
  3
A1
350
FDC
  3
A2
350
FDD
  3
A3
350
FDE
  3
A4
350
FDF
  3
A5
350
FE0
  3
A6
350
FE1
  3
A7
350
FE2
  3
A8
350
FE3
  3
A9
350
FE4
  3
B0
350
FE5
  3
B1
350
FE6
  3
B2
350
FE7
  3
B3
350
FE8
  3
B4
350
FE9
  3
B5
350
FEA
  3
B6
350
FEB
  3
B7
350
FEC
  3
B8
350
FED
  3
B9
350
FEE
  3
C0
350
FEF
  3
C1
350
FF0
  3
C2
350
FF1
  3
C3
350
FF2
  3
C4
350
FF3
  3
C5
350
FF4
  3
C6
350
FF5
  3
C7
350
FF6
  3
C8
350
FF7
  3
C9
350
FF8
  3
D0
350
FF9
  3
D1
350
FFA
  3
D2
350
FFB
  0
DICTIONARY
  5
FD8
102
{ACAD_REACTORS
330
C
102
}
330
C
100
AcDbDictionary
281
     1
  3
Standard
350
FD9
  0
DICTIONARY
  5
FC6
102
{ACAD_REACTORS
330
C
102
}
330
C
100
AcDbDictionary
281
     1
  3
2dWireframe
350
FCC
  3
3D Hidden
350
FCE
  3
3dWireframe
350
FCD
  3
Basic
350
FCB
  3
Brighten
350
FD2
  3
ColorChange
350
FD6
  3
Conceptual
350
FCF
  3
Dim
350
FD1
  3
Facepattern
350
FD5
  3
Flat
350
FC7
  3
FlatWithEdges
350
FC8
  3
Gouraud
350
FC9
  3
GouraudWithEdges
350
FCA
  3
Linepattern
350
FD4
  3
Realistic
350
FD0
  3
Thicken
350
FD3
  0
XRECORD
  5
1198
102
{ACAD_REACTORS
330
C
102
}
330
C
100
AcDbXrecord
280
     1
 90
        1
330
FD9
  0
DICTIONARY
  5
1E06
102
{ACAD_REACTORS
330
C
102
}
330
C
100
AcDbDictionary
281
     1
  0
DICTIONARY
  5
6D
102
{ACAD_REACTORS
330
C
102
}
330
C
100
AcDbDictionary
281
     1
  3
CANNOSCALE
350
11D3
  3
CMLEADERSTYLE
350
11D2
  3
CTABLESTYLE
350
11D1
  3
DIMASSOC
350
6F
  3
HIDETEXT
350
6E
  3
INDEXCTL
350
11D4
  3
PROJECTNAME
350
146F
  3
SORTENTS
350
F4C
  0
XRECORD
  5
1E05
102
{ACAD_REACTORS
330
C
102
}
330
C
100
AcDbXrecord
280
     1
  1
DWGPROPS COOKIE
  2

  3

  4

  6

  7

  8
homer
  9

300
=
301
=
302
=
303
=
304
=
305
=
306
=
307
=
308
=
309
=
 40
0.7903280208333334
 41
2452682.337302118
 42
2455659.587585162
  1

 90
        0
  0
XRECORD
  5
1967
102
{ACAD_REACTORS
330
119A
102
}
330
119A
100
AcDbXrecord
280
     1
102
VTR_0.000_0.000_1.000_1.000_VISUALSTYLE
340
FCC
102
VTR_0.000_0.000_1.000_1.000_GRIDDISPLAY
 70
     3
102
VTR_0.000_0.000_1.000_1.000_GRIDMAJOR
 70
     5
102
VTR_0.000_0.000_1.000_1.000_DEFAULTLIGHTING
280
     1
102
VTR_0.000_0.000_1.000_1.000_DEFAULTLIGHTINGTYPE
 70
     1
102
VTR_0.000_0.000_1.000_1.000_BRIGHTNESS
141
0.0
102
VTR_0.000_0.000_1.000_1.000_CONTRAST
142
0.0
  0
DICTIONARY
  5
1232
102
{ACAD_REACTORS
330
1019
102
}
330
1019
100
AcDbDictionary
281
     1
  0
DICTIONARY
  5
101A
102
{ACAD_REACTORS
330
1019
102
}
330
1019
100
AcDbDictionary
281
     1
  0
DICTIONARY
  5
1231
102
{ACAD_REACTORS
330
1019
102
}
330
1019
100
AcDbDictionary
281
     1
1001
ACAD
1000
<All
  0
XRECORD
  5
1968
102
{ACAD_REACTORS
330
1055
102
}
330
1055
100
AcDbXrecord
280
     1
102
MATERIAL
340
FBE
  0
XRECORD
  5
1056
102
{ACAD_REACTORS
330
1055
102
}
330
1055
100
AcDbXrecord
280
     1
290
     1
  0
XRECORD
  5
197A
102
{ACAD_REACTORS
330
1057
102
}
330
1057
100
AcDbXrecord
280
     1
102
MATERIAL
340
FBE
  0
XRECORD
  5
1058
102
{ACAD_REACTORS
330
1057
102
}
330
1057
100
AcDbXrecord
280
     1
290
     1
  0
XRECORD
  5
197B
102
{ACAD_REACTORS
330
1059
102
}
330
1059
100
AcDbXrecord
280
     1
102
MATERIAL
340
FBE
  0
XRECORD
  5
105A
102
{ACAD_REACTORS
330
1059
102
}
330
1059
100
AcDbXrecord
280
     1
290
     1
  0
XRECORD
  5
197C
102
{ACAD_REACTORS
330
105F
102
}
330
105F
100
AcDbXrecord
280
     1
102
MATERIAL
340
FBE
  0
XRECORD
  5
1060
102
{ACAD_REACTORS
330
105F
102
}
330
105F
100
AcDbXrecord
280
     1
290
     1
  0
XRECORD
  5
1983
102
{ACAD_REACTORS
330
1065
102
}
330
1065
100
AcDbXrecord
280
     1
102
MATERIAL
340
FBE
  0
XRECORD
  5
1066
102
{ACAD_REACTORS
330
1065
102
}
330
1065
100
AcDbXrecord
280
     1
290
     1
  0
SORTENTSTABLE
  5
F4A
102
{ACAD_REACTORS
330
F49
102
}
330
F49
100
AcDbSortentsTable
330
1F
331
10D8
  5
13F2
331
F28
  5
10D9
331
1BD
  5
B55
331
B53
  5
B5C
331
B6A
  5
B74
331
B89
  5
B92
331
BB0
  5
BED
331
B84
  5
B90
331
BFA
  5
C78
331
BAE
  5
BB7
331
B59
  5
B67
331
B8F
  5
BB0
331
BB6
  5
BF2
331
BFD
  5
D61
331
C14
  5
F29
331
B5C
  5
B6D
331
65
  5
B52
331
D82
  5
102F
331
C17
  5
F78
331
B76
  5
B80
331
D85
  5
A9E
331
B5F
  5
B6F
331
102F
  5
13ED
331
D61
  5
65
331
C06
  5
D62
331
13ED
  5
C18
331
C09
  5
D86
331
A9E
  5
B58
331
B7C
  5
B8C
331
B9B
  5
BB5
331
D64
  5
1BD
331
B51
  5
B5A
331
AB1
  5
B59
331
B7F
  5
B8E
331
BED
  5
BF5
331
F26
  5
10D7
331
10D9
  5
13F3
331
BB1
  5
BEE
331
B54
  5
B5E
331
F29
  5
10DA
331
BFB
  5
C7A
331
BF3
  5
C15
331
B6E
  5
B78
331
B8D
  5
BAE
331
BB4
  5
BF0
331
10D7
  5
13F1
331
B90
  5
BB1
331
BAF
  5
BB8
331
BB7
  5
BF3
331
D88
  5
B51
331
C18
  5
F79
331
D83
  5
1030
331
1030
  5
13EE
331
D86
  5
1053
331
B60
  5
B70
331
13EB
  5
C17
331
C07
  5
D63
331
1B6
  5
B53
331
B63
  5
B71
331
B7A
  5
B89
331
D62
  5
1B6
331
F78
  5
13EB
331
C0A
  5
D87
331
10CC
  5
13F0
331
F27
  5
10D8
331
1BC
  5
B54
331
B80
  5
B8F
331
BEE
  5
BF6
331
10DA
  5
13F4
331
BB2
  5
BEF
331
BF9
  5
C39
331
B86
  5
B91
331
BAD
  5
BB6
331
BF4
  5
C16
331
B58
  5
B63
331
BB5
  5
BF1
331
BFC
  5
C7B
331
B5B
  5
B6C
331
BB8
  5
BF4
331
D89
  5
10CC
331
D84
  5
A9D
331
B5E
  5
B6E
331
B75
  5
B7F
331
D87
  5
AB1
331
D63
  5
1BC
331
C08
  5
D64
331
F79
  5
13EC
331
A9D
  5
B56
331
1053
  5
13EF
331
B7E
  5
B8D
331
C0B
  5
D88
331
13F2
  5
BFC
  0
SORTENTSTABLE
  5
1DDC
102
{ACAD_REACTORS
330
1DDB
102
}
330
1DDB
100
AcDbSortentsTable
330
F73
  0
SORTENTSTABLE
  5
19DA
102
{ACAD_REACTORS
330
19D9
102
}
330
19D9
100
AcDbSortentsTable
330
19D8
  0
XRECORD
  5
196F
102
{ACAD_REACTORS
330
196E
102
}
330
196E
100
AcDbXrecord
280
     1
102
VISUALSTYLE
340
FCC
102
GRIDDISPLAY
 70
     0
102
GRIDMAJOR
 70
     5
102
DEFAULTLIGHTING
280
     1
102
DEFAULTLIGHTINGTYPE
 70
     1
102
BRIGHTNESS
141
0.0
102
CONTRAST
142
0.0
102
SHADEPLOT
 70
     0
  0
XRECORD
  5
1971
102
{ACAD_REACTORS
330
1970
102
}
330
1970
100
AcDbXrecord
280
     1
102
VISUALSTYLE
340
FCC
102
GRIDDISPLAY
 70
     0
102
GRIDMAJOR
 70
     5
102
DEFAULTLIGHTING
280
     1
102
DEFAULTLIGHTINGTYPE
 70
     1
102
BRIGHTNESS
141
0.0
102
CONTRAST
142
0.0
102
SHADEPLOT
 70
     0
  0
GROUP
  5
C3
102
{ACAD_REACTORS
330
D
102
}
330
D
100
AcDbGroup
300

 70
     1
 71
     1
  0
GROUP
  5
C79
102
{ACAD_REACTORS
330
D
102
}
330
D
100
AcDbGroup
300

 70
     1
 71
     1
  0
GROUP
  5
C7C
102
{ACAD_REACTORS
330
D
102
}
330
D
100
AcDbGroup
300

 70
     1
 71
     1
  0
GROUP
  5
F2A
102
{ACAD_REACTORS
330
D
102
}
330
D
100
AcDbGroup
300

 70
     1
 71
     1
340
F29
340
1BC
340
F28
340
F27
340
1BD
340
F26
  0
LAYOUT
  5
22
102
{ACAD_XDICTIONARY
360
1E08
102
}
102
{ACAD_REACTORS
330
1A
102
}
330
1A
100
AcDbPlotSettings
  1

  2
\\apl01\HP LaserJet 4MV
  4

  6

 40
0.0
 41
0.0
 42
0.0
 43
0.0
 44
0.0
 45
0.0
 46
0.0
 47
0.0
 48
0.0
 49
0.0
140
0.0
141
0.0
142
1.0
143
1.0
 70
  1712
 72
     0
 73
     0
 74
     0
  7
A4 Specifier Manual.ctb
 75
     0
147
1.0
148
0.0
149
0.0
100
AcDbLayout
  1
Model
 70
     1
 71
     0
 10
0.0
 20
0.0
 11
12.0
 21
9.0
 12
0.0
 22
0.0
 32
0.0
 14
0.0
 24
0.0
 34
0.0
 15
0.0
 25
0.0
 35
0.0
146
0.0
 13
0.0
 23
0.0
 33
0.0
 16
1.0
 26
0.0
 36
0.0
 17
0.0
 27
1.0
 37
0.0
 76
     0
330
1F
331
FAB
  0
LAYOUT
  5
1E
102
{ACAD_XDICTIONARY
360
1025
102
}
102
{ACAD_REACTORS
330
1A
102
}
330
1A
100
AcDbPlotSettings
  1

  2
\\Aplfp01\APL Technical KyoceraFS9100 Laser
  4
A4
  6

 40
7.143749713897705
 41
6.170062541961669
 42
7.736404418945312
 43
7.14373779296875
 44
209.9733276367187
 45
296.9683227539062
 46
0.0
 47
0.0
 48
0.0
 49
0.0
140
0.0
141
0.0
142
1.0
143
1.0
 70
   672
 72
     1
 73
     0
 74
     5
  7
A4 Specifier Manual.ctb
 75
     0
147
1.0
148
0.0
149
0.0
100
AcDbLayout
  1
Vantage A4
 70
     1
 71
     1
 10
-7.143749713897706
 20
-6.170062541961671
 11
202.8295779228211
 21
290.7982602119446
 12
0.0
 22
0.0
 32
0.0
 14
11.44870716070187
 24
3.291453326351643
 34
-0.0015258207003583
 15
189.6037193801263
 25
282.1977073565778
 35
0.0000000349246037
146
0.0
 13
0.0
 23
0.0
 33
0.0
 16
1.0
 26
0.0
 36
0.0
 17
0.0
 27
1.0
 37
0.0
 76
     0
330
1B
331
32
  0
MATERIAL
  5
FB6
102
{ACAD_XDICTIONARY
360
FB7
102
}
102
{ACAD_REACTORS
330
FAD
102
}
330
FAD
100
AcDbMaterial
  1
ByBlock
 72
     0
 73
     2
 43
0.0008202099737533
 43
0.0
 43
0.0
 43
0.0
 43
0.0
 43
0.0008202099737533
 43
0.0
 43
0.0
 43
0.0
 43
0.0
 43
1.0
 43
0.0
 43
0.0
 43
0.0
 43
0.0
 43
1.0
 77
     0
 78
     2
 47
0.0008202099737533
 47
0.0
 47
0.0
 47
0.0
 47
0.0
 47
0.0008202099737533
 47
0.0
 47
0.0
 47
0.0
 47
0.0
 47
1.0
 47
0.0
 47
0.0
 47
0.0
 47
0.0
 47
1.0
171
     0
172
     2
 49
0.0008202099737533
 49
0.0
 49
0.0
 49
0.0
 49
0.0
 49
0.0008202099737533
 49
0.0
 49
0.0
 49
0.0
 49
0.0
 49
1.0
 49
0.0
 49
0.0
 49
0.0
 49
0.0
 49
1.0
175
     0
176
     2
142
0.0008202099737533
142
0.0
142
0.0
142
0.0
142
0.0
142
0.0008202099737533
142
0.0
142
0.0
142
0.0
142
0.0
142
1.0
142
0.0
142
0.0
142
0.0
142
0.0
142
1.0
179
     0
270
     2
144
0.0008202099737533
144
0.0
144
0.0
144
0.0
144
0.0
144
0.0008202099737533
144
0.0
144
0.0
144
0.0
144
0.0
144
1.0
144
0.0
144
0.0
144
0.0
144
0.0
144
1.0
274
     2
147
0.0008202099737533
147
0.0
147
0.0
147
0.0
147
0.0
147
0.0008202099737533
147
0.0
147
0.0
147
0.0
147
0.0
147
1.0
147
0.0
147
0.0
147
0.0
147
0.0
147
1.0
  0
MATERIAL
  5
FAE
102
{ACAD_XDICTIONARY
360
FAF
102
}
102
{ACAD_REACTORS
330
FAD
102
}
330
FAD
100
AcDbMaterial
  1
ByLayer
 72
     0
 73
     2
 43
0.0008202099737533
 43
0.0
 43
0.0
 43
0.0
 43
0.0
 43
0.0008202099737533
 43
0.0
 43
0.0
 43
0.0
 43
0.0
 43
1.0
 43
0.0
 43
0.0
 43
0.0
 43
0.0
 43
1.0
 77
     0
 78
     2
 47
0.0008202099737533
 47
0.0
 47
0.0
 47
0.0
 47
0.0
 47
0.0008202099737533
 47
0.0
 47
0.0
 47
0.0
 47
0.0
 47
1.0
 47
0.0
 47
0.0
 47
0.0
 47
0.0
 47
1.0
171
     0
172
     2
 49
0.0008202099737533
 49
0.0
 49
0.0
 49
0.0
 49
0.0
 49
0.0008202099737533
 49
0.0
 49
0.0
 49
0.0
 49
0.0
 49
1.0
 49
0.0
 49
0.0
 49
0.0
 49
0.0
 49
1.0
175
     0
176
     2
142
0.0008202099737533
142
0.0
142
0.0
142
0.0
142
0.0
142
0.0008202099737533
142
0.0
142
0.0
142
0.0
142
0.0
142
1.0
142
0.0
142
0.0
142
0.0
142
0.0
142
1.0
179
     0
270
     2
144
0.0008202099737533
144
0.0
144
0.0
144
0.0
144
0.0
144
0.0008202099737533
144
0.0
144
0.0
144
0.0
144
0.0
144
1.0
144
0.0
144
0.0
144
0.0
144
0.0
144
1.0
274
     2
147
0.0008202099737533
147
0.0
147
0.0
147
0.0
147
0.0
147
0.0008202099737533
147
0.0
147
0.0
147
0.0
147
0.0
147
1.0
147
0.0
147
0.0
147
0.0
147
0.0
147
1.0
  0
MATERIAL
  5
FBE
102
{ACAD_XDICTIONARY
360
FBF
102
}
102
{ACAD_REACTORS
330
FAD
102
}
330
FAD
100
AcDbMaterial
  1
Global
 72
     0
 73
     2
 43
0.0008202099737533
 43
0.0
 43
0.0
 43
0.0
 43
0.0
 43
0.0008202099737533
 43
0.0
 43
0.0
 43
0.0
 43
0.0
 43
1.0
 43
0.0
 43
0.0
 43
0.0
 43
0.0
 43
1.0
 77
     0
 78
     2
 47
0.0008202099737533
 47
0.0
 47
0.0
 47
0.0
 47
0.0
 47
0.0008202099737533
 47
0.0
 47
0.0
 47
0.0
 47
0.0
 47
1.0
 47
0.0
 47
0.0
 47
0.0
 47
0.0
 47
1.0
171
     0
172
     2
 49
0.0008202099737533
 49
0.0
 49
0.0
 49
0.0
 49
0.0
 49
0.0008202099737533
 49
0.0
 49
0.0
 49
0.0
 49
0.0
 49
1.0
 49
0.0
 49
0.0
 49
0.0
 49
0.0
 49
1.0
175
     0
176
     2
142
0.0008202099737533
142
0.0
142
0.0
142
0.0
142
0.0
142
0.0008202099737533
142
0.0
142
0.0
142
0.0
142
0.0
142
1.0
142
0.0
142
0.0
142
0.0
142
0.0
142
1.0
179
     0
270
     2
144
0.0008202099737533
144
0.0
144
0.0
144
0.0
144
0.0
144
0.0008202099737533
144
0.0
144
0.0
144
0.0
144
0.0
144
1.0
144
0.0
144
0.0
144
0.0
144
0.0
144
1.0
274
     2
147
0.0008202099737533
147
0.0
147
0.0
147
0.0
147
0.0
147
0.0008202099737533
147
0.0
147
0.0
147
0.0
147
0.0
147
1.0
147
0.0
147
0.0
147
0.0
147
0.0
147
1.0
  0
ACAD_PROXY_OBJECT
  5
FFD
102
{ACAD_REACTORS
330
FFC
102
}
330
FFC
100
AcDbProxyObject
 90
      499
 91
      509
 95
   983063
 70
     0
 93
      618
310
40901902A4063FBFFFFFE000000000000002040AD7A3703D0AD73F4254DD185B99185C99000000000000000104090141901A00000000000004100000000000000041025764000000000000300FC0
340
14
340
0
340
11
340
0
 94
        0
1001
ACAD_MLEADERVER
1070
     2
1001
ACAD
1000
AcRTDxfName
1000
MLEADERSTYLE
1000
AcRTDxfName
1000
MLEADERSTYLE
1000
AcRTDxfName
1000
MLEADERSTYLE
1000
AcRTDxfName
1000
MLEADERSTYLE
1000
AcRTDxfName
1000
MLEADERSTYLE
  0
MLINESTYLE
  5
18
102
{ACAD_REACTORS
330
17
102
}
330
17
100
AcDbMlineStyle
  2
STANDARD
 70
     0
  3

 62
   256
 51
90.0
 52
90.0
 71
     2
 49
0.5
 62
   256
  6
BYLAYER
 49
-0.5
 62
   256
  6
BYLAYER
  0
ACDBPLACEHOLDER
  5
F
102
{ACAD_REACTORS
330
E
102
}
330
E
  0
ACAD_PROXY_OBJECT
  5
FDB
102
{ACAD_REACTORS
330
FDA
102
}
330
FDA
100
AcDbProxyObject
 90
      499
 91
      508
 95
   983063
 70
     0
 93
       49
310
904313A3100580
 94
        0
1001
ACAD
1000
AcRTDxfName
1000
SCALE
1000
AcRTDxfName
1000
SCALE
1000
AcRTDxfName
1000
SCALE
1000
AcRTDxfName
1000
SCALE
1000
AcRTDxfName
1000
SCALE
  0
ACAD_PROXY_OBJECT
  5
FDC
102
{ACAD_REACTORS
330
FDA
102
}
330
FDA
100
AcDbProxyObject
 90
      499
 91
      508
 95
   983063
 70
     0
 93
      113
310
904313A32004000000000000004040
 94
        0
1001
ACAD
1000
AcRTDxfName
1000
SCALE
1000
AcRTDxfName
1000
SCALE
1000
AcRTDxfName
1000
SCALE
1000
AcRTDxfName
1000
SCALE
1000
AcRTDxfName
1000
SCALE
  0
ACAD_PROXY_OBJECT
  5
FDD
102
{ACAD_REACTORS
330
FDA
102
}
330
FDA
100
AcDbProxyObject
 90
      499
 91
      508
 95
   983063
 70
     0
 93
      113
310
904313A34004000000000000104040
 94
        0
1001
ACAD
1000
AcRTDxfName
1000
SCALE
1000
AcRTDxfName
1000
SCALE
1000
AcRTDxfName
1000
SCALE
1000
AcRTDxfName
1000
SCALE
1000
AcRTDxfName
1000
SCALE
  0
ACAD_PROXY_OBJECT
  5
FDE
102
{ACAD_REACTORS
330
FDA
102
}
330
FDA
100
AcDbProxyObject
 90
      499
 91
      508
 95
   983063
 70
     0
 93
      113
310
904313A35004000000000000144040
 94
        0
1001
ACAD
1000
AcRTDxfName
1000
SCALE
1000
AcRTDxfName
1000
SCALE
1000
AcRTDxfName
1000
SCALE
1000
AcRTDxfName
1000
SCALE
1000
AcRTDxfName
1000
SCALE
  0
ACAD_PROXY_OBJECT
  5
FDF
102
{ACAD_REACTORS
330
FDA
102
}
330
FDA
100
AcDbProxyObject
 90
      499
 91
      508
 95
   983063
 70
     0
 93
      113
310
904313A38004000000000000204040
 94
        0
1001
ACAD
1000
AcRTDxfName
1000
SCALE
1000
AcRTDxfName
1000
SCALE
1000
AcRTDxfName
1000
SCALE
1000
AcRTDxfName
1000
SCALE
1000
AcRTDxfName
1000
SCALE
  0
ACAD_PROXY_OBJECT
  5
FE0
102
{ACAD_REACTORS
330
FDA
102
}
330
FDA
100
AcDbProxyObject
 90
      499
 91
      508
 95
   983063
 70
     0
 93
      121
310
905313A3130004000000000000244001
 94
        0
1001
ACAD
1000
AcRTDxfName
1000
SCALE
1000
AcRTDxfName
1000
SCALE
1000
AcRTDxfName
1000
SCALE
1000
AcRTDxfName
1000
SCALE
1000
AcRTDxfName
1000
SCALE
  0
ACAD_PROXY_OBJECT
  5
FE1
102
{ACAD_REACTORS
330
FDA
102
}
330
FDA
100
AcDbProxyObject
 90
      499
 91
      508
 95
   983063
 70
     0
 93
      121
310
905313A3136004000000000000304000
 94
        0
1001
ACAD
1000
AcRTDxfName
1000
SCALE
1000
AcRTDxfName
1000
SCALE
1000
AcRTDxfName
1000
SCALE
1000
AcRTDxfName
1000
SCALE
1000
AcRTDxfName
1000
SCALE
  0
ACAD_PROXY_OBJECT
  5
FE2
102
{ACAD_REACTORS
330
FDA
102
}
330
FDA
100
AcDbProxyObject
 90
      499
 91
      508
 95
   983063
 70
     0
 93
      121
310
905313A3230004000000000000344001
 94
        0
1001
ACAD
1000
AcRTDxfName
1000
SCALE
1000
AcRTDxfName
1000
SCALE
1000
AcRTDxfName
1000
SCALE
1000
AcRTDxfName
1000
SCALE
1000
AcRTDxfName
1000
SCALE
  0
ACAD_PROXY_OBJECT
  5
FE3
102
{ACAD_REACTORS
330
FDA
102
}
330
FDA
100
AcDbProxyObject
 90
      499
 91
      508
 95
   983063
 70
     0
 93
      121
310
905313A33300040000000000003E4001
 94
        0
1001
ACAD
1000
AcRTDxfName
1000
SCALE
1000
AcRTDxfName
1000
SCALE
1000
AcRTDxfName
1000
SCALE
1000
AcRTDxfName
1000
SCALE
1000
AcRTDxfName
1000
SCALE
  0
ACAD_PROXY_OBJECT
  5
FE4
102
{ACAD_REACTORS
330
FDA
102
}
330
FDA
100
AcDbProxyObject
 90
      499
 91
      508
 95
   983063
 70
     0
 93
      121
310
905313A3430004000000000000444040
 94
        0
1001
ACAD
1000
AcRTDxfName
1000
SCALE
1000
AcRTDxfName
1000
SCALE
1000
AcRTDxfName
1000
SCALE
1000
AcRTDxfName
1000
SCALE
1000
AcRTDxfName
1000
SCALE
  0
ACAD_PROXY_OBJECT
  5
FE5
102
{ACAD_REACTORS
330
FDA
102
}
330
FDA
100
AcDbProxyObject
 90
      499
 91
      508
 95
   983063
 70
     0
 93
      121
310
905313A3530004000000000000494001
 94
        0
1001
ACAD
1000
AcRTDxfName
1000
SCALE
1000
AcRTDxfName
1000
SCALE
1000
AcRTDxfName
1000
SCALE
1000
AcRTDxfName
1000
SCALE
1000
AcRTDxfName
1000
SCALE
  0
ACAD_PROXY_OBJECT
  5
FE6
102
{ACAD_REACTORS
330
FDA
102
}
330
FDA
100
AcDbProxyObject
 90
      499
 91
      508
 95
   983063
 70
     0
 93
      129
310
906313A313030004000000000000594000
 94
        0
1001
ACAD
1000
AcRTDxfName
1000
SCALE
1000
AcRTDxfName
1000
SCALE
1000
AcRTDxfName
1000
SCALE
1000
AcRTDxfName
1000
SCALE
1000
AcRTDxfName
1000
SCALE
  0
ACAD_PROXY_OBJECT
  5
FE7
102
{ACAD_REACTORS
330
FDA
102
}
330
FDA
100
AcDbProxyObject
 90
      499
 91
      508
 95
   983063
 70
     0
 93
      113
310
904323A31000000000000000010165
 94
        0
1001
ACAD
1000
AcRTDxfName
1000
SCALE
1000
AcRTDxfName
1000
SCALE
1000
AcRTDxfName
1000
SCALE
1000
AcRTDxfName
1000
SCALE
1000
AcRTDxfName
1000
SCALE
  0
ACAD_PROXY_OBJECT
  5
FE8
102
{ACAD_REACTORS
330
FDA
102
}
330
FDA
100
AcDbProxyObject
 90
      499
 91
      508
 95
   983063
 70
     0
 93
      113
310
904343A31000000000000000410101
 94
        0
1001
ACAD
1000
AcRTDxfName
1000
SCALE
1000
AcRTDxfName
1000
SCALE
1000
AcRTDxfName
1000
SCALE
1000
AcRTDxfName
1000
SCALE
1000
AcRTDxfName
1000
SCALE
  0
ACAD_PROXY_OBJECT
  5
FE9
102
{ACAD_REACTORS
330
FDA
102
}
330
FDA
100
AcDbProxyObject
 90
      499
 91
      508
 95
   983063
 70
     0
 93
      113
310
904383A31000000000000000810165
 94
        0
1001
ACAD
1000
AcRTDxfName
1000
SCALE
1000
AcRTDxfName
1000
SCALE
1000
AcRTDxfName
1000
SCALE
1000
AcRTDxfName
1000
SCALE
1000
AcRTDxfName
1000
SCALE
  0
ACAD_PROXY_OBJECT
  5
FEA
102
{ACAD_REACTORS
330
FDA
102
}
330
FDA
100
AcDbProxyObject
 90
      499
 91
      508
 95
   983063
 70
     0
 93
      121
310
90531303A31000000000000000910120
 94
        0
1001
ACAD
1000
AcRTDxfName
1000
SCALE
1000
AcRTDxfName
1000
SCALE
1000
AcRTDxfName
1000
SCALE
1000
AcRTDxfName
1000
SCALE
1000
AcRTDxfName
1000
SCALE
  0
ACAD_PROXY_OBJECT
  5
FEB
102
{ACAD_REACTORS
330
FDA
102
}
330
FDA
100
AcDbProxyObject
 90
      499
 91
      508
 95
   983063
 70
     0
 93
      129
310
9063130303A31000000000000001650100
 94
        0
1001
ACAD
1000
AcRTDxfName
1000
SCALE
1000
AcRTDxfName
1000
SCALE
1000
AcRTDxfName
1000
SCALE
1000
AcRTDxfName
1000
SCALE
1000
AcRTDxfName
1000
SCALE
  0
ACAD_PROXY_OBJECT
  5
FEC
102
{ACAD_REACTORS
330
FDA
102
}
330
FDA
100
AcDbProxyObject
 90
      499
 91
      508
 95
   983063
 70
     0
 93
      265
310
90F312F31323822203D2031272D302200000000000000200FC000000000000284018
 94
        0
1001
ACAD
1000
AcRTDxfName
1000
SCALE
1000
AcRTDxfName
1000
SCALE
1000
AcRTDxfName
1000
SCALE
1000
AcRTDxfName
1000
SCALE
1000
AcRTDxfName
1000
SCALE
  0
ACAD_PROXY_OBJECT
  5
FED
102
{ACAD_REACTORS
330
FDA
102
}
330
FDA
100
AcDbProxyObject
 90
      499
 91
      508
 95
   983063
 70
     0
 93
      257
310
90E312F363422203D2031272D302200000000000000240FC000000000000284066
 94
        0
1001
ACAD
1000
AcRTDxfName
1000
SCALE
1000
AcRTDxfName
1000
SCALE
1000
AcRTDxfName
1000
SCALE
1000
AcRTDxfName
1000
SCALE
1000
AcRTDxfName
1000
SCALE
  0
ACAD_PROXY_OBJECT
  5
FEE
102
{ACAD_REACTORS
330
FDA
102
}
330
FDA
100
AcDbProxyObject
 90
      499
 91
      508
 95
   983063
 70
     0
 93
      257
310
90E312F333222203D2031272D302200000000000000280FC000000000000284019
 94
        0
1001
ACAD
1000
AcRTDxfName
1000
SCALE
1000
AcRTDxfName
1000
SCALE
1000
AcRTDxfName
1000
SCALE
1000
AcRTDxfName
1000
SCALE
1000
AcRTDxfName
1000
SCALE
  0
ACAD_PROXY_OBJECT
  5
FEF
102
{ACAD_REACTORS
330
FDA
102
}
330
FDA
100
AcDbProxyObject
 90
      499
 91
      508
 95
   983063
 70
     0
 93
      257
310
90E312F313622203D2031272D3022000000000000002C0FC000000000000284066
 94
        0
1001
ACAD
1000
AcRTDxfName
1000
SCALE
1000
AcRTDxfName
1000
SCALE
1000
AcRTDxfName
1000
SCALE
1000
AcRTDxfName
1000
SCALE
1000
AcRTDxfName
1000
SCALE
  0
ACAD_PROXY_OBJECT
  5
FF0
102
{ACAD_REACTORS
330
FDA
102
}
330
FDA
100
AcDbProxyObject
 90
      499
 91
      508
 95
   983063
 70
     0
 93
      257
310
90E332F333222203D2031272D3022000000000000002E0FC000000000000284019
 94
        0
1001
ACAD
1000
AcRTDxfName
1000
SCALE
1000
AcRTDxfName
1000
SCALE
1000
AcRTDxfName
1000
SCALE
1000
AcRTDxfName
1000
SCALE
1000
AcRTDxfName
1000
SCALE
  0
ACAD_PROXY_OBJECT
  5
FF1
102
{ACAD_REACTORS
330
FDA
102
}
330
FDA
100
AcDbProxyObject
 90
      499
 91
      508
 95
   983063
 70
     0
 93
      249
310
90D312F3822203D2031272D302200000000000000300FC000000000000284078
 94
        0
1001
ACAD
1000
AcRTDxfName
1000
SCALE
1000
AcRTDxfName
1000
SCALE
1000
AcRTDxfName
1000
SCALE
1000
AcRTDxfName
1000
SCALE
1000
AcRTDxfName
1000
SCALE
  0
ACAD_PROXY_OBJECT
  5
FF2
102
{ACAD_REACTORS
330
FDA
102
}
330
FDA
100
AcDbProxyObject
 90
      499
 91
      508
 95
   983063
 70
     0
 93
      257
310
90E332F313622203D2031272D302200000000000000320FC000000000000284040
 94
        0
1001
ACAD
1000
AcRTDxfName
1000
SCALE
1000
AcRTDxfName
1000
SCALE
1000
AcRTDxfName
1000
SCALE
1000
AcRTDxfName
1000
SCALE
1000
AcRTDxfName
1000
SCALE
  0
ACAD_PROXY_OBJECT
  5
FF3
102
{ACAD_REACTORS
330
FDA
102
}
330
FDA
100
AcDbProxyObject
 90
      499
 91
      508
 95
   983063
 70
     0
 93
      249
310
90D312F3422203D2031272D302200000000000000340FC000000000000284040
 94
        0
1001
ACAD
1000
AcRTDxfName
1000
SCALE
1000
AcRTDxfName
1000
SCALE
1000
AcRTDxfName
1000
SCALE
1000
AcRTDxfName
1000
SCALE
1000
AcRTDxfName
1000
SCALE
  0
ACAD_PROXY_OBJECT
  5
FF4
102
{ACAD_REACTORS
330
FDA
102
}
330
FDA
100
AcDbProxyObject
 90
      499
 91
      508
 95
   983063
 70
     0
 93
      249
310
90D332F3822203D2031272D302200000000000000360FC000000000000284028
 94
        0
1001
ACAD
1000
AcRTDxfName
1000
SCALE
1000
AcRTDxfName
1000
SCALE
1000
AcRTDxfName
1000
SCALE
1000
AcRTDxfName
1000
SCALE
1000
AcRTDxfName
1000
SCALE
  0
ACAD_PROXY_OBJECT
  5
FF5
102
{ACAD_REACTORS
330
FDA
102
}
330
FDA
100
AcDbProxyObject
 90
      499
 91
      508
 95
   983063
 70
     0
 93
      249
310
90D312F3222203D2031272D302200000000000000380FC000000000000284040
 94
        0
1001
ACAD
1000
AcRTDxfName
1000
SCALE
1000
AcRTDxfName
1000
SCALE
1000
AcRTDxfName
1000
SCALE
1000
AcRTDxfName
1000
SCALE
1000
AcRTDxfName
1000
SCALE
  0
ACAD_PROXY_OBJECT
  5
FF6
102
{ACAD_REACTORS
330
FDA
102
}
330
FDA
100
AcDbProxyObject
 90
      499
 91
      508
 95
   983063
 70
     0
 93
      249
310
90D332F3422203D2031272D3022000000000000003A0FC000000000000284028
 94
        0
1001
ACAD
1000
AcRTDxfName
1000
SCALE
1000
AcRTDxfName
1000
SCALE
1000
AcRTDxfName
1000
SCALE
1000
AcRTDxfName
1000
SCALE
1000
AcRTDxfName
1000
SCALE
  0
ACAD_PROXY_OBJECT
  5
FF7
102
{ACAD_REACTORS
330
FDA
102
}
330
FDA
100
AcDbProxyObject
 90
      499
 91
      508
 95
   983063
 70
     0
 93
      169
310
90B3122203D2031272D3022004000000000000284000
 94
        0
1001
ACAD
1000
AcRTDxfName
1000
SCALE
1000
AcRTDxfName
1000
SCALE
1000
AcRTDxfName
1000
SCALE
1000
AcRTDxfName
1000
SCALE
1000
AcRTDxfName
1000
SCALE
  0
ACAD_PROXY_OBJECT
  5
FF8
102
{ACAD_REACTORS
330
FDA
102
}
330
FDA
100
AcDbProxyObject
 90
      499
 91
      508
 95
   983063
 70
     0
 93
      265
310
90F312D312F3222203D2031272D3022000000000000003E0FC000000000000284000
 94
        0
1001
ACAD
1000
AcRTDxfName
1000
SCALE
1000
AcRTDxfName
1000
SCALE
1000
AcRTDxfName
1000
SCALE
1000
AcRTDxfName
1000
SCALE
1000
AcRTDxfName
1000
SCALE
  0
ACAD_PROXY_OBJECT
  5
FF9
102
{ACAD_REACTORS
330
FDA
102
}
330
FDA
100
AcDbProxyObject
 90
      499
 91
      508
 95
   983063
 70
     0
 93
      233
310
90B3322203D2031272D30220000000000000002100000000000000284000
 94
        0
1001
ACAD
1000
AcRTDxfName
1000
SCALE
1000
AcRTDxfName
1000
SCALE
1000
AcRTDxfName
1000
SCALE
1000
AcRTDxfName
1000
SCALE
1000
AcRTDxfName
1000
SCALE
  0
ACAD_PROXY_OBJECT
  5
FFA
102
{ACAD_REACTORS
330
FDA
102
}
330
FDA
100
AcDbProxyObject
 90
      499
 91
      508
 95
   983063
 70
     0
 93
      233
310
90B3622203D2031272D3022000000000000000610000000000000028405B
 94
        0
1001
ACAD
1000
AcRTDxfName
1000
SCALE
1000
AcRTDxfName
1000
SCALE
1000
AcRTDxfName
1000
SCALE
1000
AcRTDxfName
1000
SCALE
1000
AcRTDxfName
1000
SCALE
  0
ACAD_PROXY_OBJECT
  5
FFB
102
{ACAD_REACTORS
330
FDA
102
}
330
FDA
100
AcDbProxyObject
 90
      499
 91
      508
 95
   983063
 70
     0
 93
      257
310
90E31272D3022203D2031272D3022000000000000000A100000000000000284019
 94
        0
1001
ACAD
1000
AcRTDxfName
1000
SCALE
1000
AcRTDxfName
1000
SCALE
1000
AcRTDxfName
1000
SCALE
1000
AcRTDxfName
1000
SCALE
1000
AcRTDxfName
1000
SCALE
  0
TABLESTYLE
  5
FD9
102
{ACAD_XDICTIONARY
360
1196
102
}
102
{ACAD_REACTORS
330
FD8
102
}
330
FD8
100
AcDbTableStyle
  3
Standard
 70
     0
 71
     0
 40
1.5
 41
1.5
280
     0
281
     0
  7
Standard
140
4.5
170
     2
 62
     0
 63
     7
283
     0
274
    -2
284
     1
 64
     0
275
    -2
285
     1
 65
     0
276
    -2
286
     1
 66
     0
277
    -2
287
     1
 67
     0
278
    -2
288
     1
 68
     0
279
    -2
289
     1
 69
     0
  7
Standard
140
6.0
170
     5
 62
     0
 63
     7
283
     0
274
    -2
284
     1
 64
     0
275
    -2
285
     1
 65
     0
276
    -2
286
     1
 66
     0
277
    -2
287
     1
 67
     0
278
    -2
288
     1
 68
     0
279
    -2
289
     1
 69
     0
  7
Standard
140
4.5
170
     5
 62
     0
 63
     7
283
     0
274
    -2
284
     1
 64
     0
275
    -2
285
     1
 65
     0
276
    -2
286
     1
 66
     0
277
    -2
287
     1
 67
     0
278
    -2
288
     1
 68
     0
279
    -2
289
     1
 69
     0
  0
ACAD_PROXY_OBJECT
  5
FCC
102
{ACAD_REACTORS
330
FC6
102
}
330
FC6
100
AcDbProxyObject
 90
      499
 91
      506
 95
   983063
 70
     0
 93
      444
310
430C9915DA5C99599C985B59401049028333333333333E3BF0000000000000FB0107901411070040501600405405064090741402480A0340
 94
        0
1001
ACAD
1000
AcRTDxfName
1000
VISUALSTYLE
1000
AcRTDxfName
1000
VISUALSTYLE
1000
AcDbSavedByObjectVersion
1070
     0
1000
AcRTDxfName
1000
VISUALSTYLE
1000
AcRTDxfName
1000
VISUALSTYLE
1000
AcRTDxfName
1000
VISUALSTYLE
  0
ACAD_PROXY_OBJECT
  5
FCE
102
{ACAD_REACTORS
330
FC6
102
}
330
FC6
100
AcDbProxyObject
 90
      499
 91
      506
 95
   983063
 70
     0
 93
      508
310
428CD108121A5919195B8010640502408333333333333E3BF0000000000000FB01079024090700405020000000000001110200405405064090740C02480A0340
 94
        0
1001
ACAD
1000
AcRTDxfName
1000
VISUALSTYLE
1000
AcRTDxfName
1000
VISUALSTYLE
1000
AcDbSavedByObjectVersion
1070
     0
1000
AcRTDxfName
1000
VISUALSTYLE
1000
AcRTDxfName
1000
VISUALSTYLE
1000
AcRTDxfName
1000
VISUALSTYLE
  0
ACAD_PROXY_OBJECT
  5
FCD
102
{ACAD_REACTORS
330
FC6
102
}
330
FC6
100
AcDbProxyObject
 90
      499
 91
      506
 95
   983063
 70
     0
 93
      444
310
430CD915DA5C99599C985B59401059028333333333333E3BF0000000000000FB0107901411070040501600405405064090741402480A0340
 94
        0
1001
ACAD
1000
AcRTDxfName
1000
VISUALSTYLE
1000
AcRTDxfName
1000
VISUALSTYLE
1000
AcDbSavedByObjectVersion
1070
     0
1000
AcRTDxfName
1000
VISUALSTYLE
1000
AcRTDxfName
1000
VISUALSTYLE
1000
AcRTDxfName
1000
VISUALSTYLE
  0
ACAD_PROXY_OBJECT
  5
FCB
102
{ACAD_REACTORS
330
FC6
102
}
330
FC6
100
AcDbProxyObject
 90
      499
 91
      506
 95
   983063
 70
     0
 93
      396
310
4190985CDA58C0107406404333333333333E3BF0000000000000FB0107A41107004050150841D405064090741402480A0354
 94
        0
1001
ACAD
1000
AcRTDxfName
1000
VISUALSTYLE
1000
AcRTDxfName
1000
VISUALSTYLE
1000
AcDbSavedByObjectVersion
1070
     0
1000
AcRTDxfName
1000
VISUALSTYLE
1000
AcRTDxfName
1000
VISUALSTYLE
1000
AcRTDxfName
1000
VISUALSTYLE
  0
ACAD_PROXY_OBJECT
  5
FD2
102
{ACAD_REACTORS
330
FC6
102
}
330
FC6
100
AcDbProxyObject
 90
      499
 91
      506
 95
   983063
 70
     0
 93
      436
310
42509C9A59DA1D195B8010C409028333333333333E3BF0000000000000FB010790141107004050150841D405064090741402480A02995A
 94
        0
1001
ACAD
1000
AcRTDxfName
1000
VISUALSTYLE
1000
AcRTDxfName
1000
VISUALSTYLE
1000
AcDbSavedByObjectVersion
1070
     0
1000
AcRTDxfName
1000
VISUALSTYLE
1000
AcRTDxfName
1000
VISUALSTYLE
1000
AcRTDxfName
1000
VISUALSTYLE
  0
ACAD_PROXY_OBJECT
  5
FD6
102
{ACAD_REACTORS
330
FC6
102
}
330
FC6
100
AcDbProxyObject
 90
      499
 91
      506
 95
   983063
 70
     0
 93
      460
310
4310DBDB1BDC90DA185B99D9401104090240C333333333333E3BF0000000000000FB0108901411070040501508421405064090741402480A035E
 94
        0
1001
ACAD
1000
AcRTDxfName
1000
VISUALSTYLE
1000
AcRTDxfName
1000
VISUALSTYLE
1000
AcDbSavedByObjectVersion
1070
     0
1000
AcRTDxfName
1000
VISUALSTYLE
1000
AcRTDxfName
1000
VISUALSTYLE
1000
AcRTDxfName
1000
VISUALSTYLE
  0
ACAD_PROXY_OBJECT
  5
FCF
102
{ACAD_REACTORS
330
FC6
102
}
330
FC6
100
AcDbProxyObject
 90
      499
 91
      506
 95
   983063
 70
     0
 93
      508
310
42D0DBDB98D95C1D1D585B0010940D028333333333333E3BF0000000000000FB0107902409070040501000000000000111010841D405064090740C02480A0342
 94
        0
1001
ACAD
1000
AcRTDxfName
1000
VISUALSTYLE
1000
AcRTDxfName
1000
VISUALSTYLE
1000
AcDbSavedByObjectVersion
1070
     0
1000
AcRTDxfName
1000
VISUALSTYLE
1000
AcRTDxfName
1000
VISUALSTYLE
1000
AcRTDxfName
1000
VISUALSTYLE
  0
ACAD_PROXY_OBJECT
  5
FD1
102
{ACAD_REACTORS
330
FC6
102
}
330
FC6
100
AcDbProxyObject
 90
      499
 91
      506
 95
   983063
 70
     0
 93
      420
310
41111A5B4010B409028333333333333E3BF0000000000000FB010790141107004050150841D405064090741402480A02677FFFFFD2
 94
        0
1001
ACAD
1000
AcRTDxfName
1000
VISUALSTYLE
1000
AcRTDxfName
1000
VISUALSTYLE
1000
AcDbSavedByObjectVersion
1070
     0
1000
AcRTDxfName
1000
VISUALSTYLE
1000
AcRTDxfName
1000
VISUALSTYLE
1000
AcRTDxfName
1000
VISUALSTYLE
  0
ACAD_PROXY_OBJECT
  5
FD5
102
{ACAD_REACTORS
330
FC6
102
}
330
FC6
100
AcDbProxyObject
 90
      499
 91
      506
 95
   983063
 70
     0
 93
      452
310
43119858D95C185D1D195C9B8010F409028333333333333E3BF0000000000000FB010790141107004050150841D405064090741402480A0358
 94
        0
1001
ACAD
1000
AcRTDxfName
1000
VISUALSTYLE
1000
AcRTDxfName
1000
VISUALSTYLE
1000
AcDbSavedByObjectVersion
1070
     0
1000
AcRTDxfName
1000
VISUALSTYLE
1000
AcRTDxfName
1000
VISUALSTYLE
1000
AcRTDxfName
1000
VISUALSTYLE
  0
ACAD_PROXY_OBJECT
  5
FC7
102
{ACAD_REACTORS
330
FC6
102
}
330
FC6
100
AcDbProxyObject
 90
      499
 91
      506
 95
   983063
 70
     0
 93
      396
310
41519B185D00240901404333333333333E3BF0000000000000F9010740A41107004050150841D405064090741402480A1B58
 94
        0
1001
ACAD
1000
AcRTDxfName
1000
VISUALSTYLE
1000
AcRTDxfName
1000
VISUALSTYLE
1000
AcDbSavedByObjectVersion
1070
     0
1000
AcRTDxfName
1000
VISUALSTYLE
1000
AcRTDxfName
1000
VISUALSTYLE
1000
AcRTDxfName
1000
VISUALSTYLE
  0
ACAD_PROXY_OBJECT
  5
FC8
102
{ACAD_REACTORS
330
FC6
102
}
330
FC6
100
AcDbProxyObject
 90
      499
 91
      506
 95
   983063
 70
     0
 93
      484
310
43919B185D15DA5D1A115919D95CC010140901404333333333333E3BF0000000000000F9010740901411070040501600405405064090741402480A1B58
 94
        0
1001
ACAD
1000
AcRTDxfName
1000
VISUALSTYLE
1000
AcRTDxfName
1000
VISUALSTYLE
1000
AcDbSavedByObjectVersion
1070
     0
1000
AcRTDxfName
1000
VISUALSTYLE
1000
AcRTDxfName
1000
VISUALSTYLE
1000
AcRTDxfName
1000
VISUALSTYLE
  0
ACAD_PROXY_OBJECT
  5
FC9
102
{ACAD_REACTORS
330
FC6
102
}
330
FC6
100
AcDbProxyObject
 90
      499
 91
      506
 95
   983063
 70
     0
 93
      420
310
4211DBDD5C985D590010240902404333333333333E3BF0000000000000F9010740A411070040501641D405064090741402480A1B58
 94
        0
1001
ACAD
1000
AcRTDxfName
1000
VISUALSTYLE
1000
AcRTDxfName
1000
VISUALSTYLE
1000
AcDbSavedByObjectVersion
1070
     0
1000
AcRTDxfName
1000
VISUALSTYLE
1000
AcRTDxfName
1000
VISUALSTYLE
1000
AcRTDxfName
1000
VISUALSTYLE
  0
ACAD_PROXY_OBJECT
  5
FCA
102
{ACAD_REACTORS
330
FC6
102
}
330
FC6
100
AcDbProxyObject
 90
      499
 91
      506
 95
   983063
 70
     0
 93
      508
310
4451DBDD5C985D5915DA5D1A115919D95CC010340902404333333333333E3BF0000000000000F9010740901411070040501600405405064090741402480A1B50
 94
        0
1001
ACAD
1000
AcRTDxfName
1000
VISUALSTYLE
1000
AcRTDxfName
1000
VISUALSTYLE
1000
AcDbSavedByObjectVersion
1070
     0
1000
AcRTDxfName
1000
VISUALSTYLE
1000
AcRTDxfName
1000
VISUALSTYLE
1000
AcRTDxfName
1000
VISUALSTYLE
  0
ACAD_PROXY_OBJECT
  5
FD4
102
{ACAD_REACTORS
330
FC6
102
}
330
FC6
100
AcDbProxyObject
 90
      499
 91
      506
 95
   983063
 70
     0
 93
      452
310
43131A5B995C185D1D195C9B8010E409028333333333333E3BF0000000000000FB010790141107004050750841D405064090741402483A0353
 94
        0
1001
ACAD
1000
AcRTDxfName
1000
VISUALSTYLE
1000
AcRTDxfName
1000
VISUALSTYLE
1000
AcDbSavedByObjectVersion
1070
     0
1000
AcRTDxfName
1000
VISUALSTYLE
1000
AcRTDxfName
1000
VISUALSTYLE
1000
AcRTDxfName
1000
VISUALSTYLE
  0
ACAD_PROXY_OBJECT
  5
FD0
102
{ACAD_REACTORS
330
FC6
102
}
330
FC6
100
AcDbProxyObject
 90
      499
 91
      506
 95
   983063
 70
     0
 93
      428
310
429499585B1A5CDD1A58C0108409028333333333333E3BF0000000000000FB01079019070040501508421405064090741402480A1B49
 94
        0
1001
ACAD
1000
AcRTDxfName
1000
VISUALSTYLE
1000
AcRTDxfName
1000
VISUALSTYLE
1000
AcDbSavedByObjectVersion
1070
     0
1000
AcRTDxfName
1000
VISUALSTYLE
1000
AcRTDxfName
1000
VISUALSTYLE
1000
AcRTDxfName
1000
VISUALSTYLE
  0
ACAD_PROXY_OBJECT
  5
FD3
102
{ACAD_REACTORS
330
FC6
102
}
330
FC6
100
AcDbProxyObject
 90
      499
 91
      506
 95
   983063
 70
     0
 93
      420
310
42151A1A58DAD95B8010D409028333333333333E3BF0000000000000FB010790141107004050150C41D405064090741402480A0352
 94
        0
1001
ACAD
1000
AcRTDxfName
1000
VISUALSTYLE
1000
AcRTDxfName
1000
VISUALSTYLE
1000
AcDbSavedByObjectVersion
1070
     0
1000
AcRTDxfName
1000
VISUALSTYLE
1000
AcRTDxfName
1000
VISUALSTYLE
1000
AcRTDxfName
1000
VISUALSTYLE
  0
DICTIONARYVAR
  5
11D3
102
{ACAD_REACTORS
330
6D
102
}
330
6D
100
DictionaryVariables
280
     0
  1
1:1
  0
DICTIONARYVAR
  5
11D2
102
{ACAD_REACTORS
330
6D
102
}
330
6D
100
DictionaryVariables
280
     0
  1
STANDARD
  0
DICTIONARYVAR
  5
11D1
102
{ACAD_REACTORS
330
6D
102
}
330
6D
100
DictionaryVariables
280
     0
  1
STANDARD
  0
DICTIONARYVAR
  5
6F
102
{ACAD_REACTORS
330
6D
102
}
330
6D
100
DictionaryVariables
280
     0
  1
2
  0
DICTIONARYVAR
  5
6E
102
{ACAD_REACTORS
330
6D
102
}
330
6D
100
DictionaryVariables
280
     0
  1
1
  0
DICTIONARYVAR
  5
11D4
102
{ACAD_REACTORS
330
6D
102
}
330
6D
100
DictionaryVariables
280
     0
  1
0
  0
DICTIONARYVAR
  5
146F
102
{ACAD_REACTORS
330
6D
102
}
330
6D
100
DictionaryVariables
280
     0
  1

  0
DICTIONARYVAR
  5
F4C
102
{ACAD_REACTORS
330
6D
102
}
330
6D
100
DictionaryVariables
280
     0
  1
127
  0
DICTIONARY
  5
1E08
330
22
100
AcDbDictionary
280
     1
281
     1
  3
ACAD_XREC_ROUNDTRIP
360
1E09
  0
DICTIONARY
  5
1025
330
1E
100
AcDbDictionary
280
     1
281
     1
  3
ACAD_XREC_ROUNDTRIP
360
1E07
  3
ADSK_XREC_LAYOUTTHUMBNAIL
360
1026
  0
DICTIONARY
  5
FB7
330
FB6
100
AcDbDictionary
280
     1
281
     1
  3
ACAD_XREC_ROUNDTRIP
360
197E
  3
BUMPTILE
360
FB9
  3
DIFFUSETILE
360
FB8
  3
OPACITYTILE
360
FBC
  3
REFLECTIONTILE
360
FBB
  3
REFRACTIONTILE
360
FBD
  3
SPECULARTILE
360
FBA
  0
DICTIONARY
  5
FAF
330
FAE
100
AcDbDictionary
280
     1
281
     1
  3
ACAD_XREC_ROUNDTRIP
360
197D
  3
BUMPTILE
360
FB1
  3
DIFFUSETILE
360
FB0
  3
OPACITYTILE
360
FB4
  3
REFLECTIONTILE
360
FB3
  3
REFRACTIONTILE
360
FB5
  3
SPECULARTILE
360
FB2
  0
DICTIONARY
  5
FBF
330
FBE
100
AcDbDictionary
280
     1
281
     1
  3
ACAD_XREC_ROUNDTRIP
360
197F
  3
BUMPTILE
360
FC1
  3
DIFFUSETILE
360
FC0
  3
OPACITYTILE
360
FC4
  3
REFLECTIONTILE
360
FC3
  3
REFRACTIONTILE
360
FC5
  3
SPECULARTILE
360
FC2
  0
DICTIONARY
  5
1196
330
FD9
100
AcDbDictionary
280
     1
281
     1
  3
ACAD_ROUNDTRIP_2008_TABLESTYLE_CELLSTYLEMAP
360
1965
  3
ACAD_XREC_ROUNDTRIP
360
1980
  0
XRECORD
  5
1E09
102
{ACAD_REACTORS
330
1E08
102
}
330
1E08
100
AcDbXrecord
280
     1
102
SHADEPLOT
 70
     0
102
SHADEPLOTRESLEVEL
 70
     2
102
SHADEPLOTCUSTOMDPI
 70
   300
  0
XRECORD
  5
1E07
102
{ACAD_REACTORS
330
1025
102
}
330
1025
100
AcDbXrecord
280
     1
102
SHADEPLOT
 70
     0
102
SHADEPLOTRESLEVEL
 70
     2
102
SHADEPLOTCUSTOMDPI
 70
   300
  0
XRECORD
  5
1026
102
{ACAD_REACTORS
330
1025
102
}
330
1025
100
AcDbXrecord
280
     1
310
28000000630000008C0000000100080000000000B0360000000000000000000000010000000000000000000000000000FFFFFF000000000000000000000000000000000000000000000000000000000000000000330000006600000099000000CC000000FF00000000330000333300006633000099330000CC330000FF3300
310
0000660000336600006666000099660000CC660000FF66000000990000339900006699000099990000CC990000FF99000000CC000033CC000066CC000099CC0000CCCC0000FFCC000000FF000033FF000066FF000099FF0000CCFF0000FFFF000000003300330033006600330099003300CC003300FF003300003333003333
310
33006633330099333300CC333300FF33330000663300336633006666330099663300CC663300FF66330000993300339933006699330099993300CC993300FF99330000CC330033CC330066CC330099CC3300CCCC3300FFCC330000FF330033FF330066FF330099FF3300CCFF3300FFFF330000006600330066006600660099
310
006600CC006600FF00660000336600333366006633660099336600CC336600FF33660000666600336666006666660099666600CC666600FF66660000996600339966006699660099996600CC996600FF99660000CC660033CC660066CC660099CC6600CCCC6600FFCC660000FF660033FF660066FF660099FF6600CCFF6600
310
FFFF660000009900330099006600990099009900CC009900FF00990000339900333399006633990099339900CC339900FF33990000669900336699006666990099669900CC669900FF66990000999900339999006699990099999900CC999900FF99990000CC990033CC990066CC990099CC9900CCCC9900FFCC990000FF99
310
0033FF990066FF990099FF9900CCFF9900FFFF99000000CC003300CC006600CC009900CC00CC00CC00FF00CC000033CC003333CC006633CC009933CC00CC33CC00FF33CC000066CC003366CC006666CC009966CC00CC66CC00FF66CC000099CC003399CC006699CC009999CC00CC99CC00FF99CC0000CCCC0033CCCC0066CC
310
CC0099CCCC00CCCCCC00FFCCCC0000FFCC0033FFCC0066FFCC0099FFCC00CCFFCC00FFFFCC000000FF003300FF006600FF009900FF00CC00FF00FF00FF000033FF003333FF006633FF009933FF00CC33FF00FF33FF000066FF003366FF006666FF009966FF00CC66FF00FF66FF000099FF003399FF006699FF009999FF00CC
310
99FF00FF99FF0000CCFF0033CCFF0066CCFF0099CCFF00CCCCFF00FFCCFF0000FFFF0033FFFF0066FFFF0099FFFF00CCFFFF00FFFFFF00000000000D0D0D001A1A1A00282828003535350043434300505050005D5D5D006B6B6B00787878008686860093939300A1A1A100AEAEAE00BBBBBB00C9C9C900D6D6D600E4E4E400
310
F1F1F100FFFFFF0000000000000000000000000000000000000000000000000000000000000000000000000000000000F5F5F5F5F5F5F5F5F5F5F5F5F5F5F5F5F5F5F5F5F5F5F5F5F5F5F5F5F5F5F5F5F5F5F5F5F5F5F5F5F5F5F5F5F5F5F5F5F5F5F5F5F5F5F5F5F5F5F5F5F5F5F5F5F5F5F5F5F5F5F5F5F5F5F5F5F5F5F5
310
F5F5F5F5F5F5F5F5F5F5F5F5F5F5F5F5F5F5F5F537F5E2E2E2E2E2E2E2E2E2E2E2E2E2E2E2E2E2E2E2E2E2E2E2E2E2E2E2E2E2E2E2E2E2E2E2E2E2E2E2E2E2E2E2E2E2E2E2E2E2E2E2E2E2E2E2E2E2E2E2E2E2E2E2E2E2E2E2E2E2E2E2E2E2E2E2E2E2E2E2E2E2E2E2E2E2E2E2E2E2E2E2E2E2E2E2E2F5F544F5E2E2E2E2E2
310
E2E2E2E2E2E2E2E2E2E2E2E2E2E2E2E2E2E2E2E2E2E2E2E2E2E2E2E2E2E2E2E2E2E2E2E2E2E2E2E2E2E2E2E2E2E2E2E2E2E2E2E2E2E2E2E2E2E2E2E2E2E2E2E2E2E2E2E2E2E2E2E2E2E2E2E2E2E2E2E2E2E2E2E2E2E2E2E2E2E2E2F5F537F5E2E2F5F5F5F5F5F5F5F5E2E2E2E2E2E2E2E2F5F5F5F5F5F5F5F5F5F5F5F5F5F5
310
F5E2E2E2E2E2E2E2E2F5F5F5F5F5F5F5F5F5F5F5F5F5F5E2E2E2E2E2E2E2E2F5F5F5F5F5F5F5F5F5F5F5F5F5F5F5E2E2E2E2E2E2E2E2F5F5F5F5F5F5F5F5E2E2F5F544F5E2E2F5E2E2E2E2E2E2E2E2E2E2E2E2E2E2E2E2E2E2E2E2E2E2E2E2E2F5F5E2E2E2E2E2E2E2E2E2E2E2E2E2E2E2E2E2E2E2E2E2E2E2E2E2E2E2E2E2
310
E2E2E2E2E2E2E2E2E2E2E2E2E2E2E2E2E2E2E2E2E2E2E2E2E2E2E2E2E2E2E2E2E2E2F5E2E2F5F537F5E2E2F5E2E2E2E2F5F5F5F5F5F5F5F5F5F5F5F5F5F5F5F5F5F5F5F5F5F5F5F5F5F5F5F5F5F5F5F5F5F5F5F5F5F5F5F5F5F5F5F5F5F5F5F5F5F5F5F5F5F5F5F5F5F5F5F5F5F5F5F5F5F5F5F5F5F5F5F5F5F5F5F5F5F5F5
310
F5F5F5F5E2E2E2F5E2E2F5F544F5E2E2F5E2E2E2E2F5F5F5F5F5F5F5F5F5F5F5F5F5F5F5F5F5F5F5F5F5F5F5F5F5F5F5F5F5F5F5F5F5F5F5F5F5F5F5F5F5F5F5F5F5F5F5F5F5F5F5F5F5F5F5F5F5F5F5F5F5F5F5F5F5F5F5F5F5F5F5F5F5F5F5F5F5F5F5F5F5F5F5F5E2E2F5E2E2F5F538F5E2E2F5E2E2E2E2E2E2E2E2E2E2
310
E2E2E2E2E2E2E2E2E2E2E2E2E2E2E2E2E2E2E2E2E2E2E2E2E2E2E2E2E2E2E2E2E2E2E2E2E2E2E2E2E2E2E2E2E2E2E2E2E2E2E2E2E2E2E2E2E2E2E2E2E2E2E2E2E2E2E2E2E2E2E2E2E2E2E2E2E2E2E2E2F5E2E2F5F544F5E2E2F5E2E2E2E2F5F5F5F5F5F5F5F5F5F5F5F5F5F5F5F5F5F5F5F5F5F5F5F5F5F5F5F5F5F5F5F5F5
310
F5F5F5F5F5F5F5F5F5F5F5F5F5F5F5F5F5F5F5F5F5F5F5F5F5F5F5F5F5F5F5F5F5F5F5F5F5F5F5F5F5F5F5F5F5F5F5F5F5F5F5E2E2F5E2E2F5F538F5E2E2F5E2E2E2E2F5EFE2E2E2E2E2E2E2E2E2E2E2E2E2E2E2E2E2E2E2E2E2E2E2E2E2E2E2E2E2E2E2E2E2E2E2E2E2E2E2E2E2E2E2E2E2E2E2E2E2E2E2E2E2E2E2E2E2E2
310
E2E2E2E2E2E2E2E2E2E2E2E2E2E2E2E2E2E2E2E2E2E2E2F5E2E2F5E2E2F5F544F5E2E2F5E2E2E2E2F5EFE2E2E2E2E2E2E2E2E2E2E2E2E2E2E2E2E2E2E2E2E2E2E2E2E2E2E2E2E2E2E2E2E2E2E2E2E2E2E2E2E2E2E2E2E2E2E2E2E2E2E2E2E2E2E2E2E2E2E2E2E2E2E2E2E2E2E2E2E2E2E2E2E2E2E2E2E2E2E2E2E2F5E2E2F5
310
E2E2F5F53BF5E2E2F5E2E2E2E2F5EFE2E2E2E2E2E2E2E2E2E2E2E2E2E2E2E2E2E2E2E2E2E2E2E2E2E2E2E2E2E2E2E2E2E2E2E2E2E2E2E2E2E2E2E2E2E2E2E2E2E2E2E2E2E2E2E2E2E2E2E2E2E2E2E2E2E2E2E2E2E2E2E2E2E2E2E2E2E2E2E2E2F5E2E2F5E2E2F5F544F5E2E2E2E2E2E2E2F5EFE2E2E2E2E2E2E2E2E2E2E2E2
310
E2E2E2E2E2E2E2E2E2E2E2E2E2E2E2E2E2E2E2E2E2E2E2E2E2E2E2E2E2E2E2E2E2E2E2E2E2E2E2E2E2E2E2E2E2E2E2E2E2E2E2E2E2E2E2E2E2E2E2E2E2E2E2E2E2E2E2E2E2F5E2E2E2E2E2F5F53BF5E2E2E2E2E2E2E2F5EFE2E2E2E2E2E2E2E2E2E2E2E2E2E2E2E2E2E2E2E2E2E2E2E2E2E2E2E2E2E2E2E2E2E2E2E2E2E2E2
310
E2E2E2E2E2E2E2E2E2E2E2E2E2E2E2E2E2E2E2E2E2E2E2E2E2E2E2E2E2E2E2E2E2E2E2E2E2E2E2E2E2E2F5E2E2E2E2E2F5F544F5E2E2E2E2E2E2E2F5EFE2E2E2E2E2E2E2E2E2E2E2E2E2E2E2E2E2E2E2E2E2E2E2E2E2E2E2E2E2E2E2E2E2E2E2E2E2E2E2E2E2E2E2E2E2E2E2E2E2E2E2E2E2E2E2E2E2E2E2E2E2E2E2E2E2E2
310
E2E2E2E2E2E2E2E2E2E2E2E2E2E2E2F5E2E2E2E2E2F5F53BF5E2E2E2E2E2E2E2F5EFE2E2E2E2E2E2E2E2E2E2E2E2E2E2E2E2E2E2E2E2E2E2E2E2E2E2E2E2E2E2E2E2E2E2E2E2E2E2E2E2E2E2E2E2E2E2E2E2E2E2E2E2E2E2E2E2E2E2E2E2E2E2E2E2E2E2E2E2E2E2E2E2E2E2E2E2E2E2E2E2E2F5E2E2E2E2E2F5F544F5E2E2
310
E2E2E2E2E2F5EFE2E2E2E2E2E2E2E2E2E2E2E2E2E2E2E2E2E2E2E2E2E2E2E2E2E2E2E2E2E2E2E2E2E2E2E2E2E2E2E2E2E2E2E2E2E2E2E2E2E2E2E2E2E2E2E2E2E2E2E2E2E2E2E2E2E2E2E2E2E2E2E2E2E2E2E2E2E2E2E2E2F5E2E2E2E2E2F5F53BF5E2E2E2E2E2E2E2F5EFE2E2E2E2E2E2E2E2E2E2E2E2E2E2E2E2E2F5F5F5
310
F5E2E2E2E2E2E2E2E2E2E2E2E2E2E2F5F5F5F5F5F5F5F5F5F5E2E2E2E2E2E2E2E2E2E2E2E2E2E2F5F5F5F5F5E2E2E2E2E2E2E2E2E2E2E2E2E2E2E2E2E2F5E2E2E2E2E2F5F544F5E2E2E2E2E2E2E2F5EFE2E2E2E2E2E2E2E2E2E2E2E2E2E2E2E2E2F5F5F5F5E2E2E2E2E2E2E2E2E2E2E2E2E2E2F5F5F5F5F5F5F5F5F5F5E2E2
310
E2E2E2E2E2E2E2E2E2E2E2E2F5F5F5F5F5E2E2E2E2E2E2E2E2E2E2E2E2E2E2E2E2E2F5E2E2E2E2E2F5F53BF5E2E2E2E2E2E2E2F5EFE2E2E2E2E2E2E2E2E2E2E2E2ECECEFEFEFEFEFEFEFEFEFEFEFEFEFE2E2E2E2E2E2E2F0F0F0F0F0F0F0F0F0F0F0F0F0E2E2E2E2E2E2E2EFEFEFEFEFEFEFEFEFEFEFEFEFECECE2E2E2E2E2
310
E2E2E2E2E2E2E2F5E2E2E2E2E2F5F544F5E2E2E2E2E2E2E2F5EFE2E2E2E2E2E2E2E2E2E2E2E2ECECECE2E2EFE2E2E2E2E2E2E2E2EFE2E2E2E2E2E2E2F0F0E2E2E2E2E2E2E2E2E2F0F0E2E2E2E2E2E2E2EFE2E2E2E2E2E2E2E2EFE2E2ECECECE2E2E2E2E2E2E2E2E2E2E2E2F5E2E2E2E2E2F5F53BF5E2E2F5E2E2E2E2F5EFE2
310
E2E2E2E2E2E2E2E2E2E2ECECECECECE2EFE2E2E2E2E2E2E2E2EFE2E2E2E2E2E2E2F0F0E2E2E2E2E2E2E2E2E2F0F0E2E2E2E2E2E2E2EFE2E2E2E2E2E2E2E2EFE2ECECECECECE2E2E2E2E2E2E2E2E2E2E2F5E2E2F5E2E2F5F544F5E2E2F5E2E2E2E2F5EFE2E2E2E2E2E2E2E2E2E2E2ECECECF5F5E2EFE2E2E2E2E2E2E2E2EFE2
310
E2E2E2E2E2ECF0F0E2E2E2E2E2E2E2E2E2F0F0ECE2E2E2E2E2E2EFE2E2E2E2E2E2E2E2EFE2F5F5ECECECE2E2E2E2E2E2E2E2E2E2E2F5E2E2F5E2E2F5F53BF5E2E2F5E2E2E2E2F5EFE2E2E2E2E2E2E2E2E2E2E2E2E2E2F5F5E2EFEFE2E2E2E2E2E2E2EFE2E2E2E2E2E2ECF0F0E2E2E2E2E2E2E2E2E2F0F0ECE2E2E2E2E2E2EF
310
E2E2E2E2E2E2E2EFEFE2F5F5E2E2E2E2E2E2E2E2E2E2E2E2E2E2F5E2E2F5E2E2F5F544F5E2E2F5E2E2E2E2F5EFE2E2E2E2E2E2E2F5F5F5F5F5E2E2F5F5E2EFEFE2E2E2E2E2E2E2EFE2E2E2E2E2ECE2F0F0E2E2E2E2E2E2E2E2E2F0F0E2ECE2E2E2E2E2EFE2E2E2E2E2E2E2EFEFE2F5F5E2E2F5F5F5F5F5E2E2E2E2E2E2E2F5
310
E2E2F5E2E2F5F53CF5E2E2F5E2E2E2E2F5EFE2E2E2E2E2E2E2F5E2E2E2ECECECF5F5E2EFEFE2E2E2E2E2E2E2EFE2E2E2E2E2E2ECF0F0E2E2E2E2E2E2E2E2E2F0F0ECE2E2E2E2E2E2EFE2E2E2E2E2E2E2EFEFE2F5F5ECECECE2E2E2F5E2E2E2E2E2E2E2F5E2E2F5E2E2F5F544F5E2E2F5E2E2E2E2F5EFE2E2E2E2E2E2E2F5E2
310
E2E2ECECECECECE2EFEFE2E2E2E2E2E2E2EFE2E2E2E2E2E2E2F0F0E2E2E2E2E2E2E2E2E2F0F0E2E2E2E2E2E2E2EFE2E2E2E2E2E2E2EFEFE2ECECECECECE2E2E2F5E2E2E2E2E2E2E2F5E2E2F5E2E2F5F538F5E2E2F5E2E2E2E2F5EFE2E2E2E2E2E2E2F5E2E2E2E2ECECECECEFEFEFEFEFEFE2E2E2E2EFE2E2E2E2E2E2E2F0F0
310
E2E2E2E2E2E2E2E2E2F0F0E2E2E2E2E2E2E2EFE2E2E2E2EFEFEFEFEFEFECECECECE2E2E2E2F5E2E2E2E2E2E2E2F5E2E2F5E2E2F5F544F5E2E2F5E2E2E2E2F5EFE2E2E2E2E2E2E2F5E2E2E2E2EFEFEFEFEFEFEFEFECECECEFEFEFEFE2E2E2E2E2E2E2F0F0E2E2E2E2E2E2E2E2E2F0F0E2E2E2E2E2E2E2EFEFEFEFECECECEFEF
310
EFEFEFEFEFEFE2E2E2E2F5E2E2E2E2E2E2E2F5E2E2F5E2E2F5F53BF5E2E2F5E2E2E2E2F5EFE2E2E2E2E2E2E2F5E2E2E2E2EFEFE2EFECEFECEFECECECE2E2E2EFE2E2E2E2E2E2E2F0F0F0F0F0F0F0F0F0F0F0F0F0E2E2E2E2E2E2E2EFE2E2E2ECECECEFECEFECEFE2EFEFE2E2E2E2F5E2E2E2E2E2E2E2F5E2E2F5E2E2F5F544
310
F5E2E2F5E2E2E2E2F5EFE2E2E2E2E2E2E2F5E2E2E2E2EFE2E2EFECECEFEFECEFEFEFE2EFEFE2E2E2E2E2E2E2E2E2E2E2E2E2E2E2E2E2E2E2E2E2E2E2E2E2E2E2EFEFE2EFEFEFECEFEFECECEFE2E2EFE2E2E2E2F5E2E2E2E2E2E2E2F5E2E2F5E2E2F5F53CF5E2E2F5E2E2E2E2F5EFE2E2E2E2E2E2E2F5E2E2E2E2EFEFEFEFEC
310
EFECEFEFEFEFEFEFEFECE2E2E2E2E2E2E2E2E2E2E2E2E2E2E2E2E2E2E2E2E2E2E2E2E2E2E2ECEFEFEFEFEFEFEFECEFECEFEFEFEFE2E2E2E2F5E2E2E2E2E2E2E2F5E2E2F5E2E2F5F544F5E2E2F5E2E2E2E2F5EFE2E2E2E2E2E2E2F5E2E2E2E2EFE2E2E2E2E2EFEFEFEFE2E2ECECECE2E2E2E2E2E2E2E2E2E2E2E2E2E2E2E2E2
310
E2E2E2E2E2E2E2E2E2E2ECECECE2E2EFEFEFEFE2E2E2E2E2EFE2E2E2E2F5E2E2E2E2E2E2E2F5E2E2F5E2E2F5F538F5E2E2F5E2E2E2E2F5EFE2E2E2E2E2E2E2F5E2E2E2E2EFE2E2E2E2E2E2E2E2EFECECECECECECE2E2E2E2E2E2E2E2E2E2E2E2E2E2E2E2E2E2E2E2E2E2E2E2E2ECECECECECECEFE2E2E2E2E2E2E2E2EFE2E2
310
E2E2F5E2E2E2E2E2E2E2F5E2E2F5E2E2F5F544F5E2E2F5E2E2E2E2F5EFE2E2E2E2E2E2E2F5E2E2E2E2EFE2E2E2E2E2E2E2E2EFF5ECF5ECECECE2E2E2E2E2E2E2E2E2E2E2E2E2E2E2E2E2E2E2E2E2E2E2E2E2ECECECF5ECF5EFE2E2E2E2E2E2E2E2EFE2E2E2E2F5E2E2E2E2E2E2E2F5E2E2F5E2E2F5F53CF5E2E2F5E2E2E2E2
310
F5EFE2E2E2E2E2E2E2F5E2E2E2E2EFE2E2E2E2E2E2E2EFEFF5E2F5E2E2E2E2E2E2E2E2E2E2E2E2E2E2E2E2E2E2E2E2E2E2E2E2E2E2E2E2E2E2E2F5E2F5EFEFE2E2E2E2E2E2E2EFE2E2E2E2F5E2E2E2E2E2E2E2F5E2E2F5E2E2F5F544F5E2E2F5E2E2E2E2F5EFE2E2E2E2E2E2E2F5E2E2E2E2EFE2E2E2E2E2E2E2EFEFF5E2F5
310
E2E2E2E2E2E2E2E2E2E2E2E2E2E2E2E2E2E2E2E2E2E2E2E2E2E2E2E2E2E2E2F5E2F5EFEFE2E2E2E2E2E2E2EFE2E2E2E2F5E2E2E2E2E2E2E2F5E2E2F5E2E2F5F538F5E2E2F5E2E2E2E2F5EFE2E2E2E2E2E2E2F5E2E2E2E2EFE2E2E2E2E2E2E2EFEFF5F5F5F5F5F5E2E2E2E2E2E2E2E2E2E2E2E2E2E2E2E2E2E2E2E2E2E2E2E2
310
E2F5F5F5F5F5F5EFEFE2E2E2E2E2E2E2EFE2E2E2E2F5E2E2E2E2E2E2E2F5E2E2F5E2E2F5F544F5E2E2E2E2E2E2E2F5EFE2E2E2E2E2E2E2F5E2E2E2E2EFE2E2E2E2E2E2E2EFEFECECECECECECE2E2E2E2E2E2E2E2E2E2E2E2E2E2E2E2E2E2E2E2E2E2E2E2E2ECECECECECECEFEFE2E2E2E2E2E2E2EFE2E2E2E2F5E2E2E2E2E2
310
E2E2F5E2E2E2E2E2F5F53BF5E2E2E2E2E2E2E2F5EFE2E2E2E2E2E2E2F5E2E2E2E2EFE2E2E2E2E2E2E2EFEFE2ECECECECECE2E2E2E2E2E2E2E2E2E2E2E2E2E2E2E2E2E2E2E2E2E2E2E2E2ECECECECECE2EFEFE2E2E2E2E2E2E2EFE2E2E2E2F5E2E2E2E2E2E2E2F5E2E2E2E2E2F5F543F5E2E2E2E2E2E2E2F5EFE2E2E2E2E2E2
310
E2F5E2E2E2E2EFEFEFEFEFEFEFEFEFEFEFEFEFEFEFE2E2E2E2E2E2E2E2E2E2E2E2E2E2E2E2E2E2E2E2E2E2E2E2E2E2E2EFEFEFEFEFEFEFF5F5F5F5F5EFEFEFE2E2E2E2F5E2E2E2E2E2E2E2F5E2E2E2E2E2F5F53CF5E2E2E2E2E2E2E2F5EFE2E2E2E2E2E2E2F5E2E2E2E2E2E2F5F5F5F5F5E2E2F5F5F5F5F5E2E2E2E2E2E2E2
310
E2F5F5F5F5F5F5F5F5F5F5F5F5F5E2E2E2E2E2E2E2F5F5F5F5F5E2E2F5F5F5F5F5E2E2E2E2E2E2E2F5E2E2E2E2E2E2E2F5E2E2E2E2E2F5F543F5E2E2E2E2E2E2E2F5EFE2E2E2E2E2E2E2F5E2E2E2E2E2E2E2E2E2E2E2E2E2E2E2E2E2E2E2E2E2E2E2E2E2E2F5F5F5F5F5F5F5F5F5F5F5E2F5E2E2E2E2E2E2E2E2E2E2E2E2E2
310
E2E2E2E2E2E2E2E2E2E2E2E2E2F5E2E2E2E2E2E2E2F5E2E2E2E2E2F5F538F5E2E2E2E2E2E2E2F5EFE2E2E2E2E2E2E2F5E2E2E2E2E2E2E2E2E2E2E2E2E2E2E2E2E2E2E2E2E2E2E2E2E2E2F5E2E2E2E2E2E2E2E2E2E2E2F5E2E2E2E2E2E2E2E2E2E2E2E2E2E2E2E2E2E2E2E2E2E2E2E2E2E2F5E2E2E2E2E2E2E2F5E2E2E2E2E2
310
F5F543F5E2E2E2E2E2E2E2F5EFE2E2E2E2E2E2E2F5E2E2E2E2E2E2E2E2E2E2E2E2E2E2E2E2E2E2E2E2E2E2E2E2E2E2F5F5F5F5F5F5F5F5F5F5F5F5F5E2E2E2E2E2E2E2E2E2E2E2E2E2E2E2E2E2E2E2E2E2E2E2E2E2E2F5E2E2E2E2E2E2E2F5E2E2E2E2E2F5F53BF5E2E2E2E2E2E2E2F5EFE2E2E2E2E2E2E2F5E2E2E2E2E2E2
310
E2E2E2E2E2E2E2E2E2E2E2E2E2E2E2E2E2E2E2E2E2E2E2E2E2E2E2E2E2E2E2E2E2E2E2E2E2E2E2E2E2E2E2E2E2E2E2E2E2E2E2E2E2E2E2E2E2E2E2F5E2E2E2E2E2E2E2F5E2E2E2E2E2F5F543F5E2E2E2E2E2E2E2F5EFE2E2E2E2E2E2E2F5F5F5F5F5F5F5F5F5F5F5F5F5F5F5F5F5F5F5F5F5F5F5F5F5F5F5F5F5F5F5F5E2E2
310
E2F5F5F5F5F5F5F5F5F5F5F5F5F5F5F5F5F5F5F5F5F5F5F5F5F5F5F5F5F5F5F5F5E2E2E2E2E2E2E2F5E2E2E2E2E2F5F538F5E2E2E2E2E2E2E2F5EFE2E2E2E2E2E2E2E2E2E2E2E2E2E2E2E2E2E2E2E2E2E2E2E2E2E2E2E2E2E2E2E2E2E2E2E2E2E2F5E2E2E2F5E2E2E2E2E2E2E2E2E2E2E2E2E2E2E2E2E2E2E2E2E2E2E2E2E2
310
E2E2E2E2E2E2E2E2E2E2E2E2E2F5E2E2E2E2E2F5F543F5E2E2F5E2E2E2E2F5EFE2E2E2E2E2E2E2E2E2E2E2E2E2E2E2E2E2E2E2E2E2E2E2E2E2E2E2E2E2E2E2E2E2E2E2E2E2E2F5E2E2E2F5E2E2E2E2E2E2E2E2E2E2E2E2E2E2E2E2E2E2E2E2E2E2E2E2E2E2E2E2E2E2E2E2E2E2E2E2E2E2F5E2E2F5E2E2F5F53BF5E2E2F5E2
310
E2E2E2F5EFE2E2E2E2E2E2E2E2E2E2E2E2E2E2E2E2E2E2E2E2E2E2E2E2E2E2E2E2E2E2E2E2E2E2E2E2E2E2F5E2E2E2F5E2E2E2E2E2E2E2E2E2E2E2E2E2E2E2E2E2E2E2E2E2E2E2E2E2E2E2E2E2E2E2E2E2E2E2E2E2E2F5E2E2F5E2E2F5F543F5E2E2F5E2E2E2E2F5EFE2E2E2E2E2E2E2E2E2E2E2E2E2E2E2E2E2E2E2E2E2E2
310
E2E2E2E2E2E2E2E2E2E2E2E2E2E2E2E2F5E2E2E2F5E2E2E2E2E2E2E2E2E2E2E2E2E2E2E2E2E2E2E2E2E2E2E2E2E2E2E2E2E2E2E2E2E2E2E2E2E2E2F5E2E2F5E2E2F5F53CF5E2E2F5E2E2E2E2F5EFE2E2E2E2E2E2E2E2E2E2E2E2E2E2E2E2E2E2E2E2E2E2E2E2E2E2E2E2E2E2E2E2E2E2E2E2E2E2F5E2E2E2F5E2E2E2E2E2E2
310
E2E2E2E2E2E2E2E2E2E2E2E2E2E2E2E2E2E2E2E2E2E2E2E2E2E2E2E2E2E2E2E2F5E2E2F5E2E2F5F543F5E2E2F5E2E2E2E2F5EFE2E2E2E2E2E2E2E2E2E2E2E2E2E2E2E2E2E2E2E2E2E2E2E2E2E2E2E2E2E2E2E2E2E2E2E2E2E2F5E2E2E2F5E2E2E2E2E2E2E2E2E2E2E2E2E2E2E2E2E2E2E2E2E2E2E2E2E2E2E2E2E2E2E2E2E2
310
E2E2E2E2E2F5E2E2F5E2E2F5F53BF5E2E2F5E2E2E2E2F5EFE2E2E2E2E2E2E2E2E2E2E2E2E2E2E2E2E2E2E2E2E2E2E2E2E2E2E2E2E2E2E2E2E2E2E2E2E2E2F5E2E2E2F5E2E2E2E2E2E2E2E2E2E2E2E2E2E2E2E2E2E2E2E2E2E2E2E2E2E2E2E2E2E2E2E2E2E2E2E2E2E2F5E2E2F5E2E2F5F543F5E2E2F5E2E2E2E2F5EFE2E2E2
310
E2E2E2E2E2E2E2E2E2E2E2E2E2E2E2E2E2E2E2E2E2E2E2E2E2E2E2E2E2E2E2E2E2E2E2F5E2E2E2F5E2E2E2E2E2E2E2E2E2E2E2E2E2E2E2E2E2E2E2E2E2E2E2E2E2E2E2E2E2E2E2E2E2E2E2E2E2E2F5E2E2F5E2E2F5F538F5E2E2F5E2E2E2E2F5EFE2E2E2E2E2E2E2E2E2E2E2E2E2E2E2E2E2E2E2E2E2E2E2E2E2E2E2E2E2E2
310
E2E2E2E2E2E2E2E2F5E2E2E2F5E2E2E2E2E2E2E2E2E2E2E2E2E2E2E2E2E2E2E2E2E2E2E2E2E2E2E2E2E2E2E2E2E2E2E2E2E2E2F5E2E2F5E2E2F5F543F5E2E2F5E2E2E2E2F5EFE2E2E2E2E2E2E2E2E2E2E2E2E2E2E2E2E2E2E2E2E2E2E2E2E2E2E2E2E2E2E2E2E2E2E2E2E2E2F5E2E2E2F5E2E2E2E2E2E2E2E2E2E2E2E2E2E2
310
E2E2E2E2E2E2E2E2E2E2E2E2E2E2E2E2E2E2E2E2E2E2E2E2F5E2E2F5E2E2F5F538F5E2E2F5E2E2E2E2F5EFE2E2E2E2E2E2E2E2E2E2E2E2E2E2E2E2E2E2E2E2E2E2E2E2E2E2E2E2E2E2E2E2E2E2E2E2E2E2F5E2E2E2F5E2E2E2E2E2E2E2E2E2E2E2E2E2E2E2E2E2E2E2E2E2E2E2E2E2E2E2E2E2E2E2E2E2E2E2E2E2E2F5E2E2
310
F5E2E2F5F543F5E2E2F5E2E2E2E2F5EFE2E2E2E2E2E2E2E2E2E2E2E2E2E2E2E2E2E2E2E2E2E2E2E2E2E2E2E2E2E2E2E2E2E2E2E2E2E2F5E2E2E2F5E2E2E2E2E2E2E2E2E2E2E2E2E2E2E2E2E2E2E2E2E2E2E2E2E2E2E2E2E2E2E2E2E2E2E2E2E2E2F5E2E2F5E2E2F5F538F5E2E2F5E2E2E2E2F5EFE2E2E2E2E2E2E2E2E2E2E2
310
E2E2E2E2E2E2E2E2E2E2E2E2E2E2E2E2E2E2E2E2E2E2E2E2E2E2E2F5E2E2E2F5E2E2E2E2E2E2E2E2E2E2E2E2E2E2E2E2E2E2E2E2E2E2E2E2E2E2E2E2E2E2E2E2E2E2E2E2E2E2F5E2E2F5E2E2F5F543F5E2E2F5E2E2E2E2F5EFE2E2E2E2E2E2E2E2E2E2E2E2E2E2E2E2E2E2E2E2E2E2E2E2E2E2E2E2E2E2E2E2E2E2E2E2E2E2
310
F5E2E2E2F5E2E2E2E2E2E2E2E2E2E2E2E2E2E2E2E2E2E2E2E2E2E2E2E2E2E2E2E2E2E2E2E2E2E2E2E2E2E2F5E2E2F5E2E2F5F538F5E2E2F5E2E2E2E2F5EFE2E2E2E2E2E2E2E2E2E2E2E2E2E2E2E2E2E2E2E2E2E2E2E2E2E2E2E2E2E2E2E2E2E2E2E2E2E2F5E2E2E2F5E2E2E2E2E2E2E2E2E2E2E2E2E2E2E2E2E2E2E2E2E2E2
310
E2E2E2E2E2E2E2E2E2E2E2E2E2E2E2E2F5E2E2F5E2E2F5F543F5E2E2F5E2E2E2E2F5EFF5F5F5F5F5E2E2E2F5F5F5F5F5E2E2E2E2E2E2E2E2E2E2E2E2E2E2E2E2E2E2E2E2E2E2E2E2E2F5E2E2E2F5E2E2E2E2E2E2E2E2E2E2E2E2E2E2E2E2E2E2E2E2E2E2E2E2F5F5F5F5F5E2E2E2F5F5F5F5F5E2F5E2E2F5E2E2F5F538F5E2
310
E2F5E2E2E2E2F5EFE2E2E2E2E2E2E2E2E2E2E2E2E2E2E2E2E2E2E2E2E2E2E2E2E2E2E2E2F5F5F5F5F5E2E2E2E2E2F5E2E2E2F5E2E2E2E2F5F5F5F5F5E2E2E2E2E2E2E2E2E2E2E2E2E2E2E2E2E2E2E2E2E2E2E2E2E2E2E2E2E2F5E2E2F5E2E2F5F543F5E2E2F5E2E2E2E2F5EFEFEFEFEFEFEFEFEFEFEFEFEFEFEFEFEFEFE2E2
310
E2E2E2E2E2E2E2E2E2F5F5F5F5F5E2E2E2E2E2F5E2E2E2F5E2E2E2E2F5F5F5F5F5E2E2E2E2E2E2E2E2E2E2E2E2EFEFEFEFEFEFEFEFEFEFEFEFEFEFEFEFEFF5E2E2F5E2E2F5F53CF5E2E2E2E2E2E2E2F5EFEFEFEFEFE2EFEFEFEFEFEFE2EFEFEFEFEFEFEFEFEFEFEFEFEFEFEFEFEFEFEFEFEFEFE2E2E2E2F5E2E2E2F5E2E2E2
310
E2EFEFEFEFEFEFEFEFEFEFEFEFEFEFEFEFEFEFEFEFEFEFE2EFEFEFEFEFEFE2EFEFEFEFF5E2E2E2E2E2F5F543F5E2E2E2E2E2E2E2F5EFE2E2E2E2E2EFEFE2E2EFE2E2EFEFEFEFEFEFEFEFEFEFEFEFEFEFEFEFEFEFECECECECE2E2E2E2F5E2E2E2F5E2E2E2E2ECECECECEFEFEFEFEFEFEFEFEFEFEFEFEFEFEFEFEFEFE2E2EFE2
310
E2EFEFE2E2E2E2E2F5E2E2E2E2E2F5F53CF5E2E2E2E2E2E2E2F5EFE2E2E2E2E2EFEFE2E2EFE2E2E2EFEFEFEFE2E2E2E2E2E2E2E2E2E2EFEFF5F5F5F5F5F5E2E2E2F5E2E2E2F5E2E2E2F5F5F5F5F5F5EFEFE2E2E2E2E2E2E2E2E2E2EFEFEFEFE2E2E2EFE2E2EFEFE2E2E2E2E2F5E2E2E2E2E2F5F543F5E2E2E2E2E2E2E2F5EF
310
E2E2E2E2E2EFEFE2E2EFE2E2E2E2E2EFEFE2E2E2E2E2E2E2E2E2E2EFEFECECECECECECE2E2E2F5E2E2E2F5E2E2E2ECECECECECECEFEFE2E2E2E2E2E2E2E2E2E2EFEFE2E2E2E2E2EFE2E2EFEFE2E2E2E2E2F5E2E2E2E2E2F5F53CF5E2E2E2E2E2E2E2F5EFE2E2E2E2E2EFEFE2EFEFE2E2E2E2E2EFEFE2E2E2E2E2E2E2E2E2EF
310
EFEFF5F5F5F5F5F5E2E2E2F5E2E2E2F5E2E2E2F5F5F5F5F5F5EFEFEFE2E2E2E2E2E2E2E2E2EFEFE2E2E2E2E2EFEFE2EFEFE2E2E2E2E2F5E2E2E2E2E2F5F543F5E2E2E2E2E2E2E2F5EFE2E2E2E2E2EFEFE2EFEFE2E2E2E2E2EFEFE2E2E2E2E2E2E2E2E2EFEFEFF5E2F5E2E2F5F5F5F5F5E2E2E2F5F5F5F5F5E2E2F5E2F5EFEF
310
EFE2E2E2E2E2E2E2E2E2EFEFE2E2E2E2E2EFEFE2EFEFE2E2E2E2E2F5E2E2E2E2E2F5F53CF5E2E2E2E2E2E2E2F5EFE2E2E2E2E2EFEFE2EFEFE2E2E2E2E2EFEFE2E2E2E2E2E2E2E2E2EFEFEFF5F5F5F5F5F5E2E2E2E2E2E2E2E2E2E2E2F5F5F5F5F5F5EFEFEFE2E2E2E2E2E2E2E2E2EFEFE2E2E2E2E2EFEFE2EFEFE2E2E2E2E2
310
F5E2E2E2E2E2F5F543F5E2E2E2E2E2E2E2F5EFE2E2E2E2E2EFEFE2E2EFE2E2E2E2E2EFEFE2E2E2E2E2E2E2E2E2EFEFEFECECECECECECE2E2E2E2E2E2E2E2E2E2E2ECECECECECECEFEFEFE2E2E2E2E2E2E2E2E2EFEFE2E2E2E2E2EFE2E2EFEFE2E2E2E2E2F5E2E2E2E2E2F5F53DF5E2E2E2E2E2E2E2F5EFE2E2E2E2E2EFEFE2
310
E2EFE2E2EFEFEFEFEFE2E2E2E2E2E2E2E2E2EFEFEFF5ECECECECF5E2E2E2E2E2E2E2E2E2E2E2F5ECECECECF5EFEFEFE2E2E2E2E2E2E2E2E2EFEFEFEFEFE2E2EFE2E2EFEFE2E2E2E2E2F5E2E2E2E2E2F5F543F5E2E2F5E2E2E2E2F5EFE2E2E2E2E2EFEFE2E2EFE2E2EFEFEFEFEFEFEFEFEFEFEFEFEFEFEFEFEFEFEFECECECE2
310
E2E2E2E2E2E2E2E2E2E2E2E2ECECECEFEFEFEFEFEFEFEFEFEFEFEFEFEFEFEFEFEFEFE2E2EFE2E2EFEFE2E2E2E2E2F5E2E2F5E2E2F5F53DF5E2E2F5E2E2E2E2F5EFE2E2E2E2E2EFEFE2E2EFEFE2E2EFEFEFEFE2E2E2E2E2E2E2E2E2E2E2F5F5F5F5F5E2E2E2E2E2E2E2E2E2E2E2E2E2E2F5F5F5F5F5E2E2E2E2E2E2E2E2E2E2
310
E2E2EFEFEFEFE2E2EFEFE2E2EFEFE2E2E2E2E2F5E2E2F5E2E2F5F543F5E2E2F5E2E2E2E2F5EFE2E2E2E2E2EFEFEFEFEFEFEFEFEFEFEFEFE2E2E2E2E2E2E2E2E2E2E2E2E2E2E2E2E2E2E2E2E2E2E2E2E2E2E2E2E2E2E2E2E2E2E2E2E2E2E2E2E2E2E2E2E2E2E2EFEFEFEFEFEFEFEFEFEFEFEFE2E2E2E2E2F5E2E2F5E2E2F5F5
310
3DF5E2E2F5E2E2E2E2F5EFE2E2E2E2E2EFEFE2E2EFE2E2EFEFEFEFEFE2E2E2E2E2E2E2E2E2E2E2E2E2E2E2E2E2E2E2E2E2E2E2E2E2E2E2E2E2E2E2E2E2E2E2E2E2E2E2E2E2E2E2E2E2E2E2EFEFEFEFEFE2E2EFE2E2EFEFE2E2E2E2E2F5E2E2F5E2E2F5F543F5E2E2F5E2E2E2E2F5EFE2E2E2E2E2EFEFE2E2EFE2E2E2E2E2EF
310
EFE2E2E2E2E2E2E2E2E2E2E2E2E2E2E2E2E2E2E2E2E2E2E2E2E2E2E2E2E2E2E2E2E2E2E2E2E2E2E2E2E2E2E2E2E2E2E2EFEFE2E2E2E2E2EFE2E2EFEFE2E2E2E2E2F5E2E2F5E2E2F5F53DF5E2E2F5E2E2E2E2F5EFE2E2E2E2E2EFEFE2E2EFE2E2E2E2E2EFEFE2E2E2E2E2E2E2E2E2E2E2E2E2E2E2E2E2E2E2E2E2E2E2E2E2E2
310
E2E2E2E2E2E2E2E2E2E2E2E2E2E2E2E2E2E2E2E2E2EFEFE2E2E2E2E2EFE2E2EFEFE2E2E2E2E2F5E2E2F5E2E2F5F543F5E2E2F5E2E2E2E2F5EFE2E2E2E2E2EFEFE2E2EFE2E2E2E2E2EFEFE2E2E2E2E2E2E2E2E2E2E2E2E2E2E2E2E2E2E2E2E2E2E2E2E2E2E2E2E2E2E2E2E2E2E2E2E2E2E2E2E2E2E2E2E2E2E2EFEFE2E2E2E2
310
E2EFE2E2EFEFE2E2E2E2E2F5E2E2F5E2E2F5F53DF5E2E2F5E2E2E2E2F5EFE2E2E2E2E2EFEFE2EFEFE2E2E2E2E2EFF5F5F5F5F5E2E2E2E2E2E2E2E2E2E2E2E2E2E2E2E2E2E2E2E2E2E2E2E2E2E2E2E2E2E2E2E2E2E2E2E2E2E2F5F5F5F5F5EFEFE2E2E2E2E2EFEFE2EFEFE2E2E2E2E2F5E2E2F5E2E2F5F543F5E2E2F5E2E2E2
310
E2F5EFE2E2E2E2E2EFEFE2EFEFE2E2E2E2E2EFF5F5F5F5F5E2E2E2E2E2E2E2E2E2E2E2E2E2E2E2E2E2E2E2E2E2E2E2E2E2E2E2E2E2E2E2E2E2E2E2E2E2E2F5F5F5F5F5EFEFE2E2E2E2E2EFEFE2EFEFE2E2E2E2E2F5E2E2F5E2E2F5F53DF5E2E2F5E2E2E2E2F5EFE2E2E2E2E2EFEFE2EFEFE2E2E2E2E2EFEFE2E2E2E2E2E2E2
310
E2E2E2E2E2E2E2E2E2E2E2E2E2E2E2E2E2E2E2E2E2E2E2E2E2E2E2E2E2E2E2E2E2E2E2E2E2E2E2E2EFEFE2E2E2E2E2EFEFE2EFEFE2E2E2E2E2F5E2E2F5E2E2F5F543F5E2E2F5E2E2E2E2F5EFE2E2E2E2E2EFEFE2E2EFE2E2E2E2E2EFEFE2E2E2E2E2E2E2E2E2E2E2E2E2E2E2E2E2E2E2E2E2E2E2E2E2E2E2E2E2E2E2E2E2E2
310
E2E2E2E2E2E2E2E2E2E2E2E2E2EFEFE2E2E2E2E2EFE2E2EFEFE2E2E2E2E2F5E2E2F5E2E2F5F53DF5E2E2F5E2E2E2E2F5EFE2E2E2E2E2EFEFE2E2EFE2E2E2E2E2EFEFE2E2E2E2E2E2E2E2E2E2E2E2E2E2E2E2E2E2E2E2E2E2E2E2E2E2E2E2E2E2E2E2E2E2E2E2E2E2E2E2E2E2E2E2E2E2E2EFEFE2E2E2E2E2EFE2E2EFEFE2E2
310
E2E2E2F5E2E2F5E2E2F5F543F5E2E2F5E2E2E2E2F5EFE2E2E2E2E2EFEFE2E2EFE2E2E2E2E2EFEFE2E2E2E2E2E2E2E2E2E2E2E2E2E2E2E2E2E2E2E2E2E2E2E2E2E2E2E2E2E2E2E2E2E2E2E2E2E2E2E2E2E2E2E2E2E2E2EFEFE2E2E2E2E2EFE2E2EFEFE2E2E2E2E2F5E2E2F5E2E2F5F53DF5E2E2F5E2E2E2E2F5EFE2E2E2E2E2
310
EFEFEFEFEFEFE2EFEFEFEFEFE2E2E2E2E2E2E2E2E2E2E2E2E2E2E2E2E2E2E2E2E2E2E2E2E2E2E2E2E2E2E2E2E2E2E2E2E2E2E2E2E2E2E2E2E2E2E2EFEFEFEFEFE2EFEFEFEFEFEFE2E2E2E2E2F5E2E2F5E2E2F5F543F5E2E2F5E2E2E2E2F5EFE2E2E2E2E2EFEFEFEFEFEFEFEFEFEFEFEFE2E2E2E2E2E2E2E2E2E2E2E2E2E2E2
310
E2E2E2E2E2E2E2E2E2E2E2E2E2E2E2E2E2E2E2E2E2E2E2E2E2E2E2E2E2E2E2E2EFEFEFEFEFEFEFEFEFEFEFEFE2E2E2E2E2F5E2E2F5E2E2F5F53DF5E2E2F5E2E2E2E2F5EFE2E2E2E2E2E2E2E2E2E2E2E2E2E2E2E2E2E2E2E2E2E2E2E2E2E2E2E2E2E2E2E2E2E2E2E2E2E2E2E2E2E2E2E2E2E2E2E2E2E2E2E2E2E2E2E2E2E2E2
310
E2E2E2E2E2E2E2E2E2E2E2E2E2E2E2E2E2E2E2E2E2E2F5E2E2F5E2E2F5F543F5E2E2F5E2E2E2E2F5EFE2E2E2E2E2E2E2E2E2E2E2E2E2E2E2E2E2E2E2E2E2E2E2E2E2E2E2E2E2E2E2E2E2E2E2E2E2E2E2E2E2E2E2E2E2E2E2E2E2E2E2E2E2E2E2E2E2E2E2E2E2E2E2E2E2E2E2E2E2E2E2E2E2E2E2E2E2E2E2E2E2F5E2E2F5E2
310
E2F5F53DF5E2E2E2E2E2E2E2F5EFE2E2E2E2E2E2E2E2E2E2E2E2E2E2E2E2E2E2E2E2E2E2E2E2E2E2E2E2E2E2E2E2E2E2E2E2E2E2E2E2E2E2E2E2E2E2E2E2E2E2E2E2E2E2E2E2E2E2E2E2E2E2E2E2E2E2E2E2E2E2E2E2E2E2E2E2E2E2E2E2E2F5E2E2E2E2E2F5F543F5E2E2E2E2E2E2E2F5EFE2E2E2E2E2E2E2E2E2E2E2E2E2
310
E2E2E2E2E2E2E2E2E2E2E2E2E2E2E2E2E2E2E2E2E2E2E2E2E2E2E2E2E2E2E2E2E2E2E2E2E2E2E2E2E2E2E2E2E2E2E2E2E2E2E2E2E2E2E2E2E2E2E2E2E2E2E2E2E2E2E2E2F5E2E2E2E2E2F5F53DF5E2E2E2E2E2E2E2F5EFE2E2E2E2E2E2E2E2E2E2E2E2E2E2E2E2E2E2E2E2E2E2E2E2E2E2E2E2E2E2E2E2E2E2E2E2E2E2E2E2
310
E2E2E2E2E2E2E2E2E2E2E2E2E2E2E2E2E2E2E2E2E2E2E2E2E2E2E2E2E2E2E2E2E2E2E2E2E2E2E2E2E2F5E2E2E2E2E2F5F543F5E2E2E2E2E2E2E2F5EFE2E2E2E2E2E2E2E2E2E2E2E2E2E2E2E2E2E2E2E2E2E2E2E2E2E2E2E2E2E2E2E2E2E2E2E2E2E2E2E2E2E2E2E2E2E2E2E2E2E2E2E2E2E2E2E2E2E2E2E2E2E2E2E2E2E2E2
310
E2E2E2E2E2E2E2E2E2E2E2E2E2E2F5E2E2E2E2E2F5F53DF5E2E2E2E2E2E2E2F5EFE2E2E2E2E2E2E2E2E2E2E2E2E2E2E2E2E2E2E2E2E2E2E2E2E2E2E2E2E2E2E2E2E2E2E2E2E2E2E2E2E2E2E2E2E2E2E2E2E2E2E2E2E2E2E2E2E2E2E2E2E2E2E2E2E2E2E2E2E2E2E2E2E2E2E2E2E2E2E2E2E2F5E2E2E2E2E2F5F543F5E2E2E2
310
E2E2E2E2F5EFE2E2E2E2E2E2E2E2E2E2E2E2E2E2E2E2E2E2E2E2E2E2E2E2E2E2E2E2E2E2E2E2E2E2E2E2E2E2E2E2E2E2E2E2E2E2E2E2E2E2E2E2E2E2E2E2E2E2E2E2E2E2E2E2E2E2E2E2E2E2E2E2E2E2E2E2E2E2E2E2E2F5E2E2E2E2E2F5F53DF5E2E2E2E2E2E2E2F5EFE2E2E2E2E2E2E2E2E2E2E2DCDCDCDCDCDCDCDCDCDC
310
DCDCDCDCDCDCDCDCDCDCDCDCDCDCDCDCDCDCDCDCDCDCDCDCDCDCDCDCDCDCDCDCDCDCDCDCDCDCDCDCDCDCDCDCDCDCDCDCDCE2E2E2E2E2E2E2E2E2E2E2F5E2E2E2E2E2F5F543F5E2E2E2E2E2E2E2F5EFE2E2E2E2E2E2E2E2F5F5E2DCDCDCDCDCDCDCDCDCDCDCDCDCDCDCDCDCDCDCDCDCDCDCDCDCDCDCDCDCDCDCDCDCDCDCDCDC
310
DCDCDCDCDCDCDCDCDCDCDCDCDCDCDCDCDCDCDCDCDCDCE2F5F5E2E2E2E2E2E2E2E2F5E2E2E2E2E2F5F53DF5E2E2E2E2E2E2E2F5EFE2E2E2E2E2E2E2E2F5F5E2DCDCDCE2E2E2E2E2E2E2E2E2E2E2DCDCE2E2E2E2E2E2E2E2E2E2E2E2E2E2E2E2E2E2E2E2E2E2E2E2E2E2E2DCDCE2E2E2E2E2E2E2E2E2E2E2DCDCDCE2F5F5E2E2
310
E2E2E2E2E2E2F5E2E2E2E2E2F5F500F5E2E2E2E2E2E2E2F5EFE2E2E2E2E2E2E2E2F5F5E2DCDCDCE2E2E2E2E2E2E2E2E2E2E2DCDCE2E2E2E2E2E2E2E2E2E2E2E2E2E2E2E2E2E2E2E2E2E2E2E2E2E2E2DCDCE2E2E2E2E2E2E2E2E2E2E2DCDCDCE2F5F5E2E2E2E2E2E2E2E2F5E2E2E2E2E2F5F500F5E2E2F5E2E2E2E2F5EFE2E2
310
E2E2E2E2E2E2E2F5E2DCDCDCE2E2E2E2E2E2E2E2E2E2E2DCDCE2E2E2E2E2E2E2E2E2E2E2E2E2E2E2E2E2E2E2E2E2E2E2E2E2E2E2DCDCE2E2E2E2E2E2E2E2E2E2E2DCDCDCE2F5E2E2E2E2E2E2E2E2E2F5E2E2F5E2E2F5F500F5E2E2F5E2E2E2E2F5EFE2E2E2E2E2E2E2E2E2F5E2DCDCDCE2E2E2E2E2E2E2E2E2E2E2DCDCE2E2
310
E2E2E2E2E2E2E2E2E2E2E2E2E2E2E2E2E2E2E2E2E2E2E2E2E2DCDCE2E2E2E2E2E2E2E2E2E2E2DCDCDCE2F5E2E2E2E2E2E2E2E2E2F5E2E2F5E2E2F5F500F5E2E2F5E2E2E2E2F5EFE2E2E2E2E2E2E2E2E2F5E2DCDCDCE2E2E2E2E2E2E2E2E2E2E2DCDCE2E2E2E2E2E2E2E2E2E2E2E2E2E2E2E2E2E2E2E2E2E2E2E2E2E2E2DCDC
310
E2E2E2E2E2E2E2E2E2E2E2DCDCDCE2F5E2E2E2E2E2E2E2E2E2F5E2E2F5E2E2F5F500F5E2E2F5E2E2E2E2F5EFE2E2E2E2E2E2E2E2E2F5E2DCDCDCE2E2E2E2E2E2E2E2E2E2E2DCDCE2E2E2E2E2E2E2E2E2E2E2E2E2E2E2E2E2E2E2E2E2E2E2E2E2E2E2DCDCE2E2E2E2E2E2E2E2E2E2E2DCDCDCE2F5E2E2E2E2E2E2E2E2E2F5E2
310
E2F5E2E2F5F500F5E2E2F5E2E2E2E2F5EFE2E2E2E2E2E2E2E2E2F5E2DCDCDCE2E2E2F5F5F5E2E2E2E2E2DCDCE2E2E2E2E2E2E2E2E2E2E2E2E2E2E2E2E2E2E2E2E2E2E2E2E2E2E2DCDCE2E2E2E2E2F5F5F5E2E2E2DCDCDCE2F5E2E2E2E2E2E2E2E2E2F5E2E2F5E2E2F5F500F5E2E2F5E2E2E2E2F5EFE2E2E2E2E2E2E2E2E2F5
310
F5F5F5F5F5F5E2F5F5F5F5F5E2E2E2DCDCE2E2E2E2E2E2E2E2E2E2E2E2E2E2E2E2E2E2E2E2E2E2E2E2E2E2E2DCDCE2E2E2F5F5F5F5F5E2F5F5F5F5F5F5F5E2E2E2E2E2E2E2E2E2F5E2E2F5E2E2F5F500F5E2E2F5E2E2E2E2F5EFE2E2E2E2E2E2E2E2E2E2E2DCDCDCE2E2E2E2E2F5F5E2E2E2E2DCDCE2E2E2E2E2E2E2E2E2E2
310
E2E2E2E2E2E2E2E2E2E2E2E2E2E2E2E2E2DCDCE2E2E2E2F5F5E2E2E2E2E2DCDCDCE2E2E2E2E2E2E2E2E2E2E2F5E2E2F5E2E2F5F500F5E2E2F5E2E2E2E2F5EFE2E2E2E2E2E2E2E2E2E2E2DCDCDCE2E2E2E2E2E2E2E2E2E2E2DCDCE2E2E2E2E2E2E2E2E2E2E2E2E2E2E2E2E2E2E2E2E2E2E2E2E2E2E2DCDCE2E2E2E2E2E2E2E2
310
E2E2E2DCDCDCE2E2E2E2E2E2E2E2E2E2E2F5E2E2F5E2E2F5F500F5E2E2F5E2E2E2E2F5EFE2E2E2E2E2E2E2E2E2E2E2DCDCDCE2E2E2E2E2E2E2E2E2E2E2DCDCE2E2E2E2E2E2E2E2E2E2E2E2E2E2E2E2E2E2E2E2E2E2E2E2E2E2E2DCDCE2E2E2E2E2E2E2E2E2E2E2DCDCDCE2E2E2E2E2E2E2E2E2E2E2F5E2E2F5E2E2F5F500F5
310
E2E2F5E2E2E2E2F5EFE2E2E2E2E2E2E2E2E2E2E2DCDCDCE2E2E2E2E2E2E2E2E2E2E2DCDCE2E2E2E2E2E2E2E2E2E2E2E2E2E2E2E2E2E2E2E2E2E2E2E2E2E2E2DCDCE2E2E2E2E2E2E2E2E2E2E2DCDCDCE2E2E2E2E2E2E2E2E2E2E2F5E2E2F5E2E2F5F500F5E2E2F5E2E2E2E2F5EFE2E2E2E2E2E2E2E2E2E2E2DCDCDCE2E2E2E2
310
E2E2E2E2E2E2E2DCDCE2E2E2E2E2E2E2E2E2E2E2E2E2E2E2E2E2E2E2E2E2E2E2E2E2E2E2DCDCE2E2E2E2E2E2E2E2E2E2E2DCDCDCE2E2E2E2E2E2E2E2E2E2E2F5E2E2F5E2E2F5F500F5E2E2F5E2E2E2E2F5EFE2E2E2E2E2E2E2E2E2E2E2DCDCDCE2E2E2E2E2E2E2E2E2E2E2DCDCE2E2E2E2E2E2E2E2E2E2E2E2E2E2E2E2E2E2
310
E2E2E2E2E2E2E2E2E2DCDCE2E2E2E2E2E2E2E2E2E2E2DCDCDCE2E2E2E2E2E2E2E2E2E2E2F5E2E2F5E2E2F5F500F5E2E2F5E2E2E2E2F5EFE2E2E2E2E2E2E2E2E2E2E2DCDCDCDCDCDCDCDCDCDCDCDCDCDCDCDCDCDCDCDCDCDCDCDCDCDCDCDCDCDCDCDCDCDCDCDCDCDCDCDCDCDCDCDCDCDCDCDCDCDCDCDCDCDCDCDCDCDCDCE2E2
310
E2E2E2E2E2E2E2E2E2F5E2E2F5E2E2F5F500F5E2E2F5E2E2E2E2F5EFE2E2E2E2E2E2E2E2E2E2E2DCDCDCDCDCDCDCDCDCDCDCDCDCDCDCDCDCDCDCDCDCDCDCDCDCDCDCDCDCDCDCDCDCDCDCDCDCDCDCDCDCDCDCDCDCDCDCDCDCDCDCDCDCDCDCDCDCDCDCE2E2E2E2E2E2E2E2E2E2E2F5E2E2F5E2E2F5F500F5E2E2F5E2E2E2E2F5
310
EFE2E2E2E2E2E2E2E2E2E2E2E2E2E2E2E2E2E2E2E2E2E2E2E2E2E2E2E2E2E2E2E2E2E2E2E2E2E2E2E2E2E2E2E2E2E2E2E2E2E2E2E2E2E2E2E2E2E2E2E2E2E2E2E2E2E2E2E2E2E2E2E2E2E2E2E2E2E2E2E2E2F5E2E2F5E2E2F5F500F5E2E2F5E2E2E2E2F5EFE2E2E2E2E2E2E2E2E2E2E2E2E2E2E2E2E2E2E2E2E2E2E2E2E2E2
310
E2E2E2E2E2E2E2E2E2E2E2E2E2E2E2E2E2E2E2E2E2E2E2E2E2E2E2E2E2E2E2E2E2E2E2E2E2E2E2E2E2E2E2E2E2E2E2E2E2E2E2E2E2E2E2F5E2E2F5E2E2F5F500F5E2E2F5E2E2E2E2F5EFE2E2E2E2E2E2E2E2E2E2E2E2E2E2E2E2E2E2E2E2E2E2E2E2E2E2E2E2E2E2E2E2E2E2E2E2E2E2E2E2E2E2E2E2E2E2E2E2E2E2E2E2E2
310
E2E2E2E2E2E2E2E2E2E2E2E2E2E2E2E2E2E2E2E2E2E2E2E2E2E2E2E2F5E2E2F5E2E2F5F500F5E2E2E2E2E2E2E2F5EFE2E2E2E2E2E2E2E2E2E2E2E2E2E2E2E2E2E2E2E2E2E2E2E2E2E2E2E2E2E2E2E2E2E2E2E2E2E2E2E2E2E2E2E2E2E2E2E2E2E2E2E2E2E2E2E2E2E2E2E2E2E2E2E2E2E2E2E2E2E2E2E2E2E2E2E2E2E2E2E2
310
E2F5E2E2E2E2E2F5F5CDF5E2E2E2E2E2E2E2F5EFE2E2E2E2E2E2E2E2E2E2E2E2E2E2E2E2E2E2E2E2E2E2E2E2E2E2E2E2E2E2E2E2E2E2E2E2E2E2E2E2E2E2E2E2E2E2E2E2E2E2E2E2E2E2E2E2E2E2E2E2E2E2E2E2E2E2E2E2E2E2E2E2E2E2E2E2E2E2E2E2E2F5E2E2E2E2E2F5F500F5E2E2E2E2E2E2E2F5EFEFEFEFEFEFEFEF
310
EFEFEFEFEFEFEFEFEFEFEFEFEFEFEFEFEFEFEFEFEFEFEFEFEFEFEFEFEFEFEFEFEFEFEFEFEFEFEFEFEFEFEFEFEFEFEFEFEFEFEFEFEFEFEFEFEFEFEFEFEFEFEFEFEFEFEFEFEFEFEFEFEFEFF5E2E2E2E2E2F5F5CDF5E2E2E2E2E2E2E2F5F5F5F5F5F5F5F5F5F5F5F5F5F5F5F5F5F5F5F5F5F5F5F5F5F5F5F5F5F5F5F5F5F5F5F5
310
F5F5F5F5F5F5F5F5F5F5F5F5F5F5F5F5F5F5F5F5F5F5F5F5F5F5F5F5F5F5F5F5F5F5F5F5F5F5F5F5F5F5F5F5F5F5F5F5E2E2E2E2E2F5F500F5E2E2E2E2E2E2E2E2E2E2E2E2E2E2F5F5F5F5F5F5F5F5F5F5F5F5F5F5F5F5F5F5F5F5F5F5F5F5F5F5F5F5F5F5F5F5F5F5F5F5F5F5F5F5F5F5F5F5F5F5F5F5F5F5F5F5F5F5F5F5
310
F5F5F5F5F5F5F5F5F5F5F5F5F5F5F5F5F5F5F5F5F5E2E2E2E2E2F5F5CDF5E2E2E2E2E2E2E2E2E2E2E2E2E2ECECECE2E2E2E2E2F5F5F5F5F5F5F5F5F5F5F5F5F5F5F5F5F5E2E2E2E2E2E2E2E2E2E2E2E2E2E2E2E2E2E2E2E2E2E2E2E2E2E2E2E2E2E2F5E2E2F5F5F5F5F5F5E2E2F5E2E2E2E2F5F5E2E2E2E2F5E2E2E2E2E2F5
310
F500F5E2E2E2E2E2E2E2E2E2E2E2E2E2ECECECE2E2E2E2E2F5F5F5F5F5F5F5F5F5F5F5F5F5F5F5F5F5E2E2E2E2E2E2E2E2E2E2E2E2E2E2E2E2E2E2E2E2E2E2E2E2E2E2E2E2E2E2F5E2E2E2E2E2E2E2E2E2E2F5E2E2E2E2E2E2E2E2E2E2F5E2E2E2E2E2F5F5CDF5E2E2E2E2E2E2E2E2E2E2E2E2ECECECECECE2E2E2E2F5F5F5
310
F5F5F5F5F5F5F5F5F5F5F5F5F5F5F5F5F5F5F5F5F5F5F5F5F5F5F5F5F5F5F5F5F5F5F5F5F5F5F5F5F5F5F5E2F5E2E2E2F5F5F5F5E2E2E2F5E2E2F5F5F5F5F5E2E2E2F5E2E2E2E2E2F5F500F5E2E2E2E2E2E2E2E2E2E2E2ECECECECECECE2E2E2E2F5F5F5F5F5F5F5F5F5F5F5F5F5F5F5F5F5F5F5F5F5F5F5F5F5F5F5F5F5F5
310
F5F5F5F5F5F5F5F5F5F5F5F5F5F5F5F5E2F5E2E2E2F5F5F5F5E2E2E2F5E2E2F5F5F5F5F5E2E2E2F5E2E2E2E2E2F5F5CDF5E2E2F5E2E2E2E2E2E2E2E2ECECECECECECECE2E2E2F5F5F5F5F5F5F5F5F5F5F5F5F5F5F5F5F5F5F5F5F5F5F5F5F5F5F5F5F5F5F5F5F5F5F5F5F5F5F5F5F5F5F5F5F5F5E2F5E2E2E2E2E2E2E2E2E2
310
E2F5E2E2E2E2E2E2E2E2E2E2F5E2E2F5E2E2F5F500F5E2E2F5E2E2E2E2E2E2E2ECECECECECECECECE2E2E2F5F5F5F5F5F5F5F5F5F5F5F5F5F5F5F5F5F5F5F5F5F5F5F5F5F5F5F5F5F5F5F5F5F5F5F5F5F5F5F5F5F5F5F5F5F5E2F5F5F5F5F5F5F5F5F5F5F5F5F5F5F5F5F5F5F5F5F5F5F5E2E2F5E2E2F5F5CDF5E2E2F5E2E2
310
E2E2E2E2E2ECECECECECECECECECE2E2F5F5F5F5F5F5F5F5F5F5F5F5F5F5F5F5F5F5F5F5F5F5F5F5F5F5F5F5F5F5F5F5F5F5F5F5F5F5F5F5F5F5F5F5F5F5E2F5E2E2E2E2E2E2E2E2E2E2E2E2E2E2E2E2E2E2E2E2E2F5E2E2F5E2E2F5F500F5E2E2F5E2E2E2E2E2E2ECECECECECECECECECECE2E2F5F5F5F5F5F5F5F5F5F5F5
310
F5F5F5F5F5F5F5F5F5F5F5F5F5F5F5F5F5F5F5F5F5F5F5F5F5F5F5F5F5F5F5F5F5F5F5E2F5E2E2F5F5F5F5F5F5F5E2F5F5F5F5F5F5F5F5E2E2E2F5E2E2F5E2E2F5F5CDF5E2E2F5E2E2E2E2E2ECECECECECECECECECECECECE2F5F5F5F5F5F5F5F5F5F5F5F5F5F5F5F5F5F5F5F5F5F5F5F5F5F5F5F5F5F5F5F5F5F5E2E2E2E2
310
E2E2E2E2E2E2E2E2E2F5E2E2F5F5F5F5F5F5F5E2F5F5F5F5F5F5F5F5E2E2E2F5E2E2F5E2E2F5F500F5E2E2F5E2E2E2E2E2ECECECECECECECECECECECECE2F5F5F5F5F5F5F5F5F5F5F5F5F5F5F5F5F5F5F5F5F5F5F5F5F5F5F5F5F5F5F5F5F5F5E2E2E2E2E2E2E2E2E2E2E2E2E2F5E2E2E2E2E2E2E2E2E2E2E2E2E2E2E2E2E2
310
E2E2E2E2F5E2E2F5E2E2F5F5CDF5E2E2F5E2E2E2E2ECECECECECECECF5ECECECECECECE2E2E2E2E2E2E2E2E2E2E2E2E2E2E2E2E2E2E2E2E2E2E2E2E2E2E2E2E2E2E2E2E2E2E2E2E2E2E2E2E2E2E2E2E2E2E2F5E2E2E2E2E2E2E2E2E2E2E2E2E2E2E2E2E2E2E2E2E2F5E2E2F5E2E2F5F500F5E2E2F5E2E2E2E2E2E2E2E2E2E2
310
E2F5E2E2E2E2E2E2E2E2E2E2E2E2E2E2E2E2E2E2E2E2E2E2E2E2E2E2E2E2E2E2E2E2E2E2E2E2E2E2E2E2E2E2E2E2E2E2E2E2E2E2E2E2E2F5E2E2E2E2E2E2E2E2E2E2E2E2E2E2E2E2E2E2E2E2E2F5E2E2F5E2E2F5F5CDF5E2E2F5F5F5F5F5F5F5F5E2E2E2E2F5F5F5F5F5F5F5F5F5F5F5F5F5F5F5F5F5F5F5F5F5F5F5F5F5F5
310
F5F5F5F5F5F5F5F5F5F5F5F5F5F5F5F5F5F5F5F5F5F5F5F5F5F5F5F5F5F5F5F5F5F5F5F5F5F5F5F5F5F5F5F5F5F5F5F5F5F5F5F5F5F5E2E2F5F500F5E2E2E2E2E2E2E2E2E2E2E2E2E2E2E2E2E2E2E2E2E2E2E2E2E2E2E2E2E2E2E2E2E2E2E2E2E2E2E2E2E2E2E2E2E2E2E2E2E2E2E2E2E2E2E2E2E2E2E2E2E2E2E2E2E2E2E2
310
E2E2E2E2E2E2E2E2E2E2E2E2E2E2E2E2E2E2E2E2E2E2E2E2E2E2E2E2E2F5F5CDF5E2E2E2E2E2E2E2E2E2E2E2E2E2E2E2E2E2E2E2E2E2E2E2E2E2E2E2E2E2E2E2E2E2E2E2E2E2E2E2E2E2E2E2E2E2E2E2E2E2E2E2E2E2E2E2E2E2E2E2E2E2E2E2E2E2E2E2E2E2E2E2E2E2E2E2E2E2E2E2E2E2E2E2E2E2E2E2E2E2E2E2E2E2E2
310
E2E2F5EF00F5E2E2E2E2E2E2E2E2E2E2E2E2E2E2E2E2E2E2E2E2E2E2E2E2E2E2E2E2E2E2E2E2E2E2E2E2E2E2E2E2E2E2E2E2E2E2E2E2E2E2E2E2E2E2E2E2E2E2E2E2E2E2E2E2E2E2E2E2E2E2E2E2E2E2E2E2E2E2E2E2E2E2E2E2E2E2E2E2E2E2E2E2E2E2E2E2F5EF00F5F5F5F5F5F5F5F5F5F5F5F5F5F5F5F5F5F5F5F5F5F5
310
F5F5F5F5F5F5F5F5F5F5F5F5F5F5F5F5F5F5F5F5F5F5F5F5F5F5F5F5F5F5F5F5F5F5F5F5F5F5F5F5F5F5F5F5F5F5F5F5F5F5F5F5F5F5F5F5F5F5F5F5F5F5F5F5F5F5F5F5F5F5F5F5F5F5F5F5EF44
  0
XRECORD
  5
197E
102
{ACAD_REACTORS
330
FB7
102
}
330
FB7
100
AcDbXrecord
280
     1
102
MATERIAL
148
0.0
149
0.0
149
0.0
 93
        0
 94
      127
282
     0
 72
     0
 77
     0
171
     0
175
     0
179
     0
273
     0
  0
XRECORD
  5
FB9
102
{ACAD_REACTORS
330
FB7
102
}
330
FB7
100
AcDbXrecord
280
     1
270
     1
271
     1
  0
XRECORD
  5
FB8
102
{ACAD_REACTORS
330
FB7
102
}
330
FB7
100
AcDbXrecord
280
     1
270
     1
271
     1
  0
XRECORD
  5
FBC
102
{ACAD_REACTORS
330
FB7
102
}
330
FB7
100
AcDbXrecord
280
     1
270
     1
271
     1
  0
XRECORD
  5
FBB
102
{ACAD_REACTORS
330
FB7
102
}
330
FB7
100
AcDbXrecord
280
     1
270
     1
271
     1
  0
XRECORD
  5
FBD
102
{ACAD_REACTORS
330
FB7
102
}
330
FB7
100
AcDbXrecord
280
     1
270
     1
271
     1
  0
XRECORD
  5
FBA
102
{ACAD_REACTORS
330
FB7
102
}
330
FB7
100
AcDbXrecord
280
     1
270
     1
271
     1
  0
XRECORD
  5
197D
102
{ACAD_REACTORS
330
FAF
102
}
330
FAF
100
AcDbXrecord
280
     1
102
MATERIAL
148
0.0
149
0.0
149
0.0
 93
        0
 94
      127
282
     0
 72
     0
 77
     0
171
     0
175
     0
179
     0
273
     0
  0
XRECORD
  5
FB1
102
{ACAD_REACTORS
330
FAF
102
}
330
FAF
100
AcDbXrecord
280
     1
270
     1
271
     1
  0
XRECORD
  5
FB0
102
{ACAD_REACTORS
330
FAF
102
}
330
FAF
100
AcDbXrecord
280
     1
270
     1
271
     1
  0
XRECORD
  5
FB4
102
{ACAD_REACTORS
330
FAF
102
}
330
FAF
100
AcDbXrecord
280
     1
270
     1
271
     1
  0
XRECORD
  5
FB3
102
{ACAD_REACTORS
330
FAF
102
}
330
FAF
100
AcDbXrecord
280
     1
270
     1
271
     1
  0
XRECORD
  5
FB5
102
{ACAD_REACTORS
330
FAF
102
}
330
FAF
100
AcDbXrecord
280
     1
270
     1
271
     1
  0
XRECORD
  5
FB2
102
{ACAD_REACTORS
330
FAF
102
}
330
FAF
100
AcDbXrecord
280
     1
270
     1
271
     1
  0
XRECORD
  5
197F
102
{ACAD_REACTORS
330
FBF
102
}
330
FBF
100
AcDbXrecord
280
     1
102
MATERIAL
148
0.0
149
0.0
149
0.0
 93
        0
 94
      127
282
     0
 72
     0
 77
     0
171
     0
175
     0
179
     0
273
     0
  0
XRECORD
  5
FC1
102
{ACAD_REACTORS
330
FBF
102
}
330
FBF
100
AcDbXrecord
280
     1
270
     1
271
     1
  0
XRECORD
  5
FC0
102
{ACAD_REACTORS
330
FBF
102
}
330
FBF
100
AcDbXrecord
280
     1
270
     1
271
     1
  0
XRECORD
  5
FC4
102
{ACAD_REACTORS
330
FBF
102
}
330
FBF
100
AcDbXrecord
280
     1
270
     1
271
     1
  0
XRECORD
  5
FC3
102
{ACAD_REACTORS
330
FBF
102
}
330
FBF
100
AcDbXrecord
280
     1
270
     1
271
     1
  0
XRECORD
  5
FC5
102
{ACAD_REACTORS
330
FBF
102
}
330
FBF
100
AcDbXrecord
280
     1
270
     1
271
     1
  0
XRECORD
  5
FC2
102
{ACAD_REACTORS
330
FBF
102
}
330
FBF
100
AcDbXrecord
280
     1
270
     1
271
     1
  0
ACAD_PROXY_OBJECT
  5
1965
102
{ACAD_REACTORS
330
1196
102
}
330
1196
100
AcDbProxyObject
 90
      499
 91
      513
 95
   983063
 70
     0
 93
     5304
310
40D054060020000020000003200101A000080002A5058000000C10000000000000006101010000000000003E0FC000000000000F83F0000000000003E0FC000000000000F83F02B5E8DC0F42B1CFC0AD7A3703D0AC73F419019018000000C1003FBFFFFFE0000000000003C8FD029018000000C1003FBFFFFFE00000000000
310
03C8FD049018000000C1003FBFFFFFE0000000000003C8FD089018000000C1003FBFFFFFE0000000000003C8FD109018000000C1003FBFFFFFE0000000000003C8FD209018000000C1003FBFFFFFE0000000000003C8FD01405075F5449544C450041501A8000000C800406800020000A94160000003040000000000000012
310
40404000000000000F83F0000000000003E0FC000000000000F83F0000000000003E0FC0AD7A3703D0AC73F02B5E8DC0F42B1CFD0640640600000030400FEFFFFFF8000000000000F23F40A40600000030400FEFFFFFF8000000000000F23F41240600000030400FEFFFFFF8000000000000F23F42240600000030400FEFFF
310
FFF8000000000000F23F44240600000030400FEFFFFFF8000000000000F23F48240600000030400FEFFFFFF8000000000000F23F409014217D2115051115480105406A0000003200101A000080002A5028000000C10000000000000004901010000000000003E0FC000000000000F83F0000000000003E0FC000000000000F
310
83F02B5E8DC0F42B1CFC0AD7A3703D0AC73F419019018000000C1003FBFFFFFE0000000000003C8FD029018000000C1003FBFFFFFE0000000000003C8FD049018000000C1003FBFFFFFE0000000000003C8FD089018000000C1003FBFFFFFE0000000000003C8FD109018000000C1003FBFFFFFE0000000000003C8FD20901
310
8000000C1003FBFFFFFE0000000000003C8FD03409065F444154410053
340
11
340
0
340
0
340
0
340
0
340
0
340
0
340
11
340
0
340
0
340
0
340
0
340
0
340
0
340
11
340
0
340
0
340
0
340
0
340
0
340
0
 94
        0
1001
ACAD
1000
AcRTDxfName
1000
CELLSTYLEMAP
1000
AcRTDxfName
1000
CELLSTYLEMAP
1000
AcRTDxfName
1000
CELLSTYLEMAP
  0
XRECORD
  5
1980
102
{ACAD_REACTORS
330
1196
102
}
330
1196
100
AcDbXrecord
280
     1
102
ACAD_ROUNDTRIP_PRE2007_TABLESTYLE
 90
      512
 91
        0
  1

 92
      512
 93
        0
  2

 94
      512
 95
        0
  3

  0
ENDSEC
  0
EOF
